ISO-10303-21;
HEADER;
FILE_DESCRIPTION (( 'STEP AP214' ),
    '1' );
FILE_NAME ('01105.STEP',
    '2023-06-22T14:19:46',
    ( '' ),
    ( '' ),
    'SwSTEP 2.0',
    'SolidWorks 2023',
    '' );
FILE_SCHEMA (( 'AUTOMOTIVE_DESIGN' ));
ENDSEC;

DATA;
#1 = DIRECTION ( 'NONE',  ( -3.160378836509298460E-17, 1.000000000000000000, -0.000000000000000000 ) ) ;
#2 = SURFACE_STYLE_FILL_AREA ( #168 ) ;
#3 = SURFACE_STYLE_USAGE ( .BOTH. , #212 ) ;
#4 = EDGE_CURVE ( 'NONE', #217, #61, #286, .T. ) ;
#5 = VECTOR ( 'NONE', #257, 39.37007874015748143 ) ;
#6 = DIMENSIONAL_EXPONENTS ( 1.000000000000000000, 0.000000000000000000, 0.000000000000000000, 0.000000000000000000, 0.000000000000000000, 0.000000000000000000, 0.000000000000000000 ) ;
#7 =( NAMED_UNIT ( * ) SI_UNIT ( $, .STERADIAN. ) SOLID_ANGLE_UNIT ( ) );
#8 = CLOSED_SHELL ( 'NONE', ( #282, #218, #154, #155 ) ) ;
#9 = PRESENTATION_STYLE_ASSIGNMENT (( #3 ) ) ;
#10 = FACE_OUTER_BOUND ( 'NONE', #197, .T. ) ;
#11 = SURFACE_STYLE_FILL_AREA ( #191 ) ;
#12 = DIRECTION ( 'NONE',  ( 0.000000000000000000, 0.000000000000000000, -1.000000000000000000 ) ) ;
#13 = ORIENTED_EDGE ( 'NONE', *, *, #275, .F. ) ;
#14 = PRODUCT_DEFINITION_SHAPE ( 'NONE', 'NONE',  #258 ) ;
#15 = EDGE_LOOP ( 'NONE', ( #266, #252 ) ) ;
#16 = STYLED_ITEM ( 'NONE', ( #58 ), #282 ) ;
#17 = AXIS2_PLACEMENT_3D ( 'NONE', #31, #124, #32 ) ;
#18 = ORIENTED_EDGE ( 'NONE', *, *, #236, .F. ) ;
#19 = ORIENTED_EDGE ( 'NONE', *, *, #38, .F. ) ;
#20 = SURFACE_SIDE_STYLE ('',( #306 ) ) ;
#21 = DIRECTION ( 'NONE',  ( -1.000000000000000000, 0.000000000000000000, 0.000000000000000000 ) ) ;
#22 =( CONVERSION_BASED_UNIT ( 'INCH', #136 ) LENGTH_UNIT ( ) NAMED_UNIT ( #6 ) );
#23 = STYLED_ITEM ( 'NONE', ( #9 ), #174 ) ;
#24 = EDGE_LOOP ( 'NONE', ( #270, #224 ) ) ;
#25 = FILL_AREA_STYLE_COLOUR ( '', #280 ) ;
#26 =( NAMED_UNIT ( * ) SI_UNIT ( $, .STERADIAN. ) SOLID_ANGLE_UNIT ( ) );
#27 = PLANE ( 'NONE',  #245 ) ;
#28 = FACE_OUTER_BOUND ( 'NONE', #181, .T. ) ;
#29 = CIRCLE ( 'NONE', #253, 0.09375000000000001388 ) ;
#30 = AXIS2_PLACEMENT_3D ( 'NONE', #184, #66, #227 ) ;
#31 = CARTESIAN_POINT ( 'NONE',  ( 0.000000000000000000, 0.000000000000000000, 0.000000000000000000 ) ) ;
#32 = DIRECTION ( 'NONE',  ( 0.000000000000000000, 0.000000000000000000, -1.000000000000000000 ) ) ;
#33 = DIRECTION ( 'NONE',  ( 1.000000000000000000, 0.000000000000000000, 0.000000000000000000 ) ) ;
#34 = DIRECTION ( 'NONE',  ( -1.000000000000000000, 0.000000000000000000, 0.000000000000000000 ) ) ;
#35 = PRESENTATION_STYLE_ASSIGNMENT (( #73 ) ) ;
#36 = CARTESIAN_POINT ( 'NONE',  ( 0.000000000000000000, 0.000000000000000000, 0.000000000000000000 ) ) ;
#37 = CIRCLE ( 'NONE', #175, 0.09375000000000005551 ) ;
#38 = EDGE_CURVE ( 'NONE', #302, #177, #158, .T. ) ;
#39 = EDGE_CURVE ( 'NONE', #114, #115, #37, .T. ) ;
#40 = CARTESIAN_POINT ( 'NONE',  ( 1.148106374200643401E-17, 0.5625000000000000000, 0.09374999999999998612 ) ) ;
#41 =( CONVERSION_BASED_UNIT ( 'INCH', #251 ) LENGTH_UNIT ( ) NAMED_UNIT ( #108 ) );
#42 = UNCERTAINTY_MEASURE_WITH_UNIT (LENGTH_MEASURE( 1.000000000000000082E-05 ), #241, 'distance_accuracy_value', 'NONE');
#43 = CARTESIAN_POINT ( 'NONE',  ( 0.000000000000000000, 0.5625000000000000000, 0.000000000000000000 ) ) ;
#44 = DIRECTION ( 'NONE',  ( -3.160378836509298460E-17, 1.000000000000000000, -0.000000000000000000 ) ) ;
#45 = CIRCLE ( 'NONE', #75, 0.09374999999999998612 ) ;
#46 =( GEOMETRIC_REPRESENTATION_CONTEXT ( 3 ) GLOBAL_UNCERTAINTY_ASSIGNED_CONTEXT ( ( #147 ) ) GLOBAL_UNIT_ASSIGNED_CONTEXT ( ( #160, #165, #51 ) ) REPRESENTATION_CONTEXT ( 'NONE', 'WORKASPACE' ) );
#47 =( LENGTH_UNIT ( ) NAMED_UNIT ( * ) SI_UNIT ( $, .METRE. ) );
#48 = DIRECTION ( 'NONE',  ( 3.160378836509298460E-17, -1.000000000000000000, 0.000000000000000000 ) ) ;
#49 = ORIENTED_EDGE ( 'NONE', *, *, #171, .F. ) ;
#50 = LINE ( 'NONE', #305, #301 ) ;
#51 =( NAMED_UNIT ( * ) SI_UNIT ( $, .STERADIAN. ) SOLID_ANGLE_UNIT ( ) );
#52 =( GEOMETRIC_REPRESENTATION_CONTEXT ( 3 ) GLOBAL_UNCERTAINTY_ASSIGNED_CONTEXT ( ( #188 ) ) GLOBAL_UNIT_ASSIGNED_CONTEXT ( ( #102, #256, #7 ) ) REPRESENTATION_CONTEXT ( 'NONE', 'WORKASPACE' ) );
#53 = PRESENTATION_LAYER_ASSIGNMENT (  '', '', ( #143 ) ) ;
#54 = CARTESIAN_POINT ( 'NONE',  ( -6.123233995736766036E-17, 2.500000000000000000, 0.000000000000000000 ) ) ;
#55 = DIRECTION ( 'NONE',  ( -0.000000000000000000, -1.000000000000000000, -0.000000000000000000 ) ) ;
#56 = SURFACE_STYLE_FILL_AREA ( #151 ) ;
#57 = LENGTH_MEASURE_WITH_UNIT ( LENGTH_MEASURE( 0.02539999999999999897 ), #288 );
#58 = PRESENTATION_STYLE_ASSIGNMENT (( #239 ) ) ;
#59 =( NAMED_UNIT ( * ) PLANE_ANGLE_UNIT ( ) SI_UNIT ( $, .RADIAN. ) );
#60 =( NAMED_UNIT ( * ) SI_UNIT ( $, .STERADIAN. ) SOLID_ANGLE_UNIT ( ) );
#61 = VERTEX_POINT ( 'NONE', #40 ) ;
#62 = FILL_AREA_STYLE_COLOUR ( '', #129 ) ;
#63 = ORIENTED_EDGE ( 'NONE', *, *, #39, .T. ) ;
#64 = CLOSED_SHELL ( 'NONE', ( #127, #98, #152, #76 ) ) ;
#65 = EDGE_LOOP ( 'NONE', ( #18, #134, #87, #95 ) ) ;
#66 = DIRECTION ( 'NONE',  ( -3.160378836509298460E-17, 1.000000000000000000, -0.000000000000000000 ) ) ;
#67 = ORIENTED_EDGE ( 'NONE', *, *, #153, .T. ) ;
#68 = CYLINDRICAL_SURFACE ( 'NONE', #99, 0.09375000000000002776 ) ;
#69 = MECHANICAL_DESIGN_GEOMETRIC_PRESENTATION_REPRESENTATION (  '', ( #200 ), #220 ) ;
#70 = DIRECTION ( 'NONE',  ( -0.000000000000000000, -1.000000000000000000, -0.000000000000000000 ) ) ;
#71 = ORIENTED_EDGE ( 'NONE', *, *, #103, .T. ) ;
#72 = ADVANCED_BREP_SHAPE_REPRESENTATION ( '01105', ( #267, #174, #261 ), #293 ) ;
#73 = SURFACE_STYLE_USAGE ( .BOTH. , #142 ) ;
#74 =( LENGTH_UNIT ( ) NAMED_UNIT ( * ) SI_UNIT ( $, .METRE. ) );
#75 = AXIS2_PLACEMENT_3D ( 'NONE', #187, #232, #34 ) ;
#76 = ADVANCED_FACE ( 'NONE', ( #28 ), #120, .F. ) ;
#77 = DIMENSIONAL_EXPONENTS ( 1.000000000000000000, 0.000000000000000000, 0.000000000000000000, 0.000000000000000000, 0.000000000000000000, 0.000000000000000000, 0.000000000000000000 ) ;
#78 = FILL_AREA_STYLE_COLOUR ( '', #164 ) ;
#79 = PRODUCT_CONTEXT ( 'NONE', #246, 'mechanical' ) ;
#80 =( NAMED_UNIT ( * ) SI_UNIT ( $, .STERADIAN. ) SOLID_ANGLE_UNIT ( ) );
#81 = EDGE_CURVE ( 'NONE', #61, #217, #244, .T. ) ;
#82 = LENGTH_MEASURE_WITH_UNIT ( LENGTH_MEASURE( 0.02539999999999999897 ), #262 );
#83 = LINE ( 'NONE', #128, #5 ) ;
#84 = AXIS2_PLACEMENT_3D ( 'NONE', #91, #70, #199 ) ;
#85 = PRODUCT ( '01105', '01105', '', ( #79 ) ) ;
#86 = ORIENTED_EDGE ( 'NONE', *, *, #39, .F. ) ;
#87 = ORIENTED_EDGE ( 'NONE', *, *, #171, .T. ) ;
#88 = EDGE_LOOP ( 'NONE', ( #67, #71, #13, #157 ) ) ;
#89 = ORIENTED_EDGE ( 'NONE', *, *, #103, .F. ) ;
#90 = DIRECTION ( 'NONE',  ( 0.000000000000000000, 1.000000000000000000, 0.000000000000000000 ) ) ;
#91 = CARTESIAN_POINT ( 'NONE',  ( 0.000000000000000000, 0.000000000000000000, 0.000000000000000000 ) ) ;
#92 = APPLICATION_CONTEXT ( 'automotive_design' ) ;
#93 =( NAMED_UNIT ( * ) PLANE_ANGLE_UNIT ( ) SI_UNIT ( $, .RADIAN. ) );
#94 = CARTESIAN_POINT ( 'NONE',  ( 0.09374999999999998612, 2.500000000000000000, 0.000000000000000000 ) ) ;
#95 = ORIENTED_EDGE ( 'NONE', *, *, #203, .F. ) ;
#96 = CARTESIAN_POINT ( 'NONE',  ( -0.09374999999999998612, 0.5625000000000001110, 0.000000000000000000 ) ) ;
#97 = FILL_AREA_STYLE ('',( #25 ) ) ;
#98 = ADVANCED_FACE ( 'NONE', ( #204 ), #27, .F. ) ;
#99 = AXIS2_PLACEMENT_3D ( 'NONE', #119, #1, #100 ) ;
#100 = DIRECTION ( 'NONE',  ( -1.000000000000000000, 0.000000000000000000, 0.000000000000000000 ) ) ;
#101 =( NAMED_UNIT ( * ) PLANE_ANGLE_UNIT ( ) SI_UNIT ( $, .RADIAN. ) );
#102 =( CONVERSION_BASED_UNIT ( 'INCH', #259 ) LENGTH_UNIT ( ) NAMED_UNIT ( #126 ) );
#103 = EDGE_CURVE ( 'NONE', #292, #114, #50, .T. ) ;
#104 = FILL_AREA_STYLE_COLOUR ( '', #273 ) ;
#105 = MECHANICAL_DESIGN_GEOMETRIC_PRESENTATION_REPRESENTATION (  '', ( #16 ), #163 ) ;
#106 = DIRECTION ( 'NONE',  ( -1.000000000000000000, 0.000000000000000000, 0.000000000000000000 ) ) ;
#107 =( LENGTH_UNIT ( ) NAMED_UNIT ( * ) SI_UNIT ( $, .METRE. ) );
#108 = DIMENSIONAL_EXPONENTS ( 1.000000000000000000, 0.000000000000000000, 0.000000000000000000, 0.000000000000000000, 0.000000000000000000, 0.000000000000000000, 0.000000000000000000 ) ;
#109 = EDGE_CURVE ( 'NONE', #242, #115, #139, .T. ) ;
#110 = CARTESIAN_POINT ( 'NONE',  ( 0.000000000000000000, 0.000000000000000000, -0.09375000000000001388 ) ) ;
#111 = AXIS2_PLACEMENT_3D ( 'NONE', #238, #55, #291 ) ;
#112 = VECTOR ( 'NONE', #274, 39.37007874015748143 ) ;
#113 = VECTOR ( 'NONE', #278, 39.37007874015748143 ) ;
#114 = VERTEX_POINT ( 'NONE', #231 ) ;
#115 = VERTEX_POINT ( 'NONE', #140 ) ;
#116 = DIRECTION ( 'NONE',  ( -1.000000000000000000, -3.160378836509298460E-17, 0.000000000000000000 ) ) ;
#117 = COLOUR_RGB ( '',0.7921568627450980005, 0.8196078431372548767, 0.9333333333333333481 ) ;
#118 = CARTESIAN_POINT ( 'NONE',  ( -0.09375000000000009714, 2.500000000000000000, 0.000000000000000000 ) ) ;
#119 = CARTESIAN_POINT ( 'NONE',  ( -6.123233995736766036E-17, 2.500000000000000000, 0.000000000000000000 ) ) ;
#120 = PLANE ( 'NONE',  #179 ) ;
#121 = CIRCLE ( 'NONE', #30, 0.09374999999999998612 ) ;
#122 = PRODUCT_DEFINITION_CONTEXT ( 'detailed design', #92, 'design' ) ;
#123 = APPLICATION_PROTOCOL_DEFINITION ( 'draft international standard', 'automotive_design', 1998, #92 ) ;
#124 = DIRECTION ( 'NONE',  ( 0.000000000000000000, -1.000000000000000000, -0.000000000000000000 ) ) ;
#125 = FILL_AREA_STYLE_COLOUR ( '', #117 ) ;
#126 = DIMENSIONAL_EXPONENTS ( 1.000000000000000000, 0.000000000000000000, 0.000000000000000000, 0.000000000000000000, 0.000000000000000000, 0.000000000000000000, 0.000000000000000000 ) ;
#127 = ADVANCED_FACE ( 'NONE', ( #276 ), #137, .T. ) ;
#128 = CARTESIAN_POINT ( 'NONE',  ( 0.000000000000000000, 0.000000000000000000, -0.09374999999999998612 ) ) ;
#129 = COLOUR_RGB ( '',1.000000000000000000, 0.000000000000000000, 0.000000000000000000 ) ;
#130 = DIMENSIONAL_EXPONENTS ( 1.000000000000000000, 0.000000000000000000, 0.000000000000000000, 0.000000000000000000, 0.000000000000000000, 0.000000000000000000, 0.000000000000000000 ) ;
#131 = DIRECTION ( 'NONE',  ( -0.000000000000000000, -1.000000000000000000, -0.000000000000000000 ) ) ;
#132 = DIRECTION ( 'NONE',  ( -0.000000000000000000, -1.000000000000000000, -0.000000000000000000 ) ) ;
#133 = AXIS2_PLACEMENT_3D ( 'NONE', #43, #90, #183 ) ;
#134 = ORIENTED_EDGE ( 'NONE', *, *, #81, .T. ) ;
#135 =( LENGTH_UNIT ( ) NAMED_UNIT ( * ) SI_UNIT ( $, .METRE. ) );
#136 = LENGTH_MEASURE_WITH_UNIT ( LENGTH_MEASURE( 0.02539999999999999897 ), #47 );
#137 = CYLINDRICAL_SURFACE ( 'NONE', #240, 0.09375000000000002776 ) ;
#138 = LINE ( 'NONE', #226, #112 ) ;
#139 = LINE ( 'NONE', #118, #113 ) ;
#140 = CARTESIAN_POINT ( 'NONE',  ( -0.09375000000000012490, 2.500000000000000000, 0.000000000000000000 ) ) ;
#141 = CARTESIAN_POINT ( 'NONE',  ( -6.123233995736766036E-17, 2.500000000000000000, 0.000000000000000000 ) ) ;
#142 = SURFACE_SIDE_STYLE ('',( #11 ) ) ;
#143 = STYLED_ITEM ( 'NONE', ( #35 ), #155 ) ;
#144 = FILL_AREA_STYLE_COLOUR ( '', #279 ) ;
#145 = DIMENSIONAL_EXPONENTS ( 1.000000000000000000, 0.000000000000000000, 0.000000000000000000, 0.000000000000000000, 0.000000000000000000, 0.000000000000000000, 0.000000000000000000 ) ;
#146 = SURFACE_SIDE_STYLE ('',( #56 ) ) ;
#147 = UNCERTAINTY_MEASURE_WITH_UNIT (LENGTH_MEASURE( 1.000000000000000082E-05 ), #160, 'distance_accuracy_value', 'NONE');
#148 = CARTESIAN_POINT ( 'NONE',  ( 0.000000000000000000, 0.000000000000000000, 0.000000000000000000 ) ) ;
#149 =( GEOMETRIC_REPRESENTATION_CONTEXT ( 3 ) GLOBAL_UNCERTAINTY_ASSIGNED_CONTEXT ( ( #307 ) ) GLOBAL_UNIT_ASSIGNED_CONTEXT ( ( #285, #235, #260 ) ) REPRESENTATION_CONTEXT ( 'NONE', 'WORKASPACE' ) );
#150 =( GEOMETRIC_REPRESENTATION_CONTEXT ( 3 ) GLOBAL_UNCERTAINTY_ASSIGNED_CONTEXT ( ( #192 ) ) GLOBAL_UNIT_ASSIGNED_CONTEXT ( ( #234, #59, #80 ) ) REPRESENTATION_CONTEXT ( 'NONE', 'WORKASPACE' ) );
#151 = FILL_AREA_STYLE ('',( #78 ) ) ;
#152 = ADVANCED_FACE ( 'NONE', ( #277 ), #68, .T. ) ;
#153 = EDGE_CURVE ( 'NONE', #242, #292, #121, .T. ) ;
#154 = ADVANCED_FACE ( 'NONE', ( #159 ), #167, .T. ) ;
#155 = ADVANCED_FACE ( 'NONE', ( #264 ), #193, .T. ) ;
#156 = DIRECTION ( 'NONE',  ( -0.000000000000000000, -1.000000000000000000, -0.000000000000000000 ) ) ;
#157 = ORIENTED_EDGE ( 'NONE', *, *, #109, .F. ) ;
#158 = CIRCLE ( 'NONE', #84, 0.09375000000000001388 ) ;
#159 = FACE_OUTER_BOUND ( 'NONE', #65, .T. ) ;
#160 =( CONVERSION_BASED_UNIT ( 'INCH', #229 ) LENGTH_UNIT ( ) NAMED_UNIT ( #213 ) );
#161 = EDGE_LOOP ( 'NONE', ( #297, #196 ) ) ;
#162 = CARTESIAN_POINT ( 'NONE',  ( 4.681872370432437241E-35, 0.5625000000000000000, 0.000000000000000000 ) ) ;
#163 =( GEOMETRIC_REPRESENTATION_CONTEXT ( 3 ) GLOBAL_UNCERTAINTY_ASSIGNED_CONTEXT ( ( #42 ) ) GLOBAL_UNIT_ASSIGNED_CONTEXT ( ( #241, #101, #60 ) ) REPRESENTATION_CONTEXT ( 'NONE', 'WORKASPACE' ) );
#164 = COLOUR_RGB ( '',1.000000000000000000, 0.000000000000000000, 0.000000000000000000 ) ;
#165 =( NAMED_UNIT ( * ) PLANE_ANGLE_UNIT ( ) SI_UNIT ( $, .RADIAN. ) );
#166 = FILL_AREA_STYLE ('',( #62 ) ) ;
#167 = CYLINDRICAL_SURFACE ( 'NONE', #111, 0.09374999999999998612 ) ;
#168 = FILL_AREA_STYLE ('',( #125 ) ) ;
#169 = PRESENTATION_LAYER_ASSIGNMENT (  '', '', ( #23 ) ) ;
#170 = DIRECTION ( 'NONE',  ( 0.000000000000000000, 0.000000000000000000, -1.000000000000000000 ) ) ;
#171 = EDGE_CURVE ( 'NONE', #217, #302, #83, .T. ) ;
#172 = PRESENTATION_STYLE_ASSIGNMENT (( #283 ) ) ;
#173 = CARTESIAN_POINT ( 'NONE',  ( 1.148106374200643555E-17, 0.000000000000000000, 0.09375000000000001388 ) ) ;
#174 = MANIFOLD_SOLID_BREP ( 'Revolve - Tool Body (Straight Shanked)', #64 ) ;
#175 = AXIS2_PLACEMENT_3D ( 'NONE', #141, #208, #21 ) ;
#176 = CARTESIAN_POINT ( 'NONE',  ( 0.000000000000000000, 0.5625000000000000000, -0.09374999999999998612 ) ) ;
#177 = VERTEX_POINT ( 'NONE', #173 ) ;
#178 = ORIENTED_EDGE ( 'NONE', *, *, #109, .T. ) ;
#179 = AXIS2_PLACEMENT_3D ( 'NONE', #94, #48, #190 ) ;
#180 = ORIENTED_EDGE ( 'NONE', *, *, #4, .T. ) ;
#181 = EDGE_LOOP ( 'NONE', ( #268, #63 ) ) ;
#182 = ORIENTED_EDGE ( 'NONE', *, *, #265, .T. ) ;
#183 = DIRECTION ( 'NONE',  ( 0.000000000000000000, -0.000000000000000000, 1.000000000000000000 ) ) ;
#184 = CARTESIAN_POINT ( 'NONE',  ( 0.000000000000000000, 0.5625000000000001110, 0.000000000000000000 ) ) ;
#185 = EDGE_LOOP ( 'NONE', ( #89, #182, #178, #86 ) ) ;
#186 = DIRECTION ( 'NONE',  ( -3.160378836509298460E-17, 1.000000000000000000, -0.000000000000000000 ) ) ;
#187 = CARTESIAN_POINT ( 'NONE',  ( 0.000000000000000000, 0.5625000000000001110, 0.000000000000000000 ) ) ;
#188 = UNCERTAINTY_MEASURE_WITH_UNIT (LENGTH_MEASURE( 1.000000000000000082E-05 ), #102, 'distance_accuracy_value', 'NONE');
#189 = CARTESIAN_POINT ( 'NONE',  ( -6.123233995736766036E-17, 2.500000000000000000, 0.000000000000000000 ) ) ;
#190 = DIRECTION ( 'NONE',  ( 1.000000000000000000, 3.160378836509298460E-17, 0.000000000000000000 ) ) ;
#191 = FILL_AREA_STYLE ('',( #104 ) ) ;
#192 = UNCERTAINTY_MEASURE_WITH_UNIT (LENGTH_MEASURE( 1.000000000000000082E-05 ), #234, 'distance_accuracy_value', 'NONE');
#193 = PLANE ( 'NONE',  #17 ) ;
#194 = STYLED_ITEM ( 'NONE', ( #172 ), #267 ) ;
#195 = AXIS2_PLACEMENT_3D ( 'NONE', #284, #201, #249 ) ;
#196 = ORIENTED_EDGE ( 'NONE', *, *, #203, .T. ) ;
#197 = EDGE_LOOP ( 'NONE', ( #180, #295, #19, #49 ) ) ;
#198 = PRESENTATION_STYLE_ASSIGNMENT (( #230 ) ) ;
#199 = DIRECTION ( 'NONE',  ( 0.000000000000000000, 0.000000000000000000, -1.000000000000000000 ) ) ;
#200 = STYLED_ITEM ( 'NONE', ( #198 ), #218 ) ;
#201 = DIRECTION ( 'NONE',  ( -0.000000000000000000, -1.000000000000000000, -0.000000000000000000 ) ) ;
#202 = UNCERTAINTY_MEASURE_WITH_UNIT (LENGTH_MEASURE( 1.000000000000000082E-05 ), #41, 'distance_accuracy_value', 'NONE');
#203 = EDGE_CURVE ( 'NONE', #177, #302, #29, .T. ) ;
#204 = FACE_OUTER_BOUND ( 'NONE', #24, .T. ) ;
#205 = SURFACE_SIDE_STYLE ('',( #222 ) ) ;
#206 = MECHANICAL_DESIGN_GEOMETRIC_PRESENTATION_REPRESENTATION (  '', ( #23 ), #149 ) ;
#207 = AXIS2_PLACEMENT_3D ( 'NONE', #219, #156, #299 ) ;
#208 = DIRECTION ( 'NONE',  ( -3.160378836509298460E-17, 1.000000000000000000, -0.000000000000000000 ) ) ;
#209 = FILL_AREA_STYLE ('',( #144 ) ) ;
#210 = SURFACE_SIDE_STYLE ('',( #2 ) ) ;
#211 = DIRECTION ( 'NONE',  ( 0.000000000000000000, 0.000000000000000000, 1.000000000000000000 ) ) ;
#212 = SURFACE_SIDE_STYLE ('',( #214 ) ) ;
#213 = DIMENSIONAL_EXPONENTS ( 1.000000000000000000, 0.000000000000000000, 0.000000000000000000, 0.000000000000000000, 0.000000000000000000, 0.000000000000000000, 0.000000000000000000 ) ;
#214 = SURFACE_STYLE_FILL_AREA ( #209 ) ;
#215 = CARTESIAN_POINT ( 'NONE',  ( 0.09374999999999998612, 0.5625000000000001110, 1.148106374200644171E-17 ) ) ;
#216 = AXIS2_PLACEMENT_3D ( 'NONE', #36, #132, #12 ) ;
#217 = VERTEX_POINT ( 'NONE', #176 ) ;
#218 = ADVANCED_FACE ( 'NONE', ( #296 ), #269, .T. ) ;
#219 = CARTESIAN_POINT ( 'NONE',  ( 0.000000000000000000, 0.5625000000000000000, 0.000000000000000000 ) ) ;
#220 =( GEOMETRIC_REPRESENTATION_CONTEXT ( 3 ) GLOBAL_UNCERTAINTY_ASSIGNED_CONTEXT ( ( #202 ) ) GLOBAL_UNIT_ASSIGNED_CONTEXT ( ( #41, #221, #26 ) ) REPRESENTATION_CONTEXT ( 'NONE', 'WORKASPACE' ) );
#221 =( NAMED_UNIT ( * ) PLANE_ANGLE_UNIT ( ) SI_UNIT ( $, .RADIAN. ) );
#222 = SURFACE_STYLE_FILL_AREA ( #97 ) ;
#223 = CIRCLE ( 'NONE', #298, 0.09375000000000005551 ) ;
#224 = ORIENTED_EDGE ( 'NONE', *, *, #265, .F. ) ;
#225 = STYLED_ITEM ( 'NONE', ( #247 ), #154 ) ;
#226 = CARTESIAN_POINT ( 'NONE',  ( 1.148106374200643401E-17, 0.000000000000000000, 0.09374999999999998612 ) ) ;
#227 = DIRECTION ( 'NONE',  ( -1.000000000000000000, 0.000000000000000000, 0.000000000000000000 ) ) ;
#228 = UNCERTAINTY_MEASURE_WITH_UNIT (LENGTH_MEASURE( 1.000000000000000082E-05 ), #22, 'distance_accuracy_value', 'NONE');
#229 = LENGTH_MEASURE_WITH_UNIT ( LENGTH_MEASURE( 0.02539999999999999897 ), #135 );
#230 = SURFACE_STYLE_USAGE ( .BOTH. , #20 ) ;
#231 = CARTESIAN_POINT ( 'NONE',  ( 0.09374999999999998612, 2.500000000000000000, 1.148106374200644171E-17 ) ) ;
#232 = DIRECTION ( 'NONE',  ( -3.160378836509298460E-17, 1.000000000000000000, -0.000000000000000000 ) ) ;
#233 = MECHANICAL_DESIGN_GEOMETRIC_PRESENTATION_REPRESENTATION (  '', ( #225 ), #46 ) ;
#234 =( CONVERSION_BASED_UNIT ( 'INCH', #57 ) LENGTH_UNIT ( ) NAMED_UNIT ( #77 ) );
#235 =( NAMED_UNIT ( * ) PLANE_ANGLE_UNIT ( ) SI_UNIT ( $, .RADIAN. ) );
#236 = EDGE_CURVE ( 'NONE', #61, #177, #138, .T. ) ;
#237 = DIRECTION ( 'NONE',  ( -3.160378836509298460E-17, 1.000000000000000000, -0.000000000000000000 ) ) ;
#238 = CARTESIAN_POINT ( 'NONE',  ( 0.000000000000000000, 0.000000000000000000, 0.000000000000000000 ) ) ;
#239 = SURFACE_STYLE_USAGE ( .BOTH. , #146 ) ;
#240 = AXIS2_PLACEMENT_3D ( 'NONE', #189, #44, #309 ) ;
#241 =( CONVERSION_BASED_UNIT ( 'INCH', #82 ) LENGTH_UNIT ( ) NAMED_UNIT ( #145 ) );
#242 = VERTEX_POINT ( 'NONE', #96 ) ;
#243 = PRODUCT_DEFINITION_FORMATION_WITH_SPECIFIED_SOURCE ( 'ANY', '', #85, .NOT_KNOWN. ) ;
#244 = CIRCLE ( 'NONE', #195, 0.09374999999999998612 ) ;
#245 = AXIS2_PLACEMENT_3D ( 'NONE', #162, #248, #116 ) ;
#246 = APPLICATION_CONTEXT ( 'automotive_design' ) ;
#247 = PRESENTATION_STYLE_ASSIGNMENT (( #281 ) ) ;
#248 = DIRECTION ( 'NONE',  ( -3.160378836509298460E-17, 1.000000000000000000, 0.000000000000000000 ) ) ;
#249 = DIRECTION ( 'NONE',  ( 0.000000000000000000, 0.000000000000000000, -1.000000000000000000 ) ) ;
#250 = PRESENTATION_LAYER_ASSIGNMENT (  '', '', ( #194 ) ) ;
#251 = LENGTH_MEASURE_WITH_UNIT ( LENGTH_MEASURE( 0.02539999999999999897 ), #271 );
#252 = ORIENTED_EDGE ( 'NONE', *, *, #81, .F. ) ;
#253 = AXIS2_PLACEMENT_3D ( 'NONE', #148, #131, #170 ) ;
#254 = PRESENTATION_LAYER_ASSIGNMENT (  '', '', ( #225 ) ) ;
#255 = LENGTH_MEASURE_WITH_UNIT ( LENGTH_MEASURE( 0.02539999999999999897 ), #107 );
#256 =( NAMED_UNIT ( * ) PLANE_ANGLE_UNIT ( ) SI_UNIT ( $, .RADIAN. ) );
#257 = DIRECTION ( 'NONE',  ( -0.000000000000000000, -1.000000000000000000, -0.000000000000000000 ) ) ;
#258 = PRODUCT_DEFINITION ( 'UNKNOWN', '', #243, #122 ) ;
#259 = LENGTH_MEASURE_WITH_UNIT ( LENGTH_MEASURE( 0.02539999999999999897 ), #74 );
#260 =( NAMED_UNIT ( * ) SI_UNIT ( $, .STERADIAN. ) SOLID_ANGLE_UNIT ( ) );
#261 = AXIS2_PLACEMENT_3D ( 'NONE', #290, #211, #33 ) ;
#262 =( LENGTH_UNIT ( ) NAMED_UNIT ( * ) SI_UNIT ( $, .METRE. ) );
#263 = SHAPE_DEFINITION_REPRESENTATION ( #14, #72 ) ;
#264 = FACE_OUTER_BOUND ( 'NONE', #161, .T. ) ;
#265 = EDGE_CURVE ( 'NONE', #292, #242, #45, .T. ) ;
#266 = ORIENTED_EDGE ( 'NONE', *, *, #4, .F. ) ;
#267 = MANIFOLD_SOLID_BREP ( 'Revolve - Cutting Edge', #8 ) ;
#268 = ORIENTED_EDGE ( 'NONE', *, *, #275, .T. ) ;
#269 = PLANE ( 'NONE',  #133 ) ;
#270 = ORIENTED_EDGE ( 'NONE', *, *, #153, .F. ) ;
#271 =( LENGTH_UNIT ( ) NAMED_UNIT ( * ) SI_UNIT ( $, .METRE. ) );
#272 = MECHANICAL_DESIGN_GEOMETRIC_PRESENTATION_REPRESENTATION (  '', ( #194 ), #52 ) ;
#273 = COLOUR_RGB ( '',1.000000000000000000, 0.000000000000000000, 0.000000000000000000 ) ;
#274 = DIRECTION ( 'NONE',  ( -0.000000000000000000, -1.000000000000000000, -0.000000000000000000 ) ) ;
#275 = EDGE_CURVE ( 'NONE', #115, #114, #223, .T. ) ;
#276 = FACE_OUTER_BOUND ( 'NONE', #88, .T. ) ;
#277 = FACE_OUTER_BOUND ( 'NONE', #185, .T. ) ;
#278 = DIRECTION ( 'NONE',  ( -3.160378836509298460E-17, 1.000000000000000000, -0.000000000000000000 ) ) ;
#279 = COLOUR_RGB ( '',0.7921568627450980005, 0.8196078431372548767, 0.9333333333333333481 ) ;
#280 = COLOUR_RGB ( '',1.000000000000000000, 0.000000000000000000, 0.000000000000000000 ) ;
#281 = SURFACE_STYLE_USAGE ( .BOTH. , #205 ) ;
#282 = ADVANCED_FACE ( 'NONE', ( #10 ), #289, .T. ) ;
#283 = SURFACE_STYLE_USAGE ( .BOTH. , #210 ) ;
#284 = CARTESIAN_POINT ( 'NONE',  ( 0.000000000000000000, 0.5625000000000000000, 0.000000000000000000 ) ) ;
#285 =( CONVERSION_BASED_UNIT ( 'INCH', #255 ) LENGTH_UNIT ( ) NAMED_UNIT ( #130 ) );
#286 = CIRCLE ( 'NONE', #207, 0.09374999999999998612 ) ;
#287 = APPLICATION_PROTOCOL_DEFINITION ( 'draft international standard', 'automotive_design', 1998, #246 ) ;
#288 =( LENGTH_UNIT ( ) NAMED_UNIT ( * ) SI_UNIT ( $, .METRE. ) );
#289 = CYLINDRICAL_SURFACE ( 'NONE', #216, 0.09374999999999998612 ) ;
#290 = CARTESIAN_POINT ( 'NONE',  ( 0.000000000000000000, 0.000000000000000000, 0.000000000000000000 ) ) ;
#291 = DIRECTION ( 'NONE',  ( 0.000000000000000000, 0.000000000000000000, -1.000000000000000000 ) ) ;
#292 = VERTEX_POINT ( 'NONE', #215 ) ;
#293 =( GEOMETRIC_REPRESENTATION_CONTEXT ( 3 ) GLOBAL_UNCERTAINTY_ASSIGNED_CONTEXT ( ( #228 ) ) GLOBAL_UNIT_ASSIGNED_CONTEXT ( ( #22, #93, #308 ) ) REPRESENTATION_CONTEXT ( 'NONE', 'WORKASPACE' ) );
#294 = PRESENTATION_LAYER_ASSIGNMENT (  '', '', ( #200 ) ) ;
#295 = ORIENTED_EDGE ( 'NONE', *, *, #236, .T. ) ;
#296 = FACE_OUTER_BOUND ( 'NONE', #15, .T. ) ;
#297 = ORIENTED_EDGE ( 'NONE', *, *, #38, .T. ) ;
#298 = AXIS2_PLACEMENT_3D ( 'NONE', #54, #237, #106 ) ;
#299 = DIRECTION ( 'NONE',  ( 0.000000000000000000, 0.000000000000000000, -1.000000000000000000 ) ) ;
#300 = PRODUCT_RELATED_PRODUCT_CATEGORY ( 'part', '', ( #85 ) ) ;
#301 = VECTOR ( 'NONE', #186, 39.37007874015748143 ) ;
#302 = VERTEX_POINT ( 'NONE', #110 ) ;
#303 = PRESENTATION_LAYER_ASSIGNMENT (  '', '', ( #16 ) ) ;
#304 = MECHANICAL_DESIGN_GEOMETRIC_PRESENTATION_REPRESENTATION (  '', ( #143 ), #150 ) ;
#305 = CARTESIAN_POINT ( 'NONE',  ( 0.09374999999999995837, 2.500000000000000000, 1.148106374200644017E-17 ) ) ;
#306 = SURFACE_STYLE_FILL_AREA ( #166 ) ;
#307 = UNCERTAINTY_MEASURE_WITH_UNIT (LENGTH_MEASURE( 1.000000000000000082E-05 ), #285, 'distance_accuracy_value', 'NONE');
#308 =( NAMED_UNIT ( * ) SI_UNIT ( $, .STERADIAN. ) SOLID_ANGLE_UNIT ( ) );
#309 = DIRECTION ( 'NONE',  ( -1.000000000000000000, 0.000000000000000000, 0.000000000000000000 ) ) ;
ENDSEC;
END-ISO-10303-21;
