ISO-10303-21;
HEADER;
FILE_DESCRIPTION (( 'STEP AP214' ),
    '1' );
FILE_NAME ('82956.STEP',
    '2023-06-23T07:43:14',
    ( '' ),
    ( '' ),
    'SwSTEP 2.0',
    'SolidWorks 2023',
    '' );
FILE_SCHEMA (( 'AUTOMOTIVE_DESIGN' ));
ENDSEC;

DATA;
#1 = CARTESIAN_POINT ( 'NONE',  ( 0.000000000000000000, 1.500000000000000222, 0.000000000000000000 ) ) ;
#2 = LENGTH_MEASURE_WITH_UNIT ( LENGTH_MEASURE( 0.02539999999999999897 ), #264 );
#3 =( GEOMETRIC_REPRESENTATION_CONTEXT ( 3 ) GLOBAL_UNCERTAINTY_ASSIGNED_CONTEXT ( ( #118 ) ) GLOBAL_UNIT_ASSIGNED_CONTEXT ( ( #8, #84, #184 ) ) REPRESENTATION_CONTEXT ( 'NONE', 'WORKASPACE' ) );
#4 = AXIS2_PLACEMENT_3D ( 'NONE', #125, #269, #229 ) ;
#5 = CLOSED_SHELL ( 'NONE', ( #74, #22, #153, #50 ) ) ;
#6 = COLOUR_RGB ( '',1.000000000000000000, 0.000000000000000000, 0.000000000000000000 ) ;
#7 = SURFACE_SIDE_STYLE ('',( #155 ) ) ;
#8 =( CONVERSION_BASED_UNIT ( 'INCH', #2 ) LENGTH_UNIT ( ) NAMED_UNIT ( #37 ) );
#9 = EDGE_CURVE ( 'NONE', #126, #232, #285, .T. ) ;
#10 = CIRCLE ( 'NONE', #111, 0.1250000000000000000 ) ;
#11 =( GEOMETRIC_REPRESENTATION_CONTEXT ( 3 ) GLOBAL_UNCERTAINTY_ASSIGNED_CONTEXT ( ( #93 ) ) GLOBAL_UNIT_ASSIGNED_CONTEXT ( ( #190, #156, #233 ) ) REPRESENTATION_CONTEXT ( 'NONE', 'WORKASPACE' ) );
#12 = CARTESIAN_POINT ( 'NONE',  ( 0.000000000000000000, 1.500000000000000222, -0.1250000000000000000 ) ) ;
#13 = PLANE ( 'NONE',  #106 ) ;
#14 = UNCERTAINTY_MEASURE_WITH_UNIT (LENGTH_MEASURE( 1.000000000000000082E-05 ), #213, 'distance_accuracy_value', 'NONE');
#15 = CYLINDRICAL_SURFACE ( 'NONE', #225, 0.1250000000000000278 ) ;
#16 = SURFACE_SIDE_STYLE ('',( #166 ) ) ;
#17 = DIRECTION ( 'NONE',  ( -1.000000000000000000, 0.000000000000000000, 0.000000000000000000 ) ) ;
#18 = VERTEX_POINT ( 'NONE', #53 ) ;
#19 = SURFACE_STYLE_FILL_AREA ( #139 ) ;
#20 = COLOUR_RGB ( '',1.000000000000000000, 0.000000000000000000, 0.000000000000000000 ) ;
#21 = VERTEX_POINT ( 'NONE', #124 ) ;
#22 = ADVANCED_FACE ( 'NONE', ( #128 ), #152, .F. ) ;
#23 = EDGE_LOOP ( 'NONE', ( #27, #26, #172, #288 ) ) ;
#24 = SURFACE_STYLE_USAGE ( .BOTH. , #145 ) ;
#25 = DIRECTION ( 'NONE',  ( 0.000000000000000000, 1.000000000000000000, 0.000000000000000000 ) ) ;
#26 = ORIENTED_EDGE ( 'NONE', *, *, #268, .T. ) ;
#27 = ORIENTED_EDGE ( 'NONE', *, *, #99, .T. ) ;
#28 = DIRECTION ( 'NONE',  ( -4.082155997157848133E-17, 1.000000000000000000, 0.000000000000000000 ) ) ;
#29 = CARTESIAN_POINT ( 'NONE',  ( 0.000000000000000000, 0.000000000000000000, 0.000000000000000000 ) ) ;
#30 = AXIS2_PLACEMENT_3D ( 'NONE', #29, #59, #200 ) ;
#31 = PRESENTATION_STYLE_ASSIGNMENT (( #60 ) ) ;
#32 = CIRCLE ( 'NONE', #250, 0.1250000000000000000 ) ;
#33 = SURFACE_STYLE_USAGE ( .BOTH. , #7 ) ;
#34 = DIRECTION ( 'NONE',  ( 0.000000000000000000, -1.000000000000000000, -0.000000000000000000 ) ) ;
#35 = FILL_AREA_STYLE_COLOUR ( '', #176 ) ;
#36 = LENGTH_MEASURE_WITH_UNIT ( LENGTH_MEASURE( 0.02539999999999999897 ), #158 );
#37 = DIMENSIONAL_EXPONENTS ( 1.000000000000000000, 0.000000000000000000, 0.000000000000000000, 0.000000000000000000, 0.000000000000000000, 0.000000000000000000, 0.000000000000000000 ) ;
#38 = PRESENTATION_LAYER_ASSIGNMENT (  '', '', ( #238 ) ) ;
#39 = FILL_AREA_STYLE ('',( #258 ) ) ;
#40 = PRESENTATION_STYLE_ASSIGNMENT (( #33 ) ) ;
#41 = ORIENTED_EDGE ( 'NONE', *, *, #91, .T. ) ;
#42 = VECTOR ( 'NONE', #149, 39.37007874015748143 ) ;
#43 = ORIENTED_EDGE ( 'NONE', *, *, #185, .T. ) ;
#44 =( NAMED_UNIT ( * ) SI_UNIT ( $, .STERADIAN. ) SOLID_ANGLE_UNIT ( ) );
#45 =( NAMED_UNIT ( * ) PLANE_ANGLE_UNIT ( ) SI_UNIT ( $, .RADIAN. ) );
#46 = LENGTH_MEASURE_WITH_UNIT ( LENGTH_MEASURE( 0.02539999999999999897 ), #83 );
#47 = MECHANICAL_DESIGN_GEOMETRIC_PRESENTATION_REPRESENTATION (  '', ( #96 ), #286 ) ;
#48 = FILL_AREA_STYLE_COLOUR ( '', #309 ) ;
#49 = CIRCLE ( 'NONE', #88, 0.1250000000000000000 ) ;
#50 = ADVANCED_FACE ( 'NONE', ( #103 ), #202, .F. ) ;
#51 = VECTOR ( 'NONE', #68, 39.37007874015748143 ) ;
#52 = DIRECTION ( 'NONE',  ( 1.000000000000000000, 0.000000000000000000, 0.000000000000000000 ) ) ;
#53 = CARTESIAN_POINT ( 'NONE',  ( 0.1250000000000000278, 1.500000000000000222, 1.530808498934192125E-17 ) ) ;
#54 = VERTEX_POINT ( 'NONE', #58 ) ;
#55 = AXIS2_PLACEMENT_3D ( 'NONE', #140, #266, #52 ) ;
#56 = AXIS2_PLACEMENT_3D ( 'NONE', #110, #165, #17 ) ;
#57 = ADVANCED_BREP_SHAPE_REPRESENTATION ( '82956', ( #120, #216, #55 ), #157 ) ;
#58 = CARTESIAN_POINT ( 'NONE',  ( 1.530808498934191509E-17, 0.000000000000000000, 0.1250000000000000000 ) ) ;
#59 = DIRECTION ( 'NONE',  ( -0.000000000000000000, -1.000000000000000000, -0.000000000000000000 ) ) ;
#60 = SURFACE_STYLE_USAGE ( .BOTH. , #206 ) ;
#61 = FACE_OUTER_BOUND ( 'NONE', #175, .T. ) ;
#62 = FILL_AREA_STYLE_COLOUR ( '', #230 ) ;
#63 = FACE_OUTER_BOUND ( 'NONE', #295, .T. ) ;
#64 =( GEOMETRIC_REPRESENTATION_CONTEXT ( 3 ) GLOBAL_UNCERTAINTY_ASSIGNED_CONTEXT ( ( #239 ) ) GLOBAL_UNIT_ASSIGNED_CONTEXT ( ( #65, #248, #300 ) ) REPRESENTATION_CONTEXT ( 'NONE', 'WORKASPACE' ) );
#65 =( CONVERSION_BASED_UNIT ( 'INCH', #163 ) LENGTH_UNIT ( ) NAMED_UNIT ( #223 ) );
#66 = SURFACE_STYLE_USAGE ( .BOTH. , #119 ) ;
#67 = FACE_OUTER_BOUND ( 'NONE', #23, .T. ) ;
#68 = DIRECTION ( 'NONE',  ( -4.082155997157848133E-17, 1.000000000000000000, -0.000000000000000000 ) ) ;
#69 = CYLINDRICAL_SURFACE ( 'NONE', #129, 0.1250000000000000000 ) ;
#70 = ORIENTED_EDGE ( 'NONE', *, *, #9, .F. ) ;
#71 = APPLICATION_PROTOCOL_DEFINITION ( 'draft international standard', 'automotive_design', 1998, #187 ) ;
#72 = CARTESIAN_POINT ( 'NONE',  ( 0.000000000000000000, 0.000000000000000000, 0.000000000000000000 ) ) ;
#73 = VERTEX_POINT ( 'NONE', #305 ) ;
#74 = ADVANCED_FACE ( 'NONE', ( #63 ), #15, .T. ) ;
#75 = CARTESIAN_POINT ( 'NONE',  ( 1.530808498934191509E-17, 0.000000000000000000, 0.1250000000000000000 ) ) ;
#76 = DIRECTION ( 'NONE',  ( 0.000000000000000000, 0.000000000000000000, -1.000000000000000000 ) ) ;
#77 = DIRECTION ( 'NONE',  ( 0.000000000000000000, 0.000000000000000000, -1.000000000000000000 ) ) ;
#78 = CARTESIAN_POINT ( 'NONE',  ( 1.041499849070736517E-34, 1.500000000000000222, 0.000000000000000000 ) ) ;
#79 = FILL_AREA_STYLE_COLOUR ( '', #142 ) ;
#80 = DIMENSIONAL_EXPONENTS ( 1.000000000000000000, 0.000000000000000000, 0.000000000000000000, 0.000000000000000000, 0.000000000000000000, 0.000000000000000000, 0.000000000000000000 ) ;
#81 = DIRECTION ( 'NONE',  ( 0.000000000000000000, -0.000000000000000000, 1.000000000000000000 ) ) ;
#82 = SURFACE_SIDE_STYLE ('',( #302 ) ) ;
#83 =( LENGTH_UNIT ( ) NAMED_UNIT ( * ) SI_UNIT ( $, .METRE. ) );
#84 =( NAMED_UNIT ( * ) PLANE_ANGLE_UNIT ( ) SI_UNIT ( $, .RADIAN. ) );
#85 = EDGE_LOOP ( 'NONE', ( #117, #41 ) ) ;
#86 = ORIENTED_EDGE ( 'NONE', *, *, #268, .F. ) ;
#87 = DIRECTION ( 'NONE',  ( -4.082155997157848133E-17, 1.000000000000000000, -0.000000000000000000 ) ) ;
#88 = AXIS2_PLACEMENT_3D ( 'NONE', #262, #199, #123 ) ;
#89 = MECHANICAL_DESIGN_GEOMETRIC_PRESENTATION_REPRESENTATION (  '', ( #180 ), #3 ) ;
#90 = FACE_OUTER_BOUND ( 'NONE', #193, .T. ) ;
#91 = EDGE_CURVE ( 'NONE', #54, #161, #49, .T. ) ;
#92 = CARTESIAN_POINT ( 'NONE',  ( -6.123233995736772199E-17, 3.000000000000000444, 0.000000000000000000 ) ) ;
#93 = UNCERTAINTY_MEASURE_WITH_UNIT (LENGTH_MEASURE( 1.000000000000000082E-05 ), #190, 'distance_accuracy_value', 'NONE');
#94 = CARTESIAN_POINT ( 'NONE',  ( 7.582401355855259480E-33, 1.500000000000000222, 0.000000000000000000 ) ) ;
#95 = DIRECTION ( 'NONE',  ( -1.000000000000000000, 0.000000000000000000, 0.000000000000000000 ) ) ;
#96 = STYLED_ITEM ( 'NONE', ( #260 ), #160 ) ;
#97 =( CONVERSION_BASED_UNIT ( 'INCH', #261 ) LENGTH_UNIT ( ) NAMED_UNIT ( #178 ) );
#98 =( NAMED_UNIT ( * ) PLANE_ANGLE_UNIT ( ) SI_UNIT ( $, .RADIAN. ) );
#99 = EDGE_CURVE ( 'NONE', #232, #126, #32, .T. ) ;
#100 =( NAMED_UNIT ( * ) SI_UNIT ( $, .STERADIAN. ) SOLID_ANGLE_UNIT ( ) );
#101 = FILL_AREA_STYLE_COLOUR ( '', #6 ) ;
#102 = PRODUCT_DEFINITION ( 'UNKNOWN', '', #271, #167 ) ;
#103 = FACE_OUTER_BOUND ( 'NONE', #249, .T. ) ;
#104 = AXIS2_PLACEMENT_3D ( 'NONE', #291, #25, #81 ) ;
#105 = AXIS2_PLACEMENT_3D ( 'NONE', #181, #278, #77 ) ;
#106 = AXIS2_PLACEMENT_3D ( 'NONE', #284, #34, #299 ) ;
#107 = ORIENTED_EDGE ( 'NONE', *, *, #212, .T. ) ;
#108 = FILL_AREA_STYLE ('',( #62 ) ) ;
#109 = DIRECTION ( 'NONE',  ( 0.000000000000000000, 0.000000000000000000, -1.000000000000000000 ) ) ;
#110 = CARTESIAN_POINT ( 'NONE',  ( -6.123233995736772199E-17, 3.000000000000000444, 0.000000000000000000 ) ) ;
#111 = AXIS2_PLACEMENT_3D ( 'NONE', #72, #265, #121 ) ;
#112 = CARTESIAN_POINT ( 'NONE',  ( 0.1249999999999999584, 3.000000000000000444, 1.530808498934191817E-17 ) ) ;
#113 = EDGE_CURVE ( 'NONE', #232, #161, #298, .T. ) ;
#114 = VECTOR ( 'NONE', #87, 39.37007874015748143 ) ;
#115 = SURFACE_STYLE_USAGE ( .BOTH. , #16 ) ;
#116 = EDGE_LOOP ( 'NONE', ( #133, #107, #43, #289 ) ) ;
#117 = ORIENTED_EDGE ( 'NONE', *, *, #237, .T. ) ;
#118 = UNCERTAINTY_MEASURE_WITH_UNIT (LENGTH_MEASURE( 1.000000000000000082E-05 ), #8, 'distance_accuracy_value', 'NONE');
#119 = SURFACE_SIDE_STYLE ('',( #19 ) ) ;
#120 = MANIFOLD_SOLID_BREP ( 'Revolve - Cutting Edge', #236 ) ;
#121 = DIRECTION ( 'NONE',  ( 0.000000000000000000, 0.000000000000000000, -1.000000000000000000 ) ) ;
#122 =( LENGTH_UNIT ( ) NAMED_UNIT ( * ) SI_UNIT ( $, .METRE. ) );
#123 = DIRECTION ( 'NONE',  ( 0.000000000000000000, 0.000000000000000000, -1.000000000000000000 ) ) ;
#124 = CARTESIAN_POINT ( 'NONE',  ( 0.1250000000000000278, 3.000000000000000444, 1.530808498934192125E-17 ) ) ;
#125 = CARTESIAN_POINT ( 'NONE',  ( -6.123233995736772199E-17, 3.000000000000000444, 0.000000000000000000 ) ) ;
#126 = VERTEX_POINT ( 'NONE', #183 ) ;
#127 = LENGTH_MEASURE_WITH_UNIT ( LENGTH_MEASURE( 0.02539999999999999897 ), #131 );
#128 = FACE_OUTER_BOUND ( 'NONE', #146, .T. ) ;
#129 = AXIS2_PLACEMENT_3D ( 'NONE', #255, #137, #109 ) ;
#130 = CIRCLE ( 'NONE', #186, 0.1250000000000000000 ) ;
#131 =( LENGTH_UNIT ( ) NAMED_UNIT ( * ) SI_UNIT ( $, .METRE. ) );
#132 =( NAMED_UNIT ( * ) PLANE_ANGLE_UNIT ( ) SI_UNIT ( $, .RADIAN. ) );
#133 = ORIENTED_EDGE ( 'NONE', *, *, #147, .F. ) ;
#134 = AXIS2_PLACEMENT_3D ( 'NONE', #94, #195, #282 ) ;
#135 = LENGTH_MEASURE_WITH_UNIT ( LENGTH_MEASURE( 0.02539999999999999897 ), #235 );
#136 = LINE ( 'NONE', #138, #51 ) ;
#137 = DIRECTION ( 'NONE',  ( -0.000000000000000000, -1.000000000000000000, -0.000000000000000000 ) ) ;
#138 = CARTESIAN_POINT ( 'NONE',  ( -0.1250000000000001110, 3.000000000000000444, 0.000000000000000000 ) ) ;
#139 = FILL_AREA_STYLE ('',( #79 ) ) ;
#140 = CARTESIAN_POINT ( 'NONE',  ( 0.000000000000000000, 0.000000000000000000, 0.000000000000000000 ) ) ;
#141 = CIRCLE ( 'NONE', #56, 0.1250000000000000555 ) ;
#142 = COLOUR_RGB ( '',1.000000000000000000, 0.000000000000000000, 0.000000000000000000 ) ;
#143 = PRODUCT_CONTEXT ( 'NONE', #187, 'mechanical' ) ;
#144 = ORIENTED_EDGE ( 'NONE', *, *, #147, .T. ) ;
#145 = SURFACE_SIDE_STYLE ('',( #279 ) ) ;
#146 = EDGE_LOOP ( 'NONE', ( #243, #308 ) ) ;
#147 = EDGE_CURVE ( 'NONE', #18, #21, #154, .T. ) ;
#148 = FACE_OUTER_BOUND ( 'NONE', #85, .T. ) ;
#149 = DIRECTION ( 'NONE',  ( -0.000000000000000000, -1.000000000000000000, -0.000000000000000000 ) ) ;
#150 = AXIS2_PLACEMENT_3D ( 'NONE', #296, #179, #273 ) ;
#151 = MECHANICAL_DESIGN_GEOMETRIC_PRESENTATION_REPRESENTATION (  '', ( #189 ), #11 ) ;
#152 = PLANE ( 'NONE',  #277 ) ;
#153 = ADVANCED_FACE ( 'NONE', ( #307 ), #188, .T. ) ;
#154 = LINE ( 'NONE', #112, #114 ) ;
#155 = SURFACE_STYLE_FILL_AREA ( #173 ) ;
#156 =( NAMED_UNIT ( * ) PLANE_ANGLE_UNIT ( ) SI_UNIT ( $, .RADIAN. ) );
#157 =( GEOMETRIC_REPRESENTATION_CONTEXT ( 3 ) GLOBAL_UNCERTAINTY_ASSIGNED_CONTEXT ( ( #14 ) ) GLOBAL_UNIT_ASSIGNED_CONTEXT ( ( #213, #98, #100 ) ) REPRESENTATION_CONTEXT ( 'NONE', 'WORKASPACE' ) );
#158 =( LENGTH_UNIT ( ) NAMED_UNIT ( * ) SI_UNIT ( $, .METRE. ) );
#159 = CARTESIAN_POINT ( 'NONE',  ( 7.582401355855259480E-33, 1.500000000000000222, 0.000000000000000000 ) ) ;
#160 = ADVANCED_FACE ( 'NONE', ( #67 ), #69, .T. ) ;
#161 = VERTEX_POINT ( 'NONE', #207 ) ;
#162 = PRESENTATION_LAYER_ASSIGNMENT (  '', '', ( #96 ) ) ;
#163 = LENGTH_MEASURE_WITH_UNIT ( LENGTH_MEASURE( 0.02539999999999999897 ), #122 );
#164 = ADVANCED_FACE ( 'NONE', ( #90 ), #203, .T. ) ;
#165 = DIRECTION ( 'NONE',  ( -4.082155997157848133E-17, 1.000000000000000000, -0.000000000000000000 ) ) ;
#166 = SURFACE_STYLE_FILL_AREA ( #39 ) ;
#167 = PRODUCT_DEFINITION_CONTEXT ( 'detailed design', #222, 'design' ) ;
#168 = SURFACE_STYLE_USAGE ( .BOTH. , #82 ) ;
#169 = ADVANCED_FACE ( 'NONE', ( #148 ), #13, .T. ) ;
#170 =( LENGTH_UNIT ( ) NAMED_UNIT ( * ) SI_UNIT ( $, .METRE. ) );
#171 = ORIENTED_EDGE ( 'NONE', *, *, #9, .T. ) ;
#172 = ORIENTED_EDGE ( 'NONE', *, *, #237, .F. ) ;
#173 = FILL_AREA_STYLE ('',( #48 ) ) ;
#174 = PRESENTATION_LAYER_ASSIGNMENT (  '', '', ( #292 ) ) ;
#175 = EDGE_LOOP ( 'NONE', ( #198, #70 ) ) ;
#176 = COLOUR_RGB ( '',0.7921568627450980005, 0.8196078431372548767, 0.9333333333333333481 ) ;
#177 = PLANE ( 'NONE',  #104 ) ;
#178 = DIMENSIONAL_EXPONENTS ( 1.000000000000000000, 0.000000000000000000, 0.000000000000000000, 0.000000000000000000, 0.000000000000000000, 0.000000000000000000, 0.000000000000000000 ) ;
#179 = DIRECTION ( 'NONE',  ( 4.082155997157848133E-17, -1.000000000000000000, 0.000000000000000000 ) ) ;
#180 = STYLED_ITEM ( 'NONE', ( #40 ), #216 ) ;
#181 = CARTESIAN_POINT ( 'NONE',  ( 0.000000000000000000, 1.500000000000000222, 0.000000000000000000 ) ) ;
#182 = ADVANCED_FACE ( 'NONE', ( #61 ), #177, .T. ) ;
#183 = CARTESIAN_POINT ( 'NONE',  ( 1.530808498934191509E-17, 1.500000000000000222, 0.1250000000000000000 ) ) ;
#184 =( NAMED_UNIT ( * ) SI_UNIT ( $, .STERADIAN. ) SOLID_ANGLE_UNIT ( ) );
#185 = EDGE_CURVE ( 'NONE', #73, #242, #136, .T. ) ;
#186 = AXIS2_PLACEMENT_3D ( 'NONE', #159, #252, #231 ) ;
#187 = APPLICATION_CONTEXT ( 'automotive_design' ) ;
#188 = CYLINDRICAL_SURFACE ( 'NONE', #297, 0.1250000000000000278 ) ;
#189 = STYLED_ITEM ( 'NONE', ( #283 ), #182 ) ;
#190 =( CONVERSION_BASED_UNIT ( 'INCH', #135 ) LENGTH_UNIT ( ) NAMED_UNIT ( #80 ) );
#191 = EDGE_CURVE ( 'NONE', #242, #21, #141, .T. ) ;
#192 = STYLED_ITEM ( 'NONE', ( #31 ), #120 ) ;
#193 = EDGE_LOOP ( 'NONE', ( #86, #171, #267, #201 ) ) ;
#194 = ORIENTED_EDGE ( 'NONE', *, *, #191, .F. ) ;
#195 = DIRECTION ( 'NONE',  ( -4.082155997157848133E-17, 1.000000000000000000, -0.000000000000000000 ) ) ;
#196 = DIRECTION ( 'NONE',  ( -0.000000000000000000, -1.000000000000000000, -0.000000000000000000 ) ) ;
#197 = FILL_AREA_STYLE ('',( #101 ) ) ;
#198 = ORIENTED_EDGE ( 'NONE', *, *, #99, .F. ) ;
#199 = DIRECTION ( 'NONE',  ( -0.000000000000000000, -1.000000000000000000, -0.000000000000000000 ) ) ;
#200 = DIRECTION ( 'NONE',  ( 0.000000000000000000, 0.000000000000000000, -1.000000000000000000 ) ) ;
#201 = ORIENTED_EDGE ( 'NONE', *, *, #91, .F. ) ;
#202 = PLANE ( 'NONE',  #150 ) ;
#203 = CYLINDRICAL_SURFACE ( 'NONE', #30, 0.1250000000000000000 ) ;
#204 = PRESENTATION_LAYER_ASSIGNMENT (  '', '', ( #180 ) ) ;
#205 = MECHANICAL_DESIGN_GEOMETRIC_PRESENTATION_REPRESENTATION (  '', ( #292 ), #64 ) ;
#206 = SURFACE_SIDE_STYLE ('',( #275 ) ) ;
#207 = CARTESIAN_POINT ( 'NONE',  ( 0.000000000000000000, 0.000000000000000000, -0.1250000000000000000 ) ) ;
#208 = DIRECTION ( 'NONE',  ( -1.000000000000000000, 0.000000000000000000, 0.000000000000000000 ) ) ;
#209 =( GEOMETRIC_REPRESENTATION_CONTEXT ( 3 ) GLOBAL_UNCERTAINTY_ASSIGNED_CONTEXT ( ( #303 ) ) GLOBAL_UNIT_ASSIGNED_CONTEXT ( ( #97, #45, #257 ) ) REPRESENTATION_CONTEXT ( 'NONE', 'WORKASPACE' ) );
#210 = PRESENTATION_STYLE_ASSIGNMENT (( #115 ) ) ;
#211 = UNCERTAINTY_MEASURE_WITH_UNIT (LENGTH_MEASURE( 1.000000000000000082E-05 ), #228, 'distance_accuracy_value', 'NONE');
#212 = EDGE_CURVE ( 'NONE', #18, #73, #272, .T. ) ;
#213 =( CONVERSION_BASED_UNIT ( 'INCH', #46 ) LENGTH_UNIT ( ) NAMED_UNIT ( #227 ) );
#214 = DIRECTION ( 'NONE',  ( -4.082155997157848133E-17, 1.000000000000000000, -0.000000000000000000 ) ) ;
#215 = CARTESIAN_POINT ( 'NONE',  ( -0.1250000000000001388, 3.000000000000000444, 0.000000000000000000 ) ) ;
#216 = MANIFOLD_SOLID_BREP ( 'Revolve - Tool Body (Straight Shanked)', #5 ) ;
#217 = ORIENTED_EDGE ( 'NONE', *, *, #191, .T. ) ;
#218 = PRESENTATION_STYLE_ASSIGNMENT (( #24 ) ) ;
#219 = EDGE_CURVE ( 'NONE', #73, #18, #130, .T. ) ;
#220 = APPLICATION_PROTOCOL_DEFINITION ( 'draft international standard', 'automotive_design', 1998, #222 ) ;
#221 =( CONVERSION_BASED_UNIT ( 'INCH', #127 ) LENGTH_UNIT ( ) NAMED_UNIT ( #246 ) );
#222 = APPLICATION_CONTEXT ( 'automotive_design' ) ;
#223 = DIMENSIONAL_EXPONENTS ( 1.000000000000000000, 0.000000000000000000, 0.000000000000000000, 0.000000000000000000, 0.000000000000000000, 0.000000000000000000, 0.000000000000000000 ) ;
#224 = MECHANICAL_DESIGN_GEOMETRIC_PRESENTATION_REPRESENTATION (  '', ( #192 ), #226 ) ;
#225 = AXIS2_PLACEMENT_3D ( 'NONE', #92, #214, #95 ) ;
#226 =( GEOMETRIC_REPRESENTATION_CONTEXT ( 3 ) GLOBAL_UNCERTAINTY_ASSIGNED_CONTEXT ( ( #253 ) ) GLOBAL_UNIT_ASSIGNED_CONTEXT ( ( #221, #259, #304 ) ) REPRESENTATION_CONTEXT ( 'NONE', 'WORKASPACE' ) );
#227 = DIMENSIONAL_EXPONENTS ( 1.000000000000000000, 0.000000000000000000, 0.000000000000000000, 0.000000000000000000, 0.000000000000000000, 0.000000000000000000, 0.000000000000000000 ) ;
#228 =( CONVERSION_BASED_UNIT ( 'INCH', #36 ) LENGTH_UNIT ( ) NAMED_UNIT ( #251 ) );
#229 = DIRECTION ( 'NONE',  ( -1.000000000000000000, 0.000000000000000000, 0.000000000000000000 ) ) ;
#230 = COLOUR_RGB ( '',1.000000000000000000, 0.000000000000000000, 0.000000000000000000 ) ;
#231 = DIRECTION ( 'NONE',  ( -1.000000000000000000, 0.000000000000000000, 0.000000000000000000 ) ) ;
#232 = VERTEX_POINT ( 'NONE', #12 ) ;
#233 =( NAMED_UNIT ( * ) SI_UNIT ( $, .STERADIAN. ) SOLID_ANGLE_UNIT ( ) );
#234 = CIRCLE ( 'NONE', #4, 0.1250000000000000555 ) ;
#235 =( LENGTH_UNIT ( ) NAMED_UNIT ( * ) SI_UNIT ( $, .METRE. ) );
#236 = CLOSED_SHELL ( 'NONE', ( #160, #182, #164, #169 ) ) ;
#237 = EDGE_CURVE ( 'NONE', #161, #54, #10, .T. ) ;
#238 = STYLED_ITEM ( 'NONE', ( #218 ), #169 ) ;
#239 = UNCERTAINTY_MEASURE_WITH_UNIT (LENGTH_MEASURE( 1.000000000000000082E-05 ), #65, 'distance_accuracy_value', 'NONE');
#240 = SHAPE_DEFINITION_REPRESENTATION ( #270, #57 ) ;
#241 = DIRECTION ( 'NONE',  ( -0.000000000000000000, -1.000000000000000000, -0.000000000000000000 ) ) ;
#242 = VERTEX_POINT ( 'NONE', #215 ) ;
#243 = ORIENTED_EDGE ( 'NONE', *, *, #219, .F. ) ;
#244 = PRESENTATION_LAYER_ASSIGNMENT (  '', '', ( #189 ) ) ;
#245 = DIRECTION ( 'NONE',  ( -1.000000000000000000, -4.082155997157848133E-17, 0.000000000000000000 ) ) ;
#246 = DIMENSIONAL_EXPONENTS ( 1.000000000000000000, 0.000000000000000000, 0.000000000000000000, 0.000000000000000000, 0.000000000000000000, 0.000000000000000000, 0.000000000000000000 ) ;
#247 = FILL_AREA_STYLE ('',( #35 ) ) ;
#248 =( NAMED_UNIT ( * ) PLANE_ANGLE_UNIT ( ) SI_UNIT ( $, .RADIAN. ) );
#249 = EDGE_LOOP ( 'NONE', ( #217, #263 ) ) ;
#250 = AXIS2_PLACEMENT_3D ( 'NONE', #1, #196, #76 ) ;
#251 = DIMENSIONAL_EXPONENTS ( 1.000000000000000000, 0.000000000000000000, 0.000000000000000000, 0.000000000000000000, 0.000000000000000000, 0.000000000000000000, 0.000000000000000000 ) ;
#252 = DIRECTION ( 'NONE',  ( -4.082155997157848133E-17, 1.000000000000000000, -0.000000000000000000 ) ) ;
#253 = UNCERTAINTY_MEASURE_WITH_UNIT (LENGTH_MEASURE( 1.000000000000000082E-05 ), #221, 'distance_accuracy_value', 'NONE');
#254 = CARTESIAN_POINT ( 'NONE',  ( -6.123233995736772199E-17, 3.000000000000000444, 0.000000000000000000 ) ) ;
#255 = CARTESIAN_POINT ( 'NONE',  ( 0.000000000000000000, 0.000000000000000000, 0.000000000000000000 ) ) ;
#256 = MECHANICAL_DESIGN_GEOMETRIC_PRESENTATION_REPRESENTATION (  '', ( #238 ), #209 ) ;
#257 =( NAMED_UNIT ( * ) SI_UNIT ( $, .STERADIAN. ) SOLID_ANGLE_UNIT ( ) );
#258 = FILL_AREA_STYLE_COLOUR ( '', #20 ) ;
#259 =( NAMED_UNIT ( * ) PLANE_ANGLE_UNIT ( ) SI_UNIT ( $, .RADIAN. ) );
#260 = PRESENTATION_STYLE_ASSIGNMENT (( #168 ) ) ;
#261 = LENGTH_MEASURE_WITH_UNIT ( LENGTH_MEASURE( 0.02539999999999999897 ), #170 );
#262 = CARTESIAN_POINT ( 'NONE',  ( 0.000000000000000000, 0.000000000000000000, 0.000000000000000000 ) ) ;
#263 = ORIENTED_EDGE ( 'NONE', *, *, #293, .T. ) ;
#264 =( LENGTH_UNIT ( ) NAMED_UNIT ( * ) SI_UNIT ( $, .METRE. ) );
#265 = DIRECTION ( 'NONE',  ( -0.000000000000000000, -1.000000000000000000, -0.000000000000000000 ) ) ;
#266 = DIRECTION ( 'NONE',  ( 0.000000000000000000, 0.000000000000000000, 1.000000000000000000 ) ) ;
#267 = ORIENTED_EDGE ( 'NONE', *, *, #113, .T. ) ;
#268 = EDGE_CURVE ( 'NONE', #126, #54, #290, .T. ) ;
#269 = DIRECTION ( 'NONE',  ( -4.082155997157848133E-17, 1.000000000000000000, -0.000000000000000000 ) ) ;
#270 = PRODUCT_DEFINITION_SHAPE ( 'NONE', 'NONE',  #102 ) ;
#271 = PRODUCT_DEFINITION_FORMATION_WITH_SPECIFIED_SOURCE ( 'ANY', '', #274, .NOT_KNOWN. ) ;
#272 = CIRCLE ( 'NONE', #134, 0.1250000000000000000 ) ;
#273 = DIRECTION ( 'NONE',  ( 1.000000000000000000, 4.082155997157848133E-17, 0.000000000000000000 ) ) ;
#274 = PRODUCT ( '82956', '82956', '', ( #143 ) ) ;
#275 = SURFACE_STYLE_FILL_AREA ( #247 ) ;
#276 = ORIENTED_EDGE ( 'NONE', *, *, #185, .F. ) ;
#277 = AXIS2_PLACEMENT_3D ( 'NONE', #78, #28, #245 ) ;
#278 = DIRECTION ( 'NONE',  ( -0.000000000000000000, -1.000000000000000000, -0.000000000000000000 ) ) ;
#279 = SURFACE_STYLE_FILL_AREA ( #197 ) ;
#280 = PRESENTATION_LAYER_ASSIGNMENT (  '', '', ( #192 ) ) ;
#281 = DIRECTION ( 'NONE',  ( -4.082155997157848133E-17, 1.000000000000000000, -0.000000000000000000 ) ) ;
#282 = DIRECTION ( 'NONE',  ( -1.000000000000000000, 0.000000000000000000, 0.000000000000000000 ) ) ;
#283 = PRESENTATION_STYLE_ASSIGNMENT (( #66 ) ) ;
#284 = CARTESIAN_POINT ( 'NONE',  ( 0.000000000000000000, 0.000000000000000000, 0.000000000000000000 ) ) ;
#285 = CIRCLE ( 'NONE', #105, 0.1250000000000000000 ) ;
#286 =( GEOMETRIC_REPRESENTATION_CONTEXT ( 3 ) GLOBAL_UNCERTAINTY_ASSIGNED_CONTEXT ( ( #211 ) ) GLOBAL_UNIT_ASSIGNED_CONTEXT ( ( #228, #132, #44 ) ) REPRESENTATION_CONTEXT ( 'NONE', 'WORKASPACE' ) );
#287 = ORIENTED_EDGE ( 'NONE', *, *, #219, .T. ) ;
#288 = ORIENTED_EDGE ( 'NONE', *, *, #113, .F. ) ;
#289 = ORIENTED_EDGE ( 'NONE', *, *, #293, .F. ) ;
#290 = LINE ( 'NONE', #75, #306 ) ;
#291 = CARTESIAN_POINT ( 'NONE',  ( 0.000000000000000000, 1.500000000000000222, 0.000000000000000000 ) ) ;
#292 = STYLED_ITEM ( 'NONE', ( #210 ), #164 ) ;
#293 = EDGE_CURVE ( 'NONE', #21, #242, #234, .T. ) ;
#294 = CARTESIAN_POINT ( 'NONE',  ( 0.000000000000000000, 0.000000000000000000, -0.1250000000000000000 ) ) ;
#295 = EDGE_LOOP ( 'NONE', ( #287, #144, #194, #276 ) ) ;
#296 = CARTESIAN_POINT ( 'NONE',  ( 0.1250000000000000000, 3.000000000000000444, 0.000000000000000000 ) ) ;
#297 = AXIS2_PLACEMENT_3D ( 'NONE', #254, #281, #208 ) ;
#298 = LINE ( 'NONE', #294, #42 ) ;
#299 = DIRECTION ( 'NONE',  ( 0.000000000000000000, 0.000000000000000000, -1.000000000000000000 ) ) ;
#300 =( NAMED_UNIT ( * ) SI_UNIT ( $, .STERADIAN. ) SOLID_ANGLE_UNIT ( ) );
#301 = PRODUCT_RELATED_PRODUCT_CATEGORY ( 'part', '', ( #274 ) ) ;
#302 = SURFACE_STYLE_FILL_AREA ( #108 ) ;
#303 = UNCERTAINTY_MEASURE_WITH_UNIT (LENGTH_MEASURE( 1.000000000000000082E-05 ), #97, 'distance_accuracy_value', 'NONE');
#304 =( NAMED_UNIT ( * ) SI_UNIT ( $, .STERADIAN. ) SOLID_ANGLE_UNIT ( ) );
#305 = CARTESIAN_POINT ( 'NONE',  ( -0.1250000000000000000, 1.500000000000000222, 0.000000000000000000 ) ) ;
#306 = VECTOR ( 'NONE', #241, 39.37007874015748143 ) ;
#307 = FACE_OUTER_BOUND ( 'NONE', #116, .T. ) ;
#308 = ORIENTED_EDGE ( 'NONE', *, *, #212, .F. ) ;
#309 = COLOUR_RGB ( '',0.7921568627450980005, 0.8196078431372548767, 0.9333333333333333481 ) ;
ENDSEC;
END-ISO-10303-21;
