ISO-10303-21;
HEADER;
FILE_DESCRIPTION (( 'STEP AP214' ),
    '1' );
FILE_NAME ('Micro_GEMM-020-4.STEP',
    '2021-09-01T21:20:13',
    ( '' ),
    ( '' ),
    'SwSTEP 2.0',
    'SolidWorks 2020',
    '' );
FILE_SCHEMA (( 'AUTOMOTIVE_DESIGN' ));
ENDSEC;

DATA;
#1 = LENGTH_MEASURE_WITH_UNIT ( LENGTH_MEASURE( 0.02539999999999999897 ), #146 );
#2 = ORIENTED_EDGE ( 'NONE', *, *, #239, .F. ) ;
#3 = DIRECTION ( 'NONE',  ( -0.7071067811865536790, 0.0000000000000000000, -0.7071067811865412445 ) ) ;
#4 = ADVANCED_FACE ( 'NONE', ( #283 ), #247, .T. ) ;
#5 = CARTESIAN_POINT ( 'NONE',  ( 0.0000000000000000000, 0.0000000000000000000, 0.0000000000000000000 ) ) ;
#6 = DIRECTION ( 'NONE',  ( -0.1736481776669311916, 2.126576849575783316E-17, 0.9848077530122080203 ) ) ;
#7 = ORIENTED_EDGE ( 'NONE', *, *, #272, .T. ) ;
#8 = ORIENTED_EDGE ( 'NONE', *, *, #218, .F. ) ;
#9 = LINE ( 'NONE', #245, #143 ) ;
#10 = COLOUR_RGB ( '',0.7921568627450980005, 0.8196078431372548767, 0.9333333333333333481 ) ;
#11 = EDGE_LOOP ( 'NONE', ( #127, #242 ) ) ;
#12 = CARTESIAN_POINT ( 'NONE',  ( 0.0000000000000000000, 0.0000000000000000000, 1.496062999999999921 ) ) ;
#13 = CARTESIAN_POINT ( 'NONE',  ( 0.0000000000000000000, 0.0000000000000000000, 1.496062999999999921 ) ) ;
#14 = LINE ( 'NONE', #270, #107 ) ;
#15 = VECTOR ( 'NONE', #3, 39.37007874015748854 ) ;
#16 = DIRECTION ( 'NONE',  ( -0.0000000000000000000, -0.0000000000000000000, -1.000000000000000000 ) ) ;
#17 = DIRECTION ( 'NONE',  ( -1.000000000000000000, 0.0000000000000000000, 1.224646799147352714E-16 ) ) ;
#18 = CARTESIAN_POINT ( 'NONE',  ( -0.05905499999999998251, 0.0000000000000000000, 1.481063000000000240 ) ) ;
#19 = AXIS2_PLACEMENT_3D ( 'NONE', #176, #289, #284 ) ;
#20 = DIRECTION ( 'NONE',  ( -1.224646799147352961E-16, -0.0000000000000000000, -1.000000000000000000 ) ) ;
#21 = EDGE_CURVE ( 'NONE', #280, #97, #285, .T. ) ;
#22 = ORIENTED_EDGE ( 'NONE', *, *, #40, .F. ) ;
#23 = CARTESIAN_POINT ( 'NONE',  ( 0.05905500000000003108, 7.232151672364698504E-18, 0.3874534609844122457 ) ) ;
#24 = AXIS2_PLACEMENT_3D ( 'NONE', #173, #194, #28 ) ;
#25 = SURFACE_STYLE_USAGE ( .BOTH. , #69 ) ;
#26 = FACE_OUTER_BOUND ( 'NONE', #208, .T. ) ;
#27 = EDGE_LOOP ( 'NONE', ( #154, #54, #105, #77 ) ) ;
#28 = DIRECTION ( 'NONE',  ( -1.000000000000000000, 0.0000000000000000000, 0.0000000000000000000 ) ) ;
#29 = SHAPE_DEFINITION_REPRESENTATION ( #144, #167 ) ;
#30 = ORIENTED_EDGE ( 'NONE', *, *, #40, .T. ) ;
#31 =( GEOMETRIC_REPRESENTATION_CONTEXT ( 3 ) GLOBAL_UNCERTAINTY_ASSIGNED_CONTEXT ( ( #169 ) ) GLOBAL_UNIT_ASSIGNED_CONTEXT ( ( #140, #217, #57 ) ) REPRESENTATION_CONTEXT ( 'NONE', 'WORKASPACE' ) );
#32 = VERTEX_POINT ( 'NONE', #100 ) ;
#33 = PRODUCT_RELATED_PRODUCT_CATEGORY ( 'part', '', ( #180 ) ) ;
#34 = DIRECTION ( 'NONE',  ( 1.000000000000000000, 0.0000000000000000000, 0.0000000000000000000 ) ) ;
#35 = CYLINDRICAL_SURFACE ( 'NONE', #259, 0.03933062999999999837 ) ;
#36 = CARTESIAN_POINT ( 'NONE',  ( -0.03933062999999996368, 4.816613013794885432E-18, 0.2755909999999999749 ) ) ;
#37 = VECTOR ( 'NONE', #48, 39.37007874015748143 ) ;
#38 = MECHANICAL_DESIGN_GEOMETRIC_PRESENTATION_REPRESENTATION (  '', ( #264 ), #31 ) ;
#39 =( CONVERSION_BASED_UNIT ( 'INCH', #139 ) LENGTH_UNIT ( ) NAMED_UNIT ( #102 ) );
#40 = EDGE_CURVE ( 'NONE', #148, #276, #187, .T. ) ;
#41 = DIRECTION ( 'NONE',  ( -1.224646799147352961E-16, -0.0000000000000000000, -1.000000000000000000 ) ) ;
#42 = SURFACE_SIDE_STYLE ('',( #229 ) ) ;
#43 = ADVANCED_FACE ( 'NONE', ( #175 ), #279, .T. ) ;
#44 = APPLICATION_PROTOCOL_DEFINITION ( 'draft international standard', 'automotive_design', 1998, #86 ) ;
#45 = DIRECTION ( 'NONE',  ( -1.224646799147352961E-16, -0.0000000000000000000, -1.000000000000000000 ) ) ;
#46 = ORIENTED_EDGE ( 'NONE', *, *, #190, .T. ) ;
#47 = PRESENTATION_STYLE_ASSIGNMENT (( #25 ) ) ;
#48 = DIRECTION ( 'NONE',  ( -0.0000000000000000000, -0.0000000000000000000, -1.000000000000000000 ) ) ;
#49 = ORIENTED_EDGE ( 'NONE', *, *, #21, .F. ) ;
#50 = DIRECTION ( 'NONE',  ( -1.000000000000000000, 0.0000000000000000000, 1.224646799147352714E-16 ) ) ;
#51 = VECTOR ( 'NONE', #271, 39.37007874015748143 ) ;
#52 = LINE ( 'NONE', #71, #37 ) ;
#53 = EDGE_LOOP ( 'NONE', ( #22, #213, #141, #263 ) ) ;
#54 = ORIENTED_EDGE ( 'NONE', *, *, #135, .T. ) ;
#55 = ORIENTED_EDGE ( 'NONE', *, *, #292, .F. ) ;
#56 = STYLED_ITEM ( 'NONE', ( #47 ), #113 ) ;
#57 =( NAMED_UNIT ( * ) SI_UNIT ( $, .STERADIAN. ) SOLID_ANGLE_UNIT ( ) );
#58 =( GEOMETRIC_REPRESENTATION_CONTEXT ( 3 ) GLOBAL_UNCERTAINTY_ASSIGNED_CONTEXT ( ( #278 ) ) GLOBAL_UNIT_ASSIGNED_CONTEXT ( ( #39, #87, #226 ) ) REPRESENTATION_CONTEXT ( 'NONE', 'WORKASPACE' ) );
#59 = VERTEX_POINT ( 'NONE', #262 ) ;
#60 = DIRECTION ( 'NONE',  ( -1.000000000000000000, 0.0000000000000000000, 1.224646799147352714E-16 ) ) ;
#61 = ORIENTED_EDGE ( 'NONE', *, *, #21, .T. ) ;
#62 = DIRECTION ( 'NONE',  ( 1.000000000000000000, 0.0000000000000000000, 0.0000000000000000000 ) ) ;
#63 = CIRCLE ( 'NONE', #67, 0.04405500000000001082 ) ;
#64 = COLOUR_RGB ( '',0.7921568627450980005, 0.8196078431372548767, 0.9333333333333333481 ) ;
#65 = EDGE_CURVE ( 'NONE', #288, #59, #126, .T. ) ;
#66 = CARTESIAN_POINT ( 'NONE',  ( 0.0000000000000000000, 0.0000000000000000000, 1.481063000000000240 ) ) ;
#67 = AXIS2_PLACEMENT_3D ( 'NONE', #210, #96, #206 ) ;
#68 = LENGTH_MEASURE_WITH_UNIT ( LENGTH_MEASURE( 0.02539999999999999897 ), #93 );
#69 = SURFACE_SIDE_STYLE ('',( #299 ) ) ;
#70 = DIRECTION ( 'NONE',  ( 1.000000000000000000, 0.0000000000000000000, 0.0000000000000000000 ) ) ;
#71 = CARTESIAN_POINT ( 'NONE',  ( 0.05905499999999998251, 7.232151672364692341E-18, 1.496062999999999921 ) ) ;
#72 = AXIS2_PLACEMENT_3D ( 'NONE', #76, #261, #188 ) ;
#73 = PRODUCT_DEFINITION ( 'UNKNOWN', '', #138, #233 ) ;
#74 = ORIENTED_EDGE ( 'NONE', *, *, #282, .F. ) ;
#75 = CYLINDRICAL_SURFACE ( 'NONE', #24, 0.05905499999999998251 ) ;
#76 = CARTESIAN_POINT ( 'NONE',  ( 0.0000000000000000000, 0.0000000000000000000, 0.0000000000000000000 ) ) ;
#77 = ORIENTED_EDGE ( 'NONE', *, *, #65, .F. ) ;
#78 = EDGE_CURVE ( 'NONE', #32, #84, #221, .T. ) ;
#79 = PRODUCT_CONTEXT ( 'NONE', #86, 'mechanical' ) ;
#80 = CARTESIAN_POINT ( 'NONE',  ( 5.898649710075390321E-34, 0.0000000000000000000, 4.816613013794884661E-18 ) ) ;
#81 = APPLICATION_PROTOCOL_DEFINITION ( 'draft international standard', 'automotive_design', 1998, #199 ) ;
#82 = VERTEX_POINT ( 'NONE', #23 ) ;
#83 = AXIS2_PLACEMENT_3D ( 'NONE', #196, #201, #159 ) ;
#84 = VERTEX_POINT ( 'NONE', #119 ) ;
#85 = DIRECTION ( 'NONE',  ( 1.000000000000000000, 0.0000000000000000000, 0.0000000000000000000 ) ) ;
#86 = APPLICATION_CONTEXT ( 'automotive_design' ) ;
#87 =( NAMED_UNIT ( * ) PLANE_ANGLE_UNIT ( ) SI_UNIT ( $, .RADIAN. ) );
#88 = FACE_OUTER_BOUND ( 'NONE', #191, .T. ) ;
#89 = AXIS2_PLACEMENT_3D ( 'NONE', #80, #174, #130 ) ;
#90 = AXIS2_PLACEMENT_3D ( 'NONE', #66, #182, #290 ) ;
#91 = CARTESIAN_POINT ( 'NONE',  ( -0.05905499999999992700, 0.0000000000000000000, 0.3874534609844122457 ) ) ;
#92 = FACE_OUTER_BOUND ( 'NONE', #238, .T. ) ;
#93 =( LENGTH_UNIT ( ) NAMED_UNIT ( * ) SI_UNIT ( $, .METRE. ) );
#94 = DIRECTION ( 'NONE',  ( -1.000000000000000000, 0.0000000000000000000, 0.0000000000000000000 ) ) ;
#95 =( GEOMETRIC_REPRESENTATION_CONTEXT ( 3 ) GLOBAL_UNCERTAINTY_ASSIGNED_CONTEXT ( ( #121 ) ) GLOBAL_UNIT_ASSIGNED_CONTEXT ( ( #231, #257, #164 ) ) REPRESENTATION_CONTEXT ( 'NONE', 'WORKASPACE' ) );
#96 = DIRECTION ( 'NONE',  ( 0.0000000000000000000, 0.0000000000000000000, 1.000000000000000000 ) ) ;
#97 = VERTEX_POINT ( 'NONE', #18 ) ;
#98 = CIRCLE ( 'NONE', #294, 0.05905499999999998251 ) ;
#99 = AXIS2_PLACEMENT_3D ( 'NONE', #153, #212, #286 ) ;
#100 = CARTESIAN_POINT ( 'NONE',  ( 0.04405500000000001082, 6.313666573004179469E-18, 1.496062999999999921 ) ) ;
#101 = CIRCLE ( 'NONE', #274, 0.04405500000000001082 ) ;
#102 = DIMENSIONAL_EXPONENTS ( 1.000000000000000000, 0.0000000000000000000, 0.0000000000000000000, 0.0000000000000000000, 0.0000000000000000000, 0.0000000000000000000, 0.0000000000000000000 ) ;
#103 = EDGE_CURVE ( 'NONE', #32, #280, #63, .T. ) ;
#104 = EDGE_LOOP ( 'NONE', ( #109, #46, #165, #132 ) ) ;
#105 = ORIENTED_EDGE ( 'NONE', *, *, #252, .T. ) ;
#106 = ORIENTED_EDGE ( 'NONE', *, *, #202, .F. ) ;
#107 = VECTOR ( 'NONE', #114, 39.37007874015748143 ) ;
#108 = FACE_OUTER_BOUND ( 'NONE', #104, .T. ) ;
#109 = ORIENTED_EDGE ( 'NONE', *, *, #239, .T. ) ;
#110 = CARTESIAN_POINT ( 'NONE',  ( -0.04405500000000001082, 0.0000000000000000000, 1.496062999999999921 ) ) ;
#111 = DIRECTION ( 'NONE',  ( -1.000000000000000000, 0.0000000000000000000, 0.0000000000000000000 ) ) ;
#112 = CARTESIAN_POINT ( 'NONE',  ( 0.03933063000000002613, 0.0000000000000000000, 0.2755909999999999749 ) ) ;
#113 = MANIFOLD_SOLID_BREP ( 'Cut-Revolve1', #200 ) ;
#114 = DIRECTION ( 'NONE',  ( 0.1736481776669313859, 0.0000000000000000000, 0.9848077530122077983 ) ) ;
#115 = CARTESIAN_POINT ( 'NONE',  ( 0.0000000000000000000, 0.0000000000000000000, 1.496062999999999921 ) ) ;
#116 = VECTOR ( 'NONE', #184, 39.37007874015748854 ) ;
#117 = AXIS2_PLACEMENT_3D ( 'NONE', #12, #179, #94 ) ;
#118 = ORIENTED_EDGE ( 'NONE', *, *, #292, .T. ) ;
#119 = CARTESIAN_POINT ( 'NONE',  ( 0.05905499999999998251, 7.232151672364692341E-18, 1.481063000000000240 ) ) ;
#120 = ADVANCED_FACE ( 'NONE', ( #204 ), #295, .T. ) ;
#121 = UNCERTAINTY_MEASURE_WITH_UNIT (LENGTH_MEASURE( 1.000000000000000082E-05 ), #231, 'distance_accuracy_value', 'NONE');
#122 = MECHANICAL_DESIGN_GEOMETRIC_PRESENTATION_REPRESENTATION (  '', ( #56 ), #95 ) ;
#123 = CIRCLE ( 'NONE', #205, 0.05905499999999998251 ) ;
#124 = DIMENSIONAL_EXPONENTS ( 1.000000000000000000, 0.0000000000000000000, 0.0000000000000000000, 0.0000000000000000000, 0.0000000000000000000, 0.0000000000000000000, 0.0000000000000000000 ) ;
#125 = CARTESIAN_POINT ( 'NONE',  ( -0.04405500000000001082, 0.0000000000000000000, 1.496062999999999921 ) ) ;
#126 = CIRCLE ( 'NONE', #89, 0.03933062999999999837 ) ;
#127 = ORIENTED_EDGE ( 'NONE', *, *, #128, .T. ) ;
#128 = EDGE_CURVE ( 'NONE', #59, #288, #253, .T. ) ;
#129 = ORIENTED_EDGE ( 'NONE', *, *, #103, .T. ) ;
#130 = DIRECTION ( 'NONE',  ( -1.000000000000000000, 0.0000000000000000000, 1.224646799147352714E-16 ) ) ;
#131 = EDGE_CURVE ( 'NONE', #82, #276, #98, .T. ) ;
#132 = ORIENTED_EDGE ( 'NONE', *, *, #252, .F. ) ;
#133 = AXIS2_PLACEMENT_3D ( 'NONE', #170, #45, #50 ) ;
#134 = CARTESIAN_POINT ( 'NONE',  ( -0.05905499999999998251, 0.0000000000000000000, 1.496062999999999921 ) ) ;
#135 = EDGE_CURVE ( 'NONE', #232, #148, #166, .T. ) ;
#136 = SURFACE_STYLE_USAGE ( .BOTH. , #42 ) ;
#137 = AXIS2_PLACEMENT_3D ( 'NONE', #149, #237, #60 ) ;
#138 = PRODUCT_DEFINITION_FORMATION_WITH_SPECIFIED_SOURCE ( 'ANY', '', #180, .NOT_KNOWN. ) ;
#139 = LENGTH_MEASURE_WITH_UNIT ( LENGTH_MEASURE( 0.02539999999999999897 ), #157 );
#140 =( CONVERSION_BASED_UNIT ( 'INCH', #68 ) LENGTH_UNIT ( ) NAMED_UNIT ( #151 ) );
#141 = ORIENTED_EDGE ( 'NONE', *, *, #218, .T. ) ;
#142 = CARTESIAN_POINT ( 'NONE',  ( 4.744936408131242506E-17, 0.0000000000000000000, 0.3874534609844122457 ) ) ;
#143 = VECTOR ( 'NONE', #155, 39.37007874015748143 ) ;
#144 = PRODUCT_DEFINITION_SHAPE ( 'NONE', 'NONE',  #73 ) ;
#145 = EDGE_CURVE ( 'NONE', #84, #82, #52, .T. ) ;
#146 =( LENGTH_UNIT ( ) NAMED_UNIT ( * ) SI_UNIT ( $, .METRE. ) );
#147 = PRESENTATION_LAYER_ASSIGNMENT (  '', '', ( #264 ) ) ;
#148 = VERTEX_POINT ( 'NONE', #214 ) ;
#149 = CARTESIAN_POINT ( 'NONE',  ( 0.0000000000000000000, 0.0000000000000000000, 0.0000000000000000000 ) ) ;
#150 = EDGE_LOOP ( 'NONE', ( #186, #195, #106, #49 ) ) ;
#151 = DIMENSIONAL_EXPONENTS ( 1.000000000000000000, 0.0000000000000000000, 0.0000000000000000000, 0.0000000000000000000, 0.0000000000000000000, 0.0000000000000000000, 0.0000000000000000000 ) ;
#152 = EDGE_LOOP ( 'NONE', ( #260, #7, #246, #193 ) ) ;
#153 = CARTESIAN_POINT ( 'NONE',  ( 3.375016360238180974E-17, 0.0000000000000000000, 0.2755909999999999749 ) ) ;
#154 = ORIENTED_EDGE ( 'NONE', *, *, #190, .F. ) ;
#155 = DIRECTION ( 'NONE',  ( -1.224646799147352961E-16, -0.0000000000000000000, -1.000000000000000000 ) ) ;
#156 = DIRECTION ( 'NONE',  ( 0.0000000000000000000, 0.0000000000000000000, -1.000000000000000000 ) ) ;
#157 =( LENGTH_UNIT ( ) NAMED_UNIT ( * ) SI_UNIT ( $, .METRE. ) );
#158 = ADVANCED_FACE ( 'NONE', ( #222 ), #75, .T. ) ;
#159 = DIRECTION ( 'NONE',  ( -1.000000000000000000, 0.0000000000000000000, 0.0000000000000000000 ) ) ;
#160 = FILL_AREA_STYLE_COLOUR ( '', #64 ) ;
#161 = FILL_AREA_STYLE ('',( #160 ) ) ;
#162 = VECTOR ( 'NONE', #6, 39.37007874015747433 ) ;
#163 = CARTESIAN_POINT ( 'NONE',  ( 0.03933062999999999837, 4.816613013794885432E-18, 0.0000000000000000000 ) ) ;
#164 =( NAMED_UNIT ( * ) SI_UNIT ( $, .STERADIAN. ) SOLID_ANGLE_UNIT ( ) );
#165 = ORIENTED_EDGE ( 'NONE', *, *, #128, .F. ) ;
#166 = CIRCLE ( 'NONE', #277, 0.03933062999999999837 ) ;
#167 = ADVANCED_BREP_SHAPE_REPRESENTATION ( 'Micro_GEMM-020-4', ( #113, #72 ), #58 ) ;
#168 = ADVANCED_FACE ( 'NONE', ( #26 ), #230, .T. ) ;
#169 = UNCERTAINTY_MEASURE_WITH_UNIT (LENGTH_MEASURE( 1.000000000000000082E-05 ), #140, 'distance_accuracy_value', 'NONE');
#170 = CARTESIAN_POINT ( 'NONE',  ( 5.898649710075390321E-34, 0.0000000000000000000, 4.816613013794884661E-18 ) ) ;
#171 = ORIENTED_EDGE ( 'NONE', *, *, #296, .F. ) ;
#172 = DIRECTION ( 'NONE',  ( 1.224646799147352961E-16, 0.0000000000000000000, 1.000000000000000000 ) ) ;
#173 = CARTESIAN_POINT ( 'NONE',  ( 0.0000000000000000000, 0.0000000000000000000, 1.496062999999999921 ) ) ;
#174 = DIRECTION ( 'NONE',  ( -1.224646799147352961E-16, -0.0000000000000000000, -1.000000000000000000 ) ) ;
#175 = FACE_OUTER_BOUND ( 'NONE', #53, .T. ) ;
#176 = CARTESIAN_POINT ( 'NONE',  ( 0.0000000000000000000, 0.0000000000000000000, 0.0000000000000000000 ) ) ;
#177 = ORIENTED_EDGE ( 'NONE', *, *, #272, .F. ) ;
#178 = DIRECTION ( 'NONE',  ( 0.0000000000000000000, 0.0000000000000000000, 1.000000000000000000 ) ) ;
#179 = DIRECTION ( 'NONE',  ( 0.0000000000000000000, 0.0000000000000000000, -1.000000000000000000 ) ) ;
#180 = PRODUCT ( 'Micro_GEMM-020-4', 'Micro_GEMM-020-4', '', ( #79 ) ) ;
#181 = CARTESIAN_POINT ( 'NONE',  ( 0.0000000000000000000, 0.0000000000000000000, 1.481063000000000240 ) ) ;
#182 = DIRECTION ( 'NONE',  ( 0.0000000000000000000, 0.0000000000000000000, -1.000000000000000000 ) ) ;
#183 = ADVANCED_FACE ( 'NONE', ( #220 ), #266, .F. ) ;
#184 = DIRECTION ( 'NONE',  ( 0.7071067811865536790, 8.659560562355008046E-17, -0.7071067811865412445 ) ) ;
#185 = ADVANCED_FACE ( 'NONE', ( #108 ), #243, .T. ) ;
#186 = ORIENTED_EDGE ( 'NONE', *, *, #103, .F. ) ;
#187 = LINE ( 'NONE', #36, #162 ) ;
#188 = DIRECTION ( 'NONE',  ( 1.000000000000000000, 0.0000000000000000000, 0.0000000000000000000 ) ) ;
#189 = ORIENTED_EDGE ( 'NONE', *, *, #78, .F. ) ;
#190 = EDGE_CURVE ( 'NONE', #232, #288, #9, .T. ) ;
#191 = EDGE_LOOP ( 'NONE', ( #189, #55, #61, #177 ) ) ;
#192 = CIRCLE ( 'NONE', #83, 0.03933062999999999837 ) ;
#193 = ORIENTED_EDGE ( 'NONE', *, *, #131, .F. ) ;
#194 = DIRECTION ( 'NONE',  ( -0.0000000000000000000, -0.0000000000000000000, -1.000000000000000000 ) ) ;
#195 = ORIENTED_EDGE ( 'NONE', *, *, #78, .T. ) ;
#196 = CARTESIAN_POINT ( 'NONE',  ( 3.375016360238180974E-17, 0.0000000000000000000, 0.2755909999999999749 ) ) ;
#197 = ADVANCED_FACE ( 'NONE', ( #268 ), #35, .T. ) ;
#198 = CARTESIAN_POINT ( 'NONE',  ( -0.03933062999999999837, 0.0000000000000000000, 4.816613013794884661E-18 ) ) ;
#199 = APPLICATION_CONTEXT ( 'automotive_design' ) ;
#200 = CLOSED_SHELL ( 'NONE', ( #185, #168, #4, #298, #158, #120, #211, #43, #197, #183 ) ) ;
#201 = DIRECTION ( 'NONE',  ( -1.224646799147352961E-16, -0.0000000000000000000, -1.000000000000000000 ) ) ;
#202 = EDGE_CURVE ( 'NONE', #97, #84, #215, .T. ) ;
#203 = LINE ( 'NONE', #198, #223 ) ;
#204 = FACE_OUTER_BOUND ( 'NONE', #267, .T. ) ;
#205 = AXIS2_PLACEMENT_3D ( 'NONE', #181, #269, #249 ) ;
#206 = DIRECTION ( 'NONE',  ( 1.000000000000000000, 0.0000000000000000000, 0.0000000000000000000 ) ) ;
#207 = CARTESIAN_POINT ( 'NONE',  ( 0.0000000000000000000, 0.0000000000000000000, 1.496062999999999921 ) ) ;
#208 = EDGE_LOOP ( 'NONE', ( #2, #30, #219, #8 ) ) ;
#209 = FILL_AREA_STYLE_COLOUR ( '', #10 ) ;
#210 = CARTESIAN_POINT ( 'NONE',  ( 0.0000000000000000000, 0.0000000000000000000, 1.496062999999999921 ) ) ;
#211 = ADVANCED_FACE ( 'NONE', ( #88 ), #287, .T. ) ;
#212 = DIRECTION ( 'NONE',  ( 1.224646799147352961E-16, 0.0000000000000000000, 1.000000000000000000 ) ) ;
#213 = ORIENTED_EDGE ( 'NONE', *, *, #135, .F. ) ;
#214 = CARTESIAN_POINT ( 'NONE',  ( -0.03933062999999996368, 6.024382343079788886E-18, 0.2755909999999999749 ) ) ;
#215 = CIRCLE ( 'NONE', #90, 0.05905499999999998251 ) ;
#216 = CARTESIAN_POINT ( 'NONE',  ( 0.0000000000000000000, 0.0000000000000000000, 1.496062999999999921 ) ) ;
#217 =( NAMED_UNIT ( * ) PLANE_ANGLE_UNIT ( ) SI_UNIT ( $, .RADIAN. ) );
#218 = EDGE_CURVE ( 'NONE', #232, #82, #14, .T. ) ;
#219 = ORIENTED_EDGE ( 'NONE', *, *, #282, .T. ) ;
#220 = FACE_OUTER_BOUND ( 'NONE', #11, .T. ) ;
#221 = LINE ( 'NONE', #293, #116 ) ;
#222 = FACE_OUTER_BOUND ( 'NONE', #152, .T. ) ;
#223 = VECTOR ( 'NONE', #41, 39.37007874015748143 ) ;
#224 = DIRECTION ( 'NONE',  ( -1.000000000000000000, 0.0000000000000000000, 0.0000000000000000000 ) ) ;
#225 = CYLINDRICAL_SURFACE ( 'NONE', #241, 0.05905499999999998251 ) ;
#226 =( NAMED_UNIT ( * ) SI_UNIT ( $, .STERADIAN. ) SOLID_ANGLE_UNIT ( ) );
#227 = AXIS2_PLACEMENT_3D ( 'NONE', #207, #297, #275 ) ;
#228 = CARTESIAN_POINT ( 'NONE',  ( 4.744936408131242506E-17, 0.0000000000000000000, 0.3874534609844122457 ) ) ;
#229 = SURFACE_STYLE_FILL_AREA ( #161 ) ;
#230 = CONICAL_SURFACE ( 'NONE', #99, 0.03933062999999999837, 0.1745329251994338915 ) ;
#231 =( CONVERSION_BASED_UNIT ( 'INCH', #1 ) LENGTH_UNIT ( ) NAMED_UNIT ( #124 ) );
#232 = VERTEX_POINT ( 'NONE', #112 ) ;
#233 = PRODUCT_DEFINITION_CONTEXT ( 'detailed design', #199, 'design' ) ;
#234 = DIRECTION ( 'NONE',  ( -1.224646799147352961E-16, -0.0000000000000000000, -1.000000000000000000 ) ) ;
#235 = CIRCLE ( 'NONE', #256, 0.05905499999999998251 ) ;
#236 = ORIENTED_EDGE ( 'NONE', *, *, #202, .T. ) ;
#237 = DIRECTION ( 'NONE',  ( -1.224646799147352961E-16, -0.0000000000000000000, -1.000000000000000000 ) ) ;
#238 = EDGE_LOOP ( 'NONE', ( #236, #244, #74, #171 ) ) ;
#239 = EDGE_CURVE ( 'NONE', #148, #232, #192, .T. ) ;
#240 = AXIS2_PLACEMENT_3D ( 'NONE', #216, #156, #224 ) ;
#241 = AXIS2_PLACEMENT_3D ( 'NONE', #13, #16, #111 ) ;
#242 = ORIENTED_EDGE ( 'NONE', *, *, #65, .T. ) ;
#243 = CYLINDRICAL_SURFACE ( 'NONE', #137, 0.03933062999999999837 ) ;
#244 = ORIENTED_EDGE ( 'NONE', *, *, #145, .T. ) ;
#245 = CARTESIAN_POINT ( 'NONE',  ( 0.03933062999999999837, 4.816613013794885432E-18, -4.816613013794884661E-18 ) ) ;
#246 = ORIENTED_EDGE ( 'NONE', *, *, #296, .T. ) ;
#247 = CONICAL_SURFACE ( 'NONE', #240, 0.04405500000000001082, 0.7853981633974570498 ) ;
#248 = LINE ( 'NONE', #134, #51 ) ;
#249 = DIRECTION ( 'NONE',  ( 1.000000000000000000, 0.0000000000000000000, 0.0000000000000000000 ) ) ;
#250 = PRESENTATION_STYLE_ASSIGNMENT (( #136 ) ) ;
#251 = CARTESIAN_POINT ( 'NONE',  ( 3.375016360238180974E-17, 0.0000000000000000000, 0.2755909999999999749 ) ) ;
#252 = EDGE_CURVE ( 'NONE', #148, #59, #203, .T. ) ;
#253 = CIRCLE ( 'NONE', #133, 0.03933062999999999837 ) ;
#254 = PRESENTATION_LAYER_ASSIGNMENT (  '', '', ( #56 ) ) ;
#255 = FILL_AREA_STYLE ('',( #209 ) ) ;
#256 = AXIS2_PLACEMENT_3D ( 'NONE', #228, #273, #85 ) ;
#257 =( NAMED_UNIT ( * ) PLANE_ANGLE_UNIT ( ) SI_UNIT ( $, .RADIAN. ) );
#258 = DIRECTION ( 'NONE',  ( -1.000000000000000000, 0.0000000000000000000, 0.0000000000000000000 ) ) ;
#259 = AXIS2_PLACEMENT_3D ( 'NONE', #5, #281, #17 ) ;
#260 = ORIENTED_EDGE ( 'NONE', *, *, #145, .F. ) ;
#261 = DIRECTION ( 'NONE',  ( 0.0000000000000000000, 0.0000000000000000000, 1.000000000000000000 ) ) ;
#262 = CARTESIAN_POINT ( 'NONE',  ( -0.03933062999999999837, 0.0000000000000000000, 9.633226027589769323E-18 ) ) ;
#263 = ORIENTED_EDGE ( 'NONE', *, *, #131, .T. ) ;
#264 = STYLED_ITEM ( 'NONE', ( #250 ), #167 ) ;
#265 = CARTESIAN_POINT ( 'NONE',  ( 3.375016360238180974E-17, 0.0000000000000000000, 0.2755909999999999749 ) ) ;
#266 = PLANE ( 'NONE',  #19 ) ;
#267 = EDGE_LOOP ( 'NONE', ( #118, #129 ) ) ;
#268 = FACE_OUTER_BOUND ( 'NONE', #27, .T. ) ;
#269 = DIRECTION ( 'NONE',  ( 0.0000000000000000000, 0.0000000000000000000, -1.000000000000000000 ) ) ;
#270 = CARTESIAN_POINT ( 'NONE',  ( 0.03933063000000002613, 0.0000000000000000000, 0.2755909999999999749 ) ) ;
#271 = DIRECTION ( 'NONE',  ( -0.0000000000000000000, -0.0000000000000000000, -1.000000000000000000 ) ) ;
#272 = EDGE_CURVE ( 'NONE', #84, #97, #123, .T. ) ;
#273 = DIRECTION ( 'NONE',  ( -1.224646799147352961E-16, -0.0000000000000000000, -1.000000000000000000 ) ) ;
#274 = AXIS2_PLACEMENT_3D ( 'NONE', #115, #178, #62 ) ;
#275 = DIRECTION ( 'NONE',  ( 1.000000000000000000, 0.0000000000000000000, -0.0000000000000000000 ) ) ;
#276 = VERTEX_POINT ( 'NONE', #91 ) ;
#277 = AXIS2_PLACEMENT_3D ( 'NONE', #251, #20, #258 ) ;
#278 = UNCERTAINTY_MEASURE_WITH_UNIT (LENGTH_MEASURE( 1.000000000000000082E-05 ), #39, 'distance_accuracy_value', 'NONE');
#279 = CONICAL_SURFACE ( 'NONE', #291, 0.03933062999999999837, 0.1745329251994338915 ) ;
#280 = VERTEX_POINT ( 'NONE', #110 ) ;
#281 = DIRECTION ( 'NONE',  ( -1.224646799147352961E-16, -0.0000000000000000000, -1.000000000000000000 ) ) ;
#282 = EDGE_CURVE ( 'NONE', #276, #82, #235, .T. ) ;
#283 = FACE_OUTER_BOUND ( 'NONE', #150, .T. ) ;
#284 = DIRECTION ( 'NONE',  ( 1.000000000000000000, 0.0000000000000000000, -0.0000000000000000000 ) ) ;
#285 = LINE ( 'NONE', #125, #15 ) ;
#286 = DIRECTION ( 'NONE',  ( 1.000000000000000000, 0.0000000000000000000, 0.0000000000000000000 ) ) ;
#287 = CONICAL_SURFACE ( 'NONE', #117, 0.04405500000000001082, 0.7853981633974570498 ) ;
#288 = VERTEX_POINT ( 'NONE', #163 ) ;
#289 = DIRECTION ( 'NONE',  ( 0.0000000000000000000, 0.0000000000000000000, 1.000000000000000000 ) ) ;
#290 = DIRECTION ( 'NONE',  ( 1.000000000000000000, 0.0000000000000000000, 0.0000000000000000000 ) ) ;
#291 = AXIS2_PLACEMENT_3D ( 'NONE', #265, #172, #34 ) ;
#292 = EDGE_CURVE ( 'NONE', #280, #32, #101, .T. ) ;
#293 = CARTESIAN_POINT ( 'NONE',  ( 0.04405500000000001082, 5.395181473643666598E-18, 1.496062999999999921 ) ) ;
#294 = AXIS2_PLACEMENT_3D ( 'NONE', #142, #234, #70 ) ;
#295 = PLANE ( 'NONE',  #227 ) ;
#296 = EDGE_CURVE ( 'NONE', #97, #276, #248, .T. ) ;
#297 = DIRECTION ( 'NONE',  ( 0.0000000000000000000, 0.0000000000000000000, 1.000000000000000000 ) ) ;
#298 = ADVANCED_FACE ( 'NONE', ( #92 ), #225, .T. ) ;
#299 = SURFACE_STYLE_FILL_AREA ( #255 ) ;
ENDSEC;
END-ISO-10303-21;
