ISO-10303-21;
HEADER;
FILE_DESCRIPTION (( 'STEP AP214' ),
    '1' );
FILE_NAME ('Micro_SEM-218-04.STEP',
    '2021-09-02T02:21:04',
    ( '' ),
    ( '' ),
    'SwSTEP 2.0',
    'SolidWorks 2020',
    '' );
FILE_SCHEMA (( 'AUTOMOTIVE_DESIGN' ));
ENDSEC;

DATA;
#1 = SURFACE_SIDE_STYLE ('',( #164 ) ) ;
#2 = CONICAL_SURFACE ( 'NONE', #96, 0.1099999999999996397, 0.7853981633974426169 ) ;
#3 = EDGE_CURVE ( 'NONE', #136, #249, #71, .T. ) ;
#4 = EDGE_LOOP ( 'NONE', ( #36, #159 ) ) ;
#5 =( GEOMETRIC_REPRESENTATION_CONTEXT ( 3 ) GLOBAL_UNCERTAINTY_ASSIGNED_CONTEXT ( ( #125 ) ) GLOBAL_UNIT_ASSIGNED_CONTEXT ( ( #131, #88, #7 ) ) REPRESENTATION_CONTEXT ( 'NONE', 'WORKASPACE' ) );
#6 = ORIENTED_EDGE ( 'NONE', *, *, #170, .T. ) ;
#7 =( NAMED_UNIT ( * ) SI_UNIT ( $, .STERADIAN. ) SOLID_ANGLE_UNIT ( ) );
#8 = ORIENTED_EDGE ( 'NONE', *, *, #286, .T. ) ;
#9 = FACE_OUTER_BOUND ( 'NONE', #107, .T. ) ;
#10 = DIRECTION ( 'NONE',  ( -1.224646799147353207E-16, -0.0000000000000000000, -1.000000000000000000 ) ) ;
#11 = VECTOR ( 'NONE', #186, 39.37007874015748143 ) ;
#12 = FACE_OUTER_BOUND ( 'NONE', #4, .T. ) ;
#13 = EDGE_CURVE ( 'NONE', #185, #136, #95, .T. ) ;
#14 = DIRECTION ( 'NONE',  ( -1.000000000000000000, 0.0000000000000000000, 1.224646799147353207E-16 ) ) ;
#15 = LENGTH_MEASURE_WITH_UNIT ( LENGTH_MEASURE( 0.02539999999999999897 ), #228 );
#16 = ORIENTED_EDGE ( 'NONE', *, *, #252, .T. ) ;
#17 = CARTESIAN_POINT ( 'NONE',  ( -0.1092406499999999947, 0.0000000000000000000, 2.675624247185526200E-17 ) ) ;
#18 = ORIENTED_EDGE ( 'NONE', *, *, #78, .F. ) ;
#19 = DIRECTION ( 'NONE',  ( 0.7071067811865434649, 8.659560562354883554E-17, -0.7071067811865515695 ) ) ;
#20 = DIRECTION ( 'NONE',  ( -0.7071067811865434649, 0.0000000000000000000, -0.7071067811865515695 ) ) ;
#21 = CARTESIAN_POINT ( 'NONE',  ( -0.1092406499999999947, 0.0000000000000000000, 1.337812123592763100E-17 ) ) ;
#22 = FACE_OUTER_BOUND ( 'NONE', #154, .T. ) ;
#23 = COLOUR_RGB ( '',0.7921568627450980005, 0.8196078431372548767, 0.9333333333333333481 ) ;
#24 = EDGE_CURVE ( 'NONE', #136, #185, #187, .T. ) ;
#25 = ORIENTED_EDGE ( 'NONE', *, *, #41, .T. ) ;
#26 = DIRECTION ( 'NONE',  ( -1.224646799147353207E-16, -0.0000000000000000000, -1.000000000000000000 ) ) ;
#27 = VECTOR ( 'NONE', #247, 39.37007874015748143 ) ;
#28 = ADVANCED_FACE ( 'NONE', ( #151 ), #101, .T. ) ;
#29 = DIRECTION ( 'NONE',  ( 1.000000000000000000, 0.0000000000000000000, 0.0000000000000000000 ) ) ;
#30 = DIRECTION ( 'NONE',  ( 1.000000000000000000, 0.0000000000000000000, -0.0000000000000000000 ) ) ;
#31 = FACE_OUTER_BOUND ( 'NONE', #181, .T. ) ;
#32 = AXIS2_PLACEMENT_3D ( 'NONE', #47, #26, #14 ) ;
#33 = AXIS2_PLACEMENT_3D ( 'NONE', #84, #115, #72 ) ;
#34 = DIRECTION ( 'NONE',  ( 1.000000000000000000, 0.0000000000000000000, -0.0000000000000000000 ) ) ;
#35 = EDGE_CURVE ( 'NONE', #272, #232, #74, .T. ) ;
#36 = ORIENTED_EDGE ( 'NONE', *, *, #35, .T. ) ;
#37 = DIRECTION ( 'NONE',  ( 0.0000000000000000000, 0.0000000000000000000, 1.000000000000000000 ) ) ;
#38 = LINE ( 'NONE', #135, #283 ) ;
#39 = DIRECTION ( 'NONE',  ( -1.224646799147353207E-16, -0.0000000000000000000, -1.000000000000000000 ) ) ;
#40 =( NAMED_UNIT ( * ) PLANE_ANGLE_UNIT ( ) SI_UNIT ( $, .RADIAN. ) );
#41 = EDGE_CURVE ( 'NONE', #79, #249, #299, .T. ) ;
#42 = ORIENTED_EDGE ( 'NONE', *, *, #259, .F. ) ;
#43 = CARTESIAN_POINT ( 'NONE',  ( 0.1250000000000000000, 1.530808498934191509E-17, 2.000000000000000000 ) ) ;
#44 = PRESENTATION_LAYER_ASSIGNMENT (  '', '', ( #75 ) ) ;
#45 = ORIENTED_EDGE ( 'NONE', *, *, #65, .F. ) ;
#46 = SURFACE_STYLE_USAGE ( .BOTH. , #280 ) ;
#47 = CARTESIAN_POINT ( 'NONE',  ( 0.0000000000000000000, 0.0000000000000000000, 0.0000000000000000000 ) ) ;
#48 = CARTESIAN_POINT ( 'NONE',  ( 0.1092406499999999947, 1.337812123592763100E-17, 0.0000000000000000000 ) ) ;
#49 = CARTESIAN_POINT ( 'NONE',  ( -0.1092406499999999392, 1.337812123592763100E-17, 0.4380000000000000004 ) ) ;
#50 = ADVANCED_FACE ( 'NONE', ( #12 ), #244, .F. ) ;
#51 = PRODUCT_DEFINITION_FORMATION_WITH_SPECIFIED_SOURCE ( 'ANY', '', #145, .NOT_KNOWN. ) ;
#52 = VERTEX_POINT ( 'NONE', #221 ) ;
#53 = CARTESIAN_POINT ( 'NONE',  ( -0.1250000000000000000, 0.0000000000000000000, 2.000000000000000000 ) ) ;
#54 = DIRECTION ( 'NONE',  ( 0.0000000000000000000, 0.0000000000000000000, -1.000000000000000000 ) ) ;
#55 = ORIENTED_EDGE ( 'NONE', *, *, #24, .T. ) ;
#56 = LINE ( 'NONE', #248, #104 ) ;
#57 = ORIENTED_EDGE ( 'NONE', *, *, #144, .T. ) ;
#58 =( NAMED_UNIT ( * ) PLANE_ANGLE_UNIT ( ) SI_UNIT ( $, .RADIAN. ) );
#59 = ORIENTED_EDGE ( 'NONE', *, *, #259, .T. ) ;
#60 = ORIENTED_EDGE ( 'NONE', *, *, #170, .F. ) ;
#61 = LINE ( 'NONE', #43, #11 ) ;
#62 = FILL_AREA_STYLE_COLOUR ( '', #23 ) ;
#63 = ORIENTED_EDGE ( 'NONE', *, *, #124, .F. ) ;
#64 =( GEOMETRIC_REPRESENTATION_CONTEXT ( 3 ) GLOBAL_UNCERTAINTY_ASSIGNED_CONTEXT ( ( #237 ) ) GLOBAL_UNIT_ASSIGNED_CONTEXT ( ( #250, #40, #162 ) ) REPRESENTATION_CONTEXT ( 'NONE', 'WORKASPACE' ) );
#65 = EDGE_CURVE ( 'NONE', #185, #79, #109, .T. ) ;
#66 = AXIS2_PLACEMENT_3D ( 'NONE', #196, #171, #29 ) ;
#67 = AXIS2_PLACEMENT_3D ( 'NONE', #122, #37, #207 ) ;
#68 = PRESENTATION_LAYER_ASSIGNMENT (  '', '', ( #129 ) ) ;
#69 = ORIENTED_EDGE ( 'NONE', *, *, #213, .F. ) ;
#70 = CARTESIAN_POINT ( 'NONE',  ( 6.458489814991360729E-17, 0.0000000000000000000, 0.5273757151439919522 ) ) ;
#71 = LINE ( 'NONE', #49, #251 ) ;
#72 = DIRECTION ( 'NONE',  ( 1.000000000000000000, 0.0000000000000000000, 0.0000000000000000000 ) ) ;
#73 = DIRECTION ( 'NONE',  ( -1.000000000000000000, 0.0000000000000000000, 0.0000000000000000000 ) ) ;
#74 = CIRCLE ( 'NONE', #83, 0.1092406499999999947 ) ;
#75 = STYLED_ITEM ( 'NONE', ( #183 ), #258 ) ;
#76 = CARTESIAN_POINT ( 'NONE',  ( 5.363952980265406880E-17, 0.0000000000000000000, 0.4380000000000000004 ) ) ;
#77 = DIRECTION ( 'NONE',  ( 0.0000000000000000000, 0.0000000000000000000, -1.000000000000000000 ) ) ;
#78 = EDGE_CURVE ( 'NONE', #184, #249, #263, .T. ) ;
#79 = VERTEX_POINT ( 'NONE', #220 ) ;
#80 = EDGE_LOOP ( 'NONE', ( #253, #267, #290, #25 ) ) ;
#81 = DIRECTION ( 'NONE',  ( 1.000000000000000000, 0.0000000000000000000, 0.0000000000000000000 ) ) ;
#82 = DIMENSIONAL_EXPONENTS ( 1.000000000000000000, 0.0000000000000000000, 0.0000000000000000000, 0.0000000000000000000, 0.0000000000000000000, 0.0000000000000000000, 0.0000000000000000000 ) ;
#83 = AXIS2_PLACEMENT_3D ( 'NONE', #130, #155, #148 ) ;
#84 = CARTESIAN_POINT ( 'NONE',  ( 0.0000000000000000000, 0.0000000000000000000, 1.984999999999999432 ) ) ;
#85 = CARTESIAN_POINT ( 'NONE',  ( 6.458489814991360729E-17, 0.0000000000000000000, 0.5273757151439919522 ) ) ;
#86 = LENGTH_MEASURE_WITH_UNIT ( LENGTH_MEASURE( 0.02539999999999999897 ), #116 );
#87 = EDGE_LOOP ( 'NONE', ( #219, #206, #8, #241 ) ) ;
#88 =( NAMED_UNIT ( * ) PLANE_ANGLE_UNIT ( ) SI_UNIT ( $, .RADIAN. ) );
#89 = CARTESIAN_POINT ( 'NONE',  ( 0.1250000000000000000, 1.530808498934191509E-17, 1.984999999999999432 ) ) ;
#90 = ADVANCED_FACE ( 'NONE', ( #242 ), #152, .T. ) ;
#91 = PRODUCT_DEFINITION_SHAPE ( 'NONE', 'NONE',  #172 ) ;
#92 = CIRCLE ( 'NONE', #33, 0.1250000000000000000 ) ;
#93 = AXIS2_PLACEMENT_3D ( 'NONE', #85, #39, #274 ) ;
#94 = ADVANCED_FACE ( 'NONE', ( #31 ), #266, .T. ) ;
#95 = CIRCLE ( 'NONE', #174, 0.1092406499999999947 ) ;
#96 = AXIS2_PLACEMENT_3D ( 'NONE', #177, #54, #153 ) ;
#97 = CARTESIAN_POINT ( 'NONE',  ( 0.0000000000000000000, 0.0000000000000000000, 2.000000000000000000 ) ) ;
#98 = DIRECTION ( 'NONE',  ( -1.224646799147353207E-16, -0.0000000000000000000, -1.000000000000000000 ) ) ;
#99 = DIRECTION ( 'NONE',  ( -1.000000000000000000, 0.0000000000000000000, 0.0000000000000000000 ) ) ;
#100 = CARTESIAN_POINT ( 'NONE',  ( 0.0000000000000000000, 0.0000000000000000000, 0.0000000000000000000 ) ) ;
#101 = CYLINDRICAL_SURFACE ( 'NONE', #190, 0.1250000000000000000 ) ;
#102 = ADVANCED_FACE ( 'NONE', ( #291 ), #239, .T. ) ;
#103 = CARTESIAN_POINT ( 'NONE',  ( -0.1249999999999999306, 0.0000000000000000000, 0.5273757151439919522 ) ) ;
#104 = VECTOR ( 'NONE', #98, 39.37007874015748143 ) ;
#105 = APPLICATION_CONTEXT ( 'automotive_design' ) ;
#106 = DIRECTION ( 'NONE',  ( 0.0000000000000000000, 0.0000000000000000000, 1.000000000000000000 ) ) ;
#107 = EDGE_LOOP ( 'NONE', ( #63, #59, #108, #285 ) ) ;
#108 = ORIENTED_EDGE ( 'NONE', *, *, #252, .F. ) ;
#109 = LINE ( 'NONE', #198, #27 ) ;
#110 = ORIENTED_EDGE ( 'NONE', *, *, #203, .T. ) ;
#111 = CARTESIAN_POINT ( 'NONE',  ( 0.0000000000000000000, 0.0000000000000000000, 2.000000000000000000 ) ) ;
#112 =( CONVERSION_BASED_UNIT ( 'INCH', #15 ) LENGTH_UNIT ( ) NAMED_UNIT ( #82 ) );
#113 = DIMENSIONAL_EXPONENTS ( 1.000000000000000000, 0.0000000000000000000, 0.0000000000000000000, 0.0000000000000000000, 0.0000000000000000000, 0.0000000000000000000, 0.0000000000000000000 ) ;
#114 = ORIENTED_EDGE ( 'NONE', *, *, #41, .F. ) ;
#115 = DIRECTION ( 'NONE',  ( 0.0000000000000000000, 0.0000000000000000000, -1.000000000000000000 ) ) ;
#116 =( LENGTH_UNIT ( ) NAMED_UNIT ( * ) SI_UNIT ( $, .METRE. ) );
#117 = AXIS2_PLACEMENT_3D ( 'NONE', #233, #160, #225 ) ;
#118 = AXIS2_PLACEMENT_3D ( 'NONE', #97, #195, #73 ) ;
#119 = EDGE_CURVE ( 'NONE', #185, #232, #56, .T. ) ;
#120 = CARTESIAN_POINT ( 'NONE',  ( -0.1099999999999996397, 0.0000000000000000000, 2.000000000000000000 ) ) ;
#121 = EDGE_LOOP ( 'NONE', ( #265, #227, #275, #45 ) ) ;
#122 = CARTESIAN_POINT ( 'NONE',  ( 0.0000000000000000000, 0.0000000000000000000, 2.000000000000000000 ) ) ;
#123 = LINE ( 'NONE', #21, #214 ) ;
#124 = EDGE_CURVE ( 'NONE', #52, #204, #212, .T. ) ;
#125 = UNCERTAINTY_MEASURE_WITH_UNIT (LENGTH_MEASURE( 1.000000000000000082E-05 ), #131, 'distance_accuracy_value', 'NONE');
#126 = AXIS2_PLACEMENT_3D ( 'NONE', #70, #10, #246 ) ;
#127 = ADVANCED_BREP_SHAPE_REPRESENTATION ( 'Micro_SEM-218-04', ( #258, #288 ), #64 ) ;
#128 = CARTESIAN_POINT ( 'NONE',  ( 5.363952980265406880E-17, 0.0000000000000000000, 0.4380000000000000004 ) ) ;
#129 = STYLED_ITEM ( 'NONE', ( #281 ), #127 ) ;
#130 = CARTESIAN_POINT ( 'NONE',  ( 1.638347335018400726E-33, 0.0000000000000000000, 1.337812123592763100E-17 ) ) ;
#131 =( CONVERSION_BASED_UNIT ( 'INCH', #229 ) LENGTH_UNIT ( ) NAMED_UNIT ( #271 ) );
#132 = DIRECTION ( 'NONE',  ( -0.0000000000000000000, -0.0000000000000000000, -1.000000000000000000 ) ) ;
#133 = DIRECTION ( 'NONE',  ( 0.0000000000000000000, 0.0000000000000000000, 1.000000000000000000 ) ) ;
#134 = ORIENTED_EDGE ( 'NONE', *, *, #78, .T. ) ;
#135 = CARTESIAN_POINT ( 'NONE',  ( 0.1099999999999996397, 1.347111479062084158E-17, 2.000000000000000000 ) ) ;
#136 = VERTEX_POINT ( 'NONE', #231 ) ;
#137 = FACE_OUTER_BOUND ( 'NONE', #80, .T. ) ;
#138 = MECHANICAL_DESIGN_GEOMETRIC_PRESENTATION_REPRESENTATION (  '', ( #129 ), #5 ) ;
#139 = ORIENTED_EDGE ( 'NONE', *, *, #203, .F. ) ;
#140 = CYLINDRICAL_SURFACE ( 'NONE', #279, 0.1092406499999999947 ) ;
#141 = APPLICATION_PROTOCOL_DEFINITION ( 'draft international standard', 'automotive_design', 1998, #182 ) ;
#142 = CYLINDRICAL_SURFACE ( 'NONE', #277, 0.1250000000000000000 ) ;
#143 = FILL_AREA_STYLE ('',( #217 ) ) ;
#144 = EDGE_CURVE ( 'NONE', #204, #184, #273, .T. ) ;
#145 = PRODUCT ( 'Micro_SEM-218-04', 'Micro_SEM-218-04', '', ( #165 ) ) ;
#146 = EDGE_CURVE ( 'NONE', #204, #52, #243, .T. ) ;
#147 = VERTEX_POINT ( 'NONE', #89 ) ;
#148 = DIRECTION ( 'NONE',  ( -1.000000000000000000, 0.0000000000000000000, 1.224646799147353207E-16 ) ) ;
#149 = CIRCLE ( 'NONE', #175, 0.1250000000000000000 ) ;
#150 = PRODUCT_RELATED_PRODUCT_CATEGORY ( 'part', '', ( #145 ) ) ;
#151 = FACE_OUTER_BOUND ( 'NONE', #163, .T. ) ;
#152 = CYLINDRICAL_SURFACE ( 'NONE', #32, 0.1092406499999999947 ) ;
#153 = DIRECTION ( 'NONE',  ( -1.000000000000000000, 0.0000000000000000000, 0.0000000000000000000 ) ) ;
#154 = EDGE_LOOP ( 'NONE', ( #55, #209, #256, #293 ) ) ;
#155 = DIRECTION ( 'NONE',  ( -1.224646799147353207E-16, -0.0000000000000000000, -1.000000000000000000 ) ) ;
#156 = ADVANCED_FACE ( 'NONE', ( #210 ), #142, .T. ) ;
#157 = FILL_AREA_STYLE ('',( #62 ) ) ;
#158 = CIRCLE ( 'NONE', #117, 0.1092406499999999947 ) ;
#159 = ORIENTED_EDGE ( 'NONE', *, *, #192, .T. ) ;
#160 = DIRECTION ( 'NONE',  ( -1.224646799147353207E-16, -0.0000000000000000000, -1.000000000000000000 ) ) ;
#161 = ORIENTED_EDGE ( 'NONE', *, *, #146, .T. ) ;
#162 =( NAMED_UNIT ( * ) SI_UNIT ( $, .STERADIAN. ) SOLID_ANGLE_UNIT ( ) );
#163 = EDGE_LOOP ( 'NONE', ( #16, #6, #69, #18 ) ) ;
#164 = SURFACE_STYLE_FILL_AREA ( #157 ) ;
#165 = PRODUCT_CONTEXT ( 'NONE', #182, 'mechanical' ) ;
#166 = DIRECTION ( 'NONE',  ( -0.0000000000000000000, -0.0000000000000000000, -1.000000000000000000 ) ) ;
#167 = VECTOR ( 'NONE', #132, 39.37007874015748143 ) ;
#168 = PRODUCT_DEFINITION_CONTEXT ( 'detailed design', #105, 'design' ) ;
#169 = DIRECTION ( 'NONE',  ( 0.0000000000000000000, 0.0000000000000000000, 1.000000000000000000 ) ) ;
#170 = EDGE_CURVE ( 'NONE', #147, #79, #61, .T. ) ;
#171 = DIRECTION ( 'NONE',  ( 0.0000000000000000000, 0.0000000000000000000, 1.000000000000000000 ) ) ;
#172 = PRODUCT_DEFINITION ( 'UNKNOWN', '', #51, #168 ) ;
#173 = DIRECTION ( 'NONE',  ( -0.0000000000000000000, -0.0000000000000000000, -1.000000000000000000 ) ) ;
#174 = AXIS2_PLACEMENT_3D ( 'NONE', #76, #262, #99 ) ;
#175 = AXIS2_PLACEMENT_3D ( 'NONE', #200, #77, #81 ) ;
#176 = CARTESIAN_POINT ( 'NONE',  ( 0.0000000000000000000, 0.0000000000000000000, 2.000000000000000000 ) ) ;
#177 = CARTESIAN_POINT ( 'NONE',  ( 0.0000000000000000000, 0.0000000000000000000, 2.000000000000000000 ) ) ;
#178 = EDGE_LOOP ( 'NONE', ( #60, #110, #134, #114 ) ) ;
#179 = DIRECTION ( 'NONE',  ( 1.000000000000000000, 0.0000000000000000000, 0.0000000000000000000 ) ) ;
#180 = FACE_OUTER_BOUND ( 'NONE', #224, .T. ) ;
#181 = EDGE_LOOP ( 'NONE', ( #161, #201 ) ) ;
#182 = APPLICATION_CONTEXT ( 'automotive_design' ) ;
#183 = PRESENTATION_STYLE_ASSIGNMENT (( #223 ) ) ;
#184 = VERTEX_POINT ( 'NONE', #276 ) ;
#185 = VERTEX_POINT ( 'NONE', #236 ) ;
#186 = DIRECTION ( 'NONE',  ( -0.0000000000000000000, -0.0000000000000000000, -1.000000000000000000 ) ) ;
#187 = CIRCLE ( 'NONE', #254, 0.1092406499999999947 ) ;
#188 = CLOSED_SHELL ( 'NONE', ( #189, #102, #238, #28, #156, #94, #257, #260, #90, #50 ) ) ;
#189 = ADVANCED_FACE ( 'NONE', ( #22 ), #140, .T. ) ;
#190 = AXIS2_PLACEMENT_3D ( 'NONE', #176, #173, #264 ) ;
#191 = AXIS2_PLACEMENT_3D ( 'NONE', #226, #297, #211 ) ;
#192 = EDGE_CURVE ( 'NONE', #232, #272, #158, .T. ) ;
#193 = SURFACE_STYLE_FILL_AREA ( #143 ) ;
#194 = MECHANICAL_DESIGN_GEOMETRIC_PRESENTATION_REPRESENTATION (  '', ( #75 ), #278 ) ;
#195 = DIRECTION ( 'NONE',  ( 0.0000000000000000000, 0.0000000000000000000, -1.000000000000000000 ) ) ;
#196 = CARTESIAN_POINT ( 'NONE',  ( 0.0000000000000000000, 0.0000000000000000000, 2.000000000000000000 ) ) ;
#197 = DIRECTION ( 'NONE',  ( -1.000000000000000000, 0.0000000000000000000, 0.0000000000000000000 ) ) ;
#198 = CARTESIAN_POINT ( 'NONE',  ( 0.1092406500000000363, 0.0000000000000000000, 0.4380000000000000004 ) ) ;
#199 = AXIS2_PLACEMENT_3D ( 'NONE', #111, #133, #34 ) ;
#200 = CARTESIAN_POINT ( 'NONE',  ( 0.0000000000000000000, 0.0000000000000000000, 1.984999999999999432 ) ) ;
#201 = ORIENTED_EDGE ( 'NONE', *, *, #124, .T. ) ;
#202 = DIRECTION ( 'NONE',  ( -1.224646799147353207E-16, -0.0000000000000000000, -1.000000000000000000 ) ) ;
#203 = EDGE_CURVE ( 'NONE', #147, #184, #92, .T. ) ;
#204 = VERTEX_POINT ( 'NONE', #298 ) ;
#205 = CARTESIAN_POINT ( 'NONE',  ( 0.0000000000000000000, 0.0000000000000000000, 0.0000000000000000000 ) ) ;
#206 = ORIENTED_EDGE ( 'NONE', *, *, #13, .T. ) ;
#207 = DIRECTION ( 'NONE',  ( 1.000000000000000000, 0.0000000000000000000, 0.0000000000000000000 ) ) ;
#208 = AXIS2_PLACEMENT_3D ( 'NONE', #128, #218, #179 ) ;
#209 = ORIENTED_EDGE ( 'NONE', *, *, #119, .T. ) ;
#210 = FACE_OUTER_BOUND ( 'NONE', #178, .T. ) ;
#211 = DIRECTION ( 'NONE',  ( 1.000000000000000000, 0.0000000000000000000, 0.0000000000000000000 ) ) ;
#212 = CIRCLE ( 'NONE', #66, 0.1099999999999996397 ) ;
#213 = EDGE_CURVE ( 'NONE', #249, #79, #245, .T. ) ;
#214 = VECTOR ( 'NONE', #234, 39.37007874015748143 ) ;
#215 = CONICAL_SURFACE ( 'NONE', #191, 0.1092406499999999947, 0.1745329251994338915 ) ;
#216 = UNCERTAINTY_MEASURE_WITH_UNIT (LENGTH_MEASURE( 1.000000000000000082E-05 ), #112, 'distance_accuracy_value', 'NONE');
#217 = FILL_AREA_STYLE_COLOUR ( '', #255 ) ;
#218 = DIRECTION ( 'NONE',  ( 1.224646799147353207E-16, 0.0000000000000000000, 1.000000000000000000 ) ) ;
#219 = ORIENTED_EDGE ( 'NONE', *, *, #119, .F. ) ;
#220 = CARTESIAN_POINT ( 'NONE',  ( 0.1250000000000000555, 1.530808498934192125E-17, 0.5273757151439919522 ) ) ;
#221 = CARTESIAN_POINT ( 'NONE',  ( 0.1099999999999996397, 1.438959988998137757E-17, 2.000000000000000000 ) ) ;
#222 = SHAPE_DEFINITION_REPRESENTATION ( #91, #127 ) ;
#223 = SURFACE_STYLE_USAGE ( .BOTH. , #1 ) ;
#224 = EDGE_LOOP ( 'NONE', ( #42, #295, #57, #139 ) ) ;
#225 = DIRECTION ( 'NONE',  ( -1.000000000000000000, 0.0000000000000000000, 1.224646799147353207E-16 ) ) ;
#226 = CARTESIAN_POINT ( 'NONE',  ( 5.363952980265406880E-17, 0.0000000000000000000, 0.4380000000000000004 ) ) ;
#227 = ORIENTED_EDGE ( 'NONE', *, *, #3, .T. ) ;
#228 =( LENGTH_UNIT ( ) NAMED_UNIT ( * ) SI_UNIT ( $, .METRE. ) );
#229 = LENGTH_MEASURE_WITH_UNIT ( LENGTH_MEASURE( 0.02539999999999999897 ), #240 );
#230 = CONICAL_SURFACE ( 'NONE', #118, 0.1099999999999996397, 0.7853981633974426169 ) ;
#231 = CARTESIAN_POINT ( 'NONE',  ( -0.1092406499999999392, 1.434310311263477304E-17, 0.4380000000000000004 ) ) ;
#232 = VERTEX_POINT ( 'NONE', #48 ) ;
#233 = CARTESIAN_POINT ( 'NONE',  ( 1.638347335018400726E-33, 0.0000000000000000000, 1.337812123592763100E-17 ) ) ;
#234 = DIRECTION ( 'NONE',  ( -1.224646799147353207E-16, -0.0000000000000000000, -1.000000000000000000 ) ) ;
#235 = APPLICATION_PROTOCOL_DEFINITION ( 'draft international standard', 'automotive_design', 1998, #105 ) ;
#236 = CARTESIAN_POINT ( 'NONE',  ( 0.1092406500000000363, 0.0000000000000000000, 0.4380000000000000004 ) ) ;
#237 = UNCERTAINTY_MEASURE_WITH_UNIT (LENGTH_MEASURE( 1.000000000000000082E-05 ), #250, 'distance_accuracy_value', 'NONE');
#238 = ADVANCED_FACE ( 'NONE', ( #9 ), #230, .T. ) ;
#239 = CONICAL_SURFACE ( 'NONE', #208, 0.1092406499999999947, 0.1745329251994338915 ) ;
#240 =( LENGTH_UNIT ( ) NAMED_UNIT ( * ) SI_UNIT ( $, .METRE. ) );
#241 = ORIENTED_EDGE ( 'NONE', *, *, #192, .F. ) ;
#242 = FACE_OUTER_BOUND ( 'NONE', #87, .T. ) ;
#243 = CIRCLE ( 'NONE', #67, 0.1099999999999996397 ) ;
#244 = PLANE ( 'NONE',  #269 ) ;
#245 = CIRCLE ( 'NONE', #93, 0.1250000000000000000 ) ;
#246 = DIRECTION ( 'NONE',  ( 1.000000000000000000, 0.0000000000000000000, 0.0000000000000000000 ) ) ;
#247 = DIRECTION ( 'NONE',  ( 0.1736481776669313859, 0.0000000000000000000, 0.9848077530122077983 ) ) ;
#248 = CARTESIAN_POINT ( 'NONE',  ( 0.1092406499999999947, 1.337812123592763100E-17, -1.337812123592763100E-17 ) ) ;
#249 = VERTEX_POINT ( 'NONE', #103 ) ;
#250 =( CONVERSION_BASED_UNIT ( 'INCH', #86 ) LENGTH_UNIT ( ) NAMED_UNIT ( #113 ) );
#251 = VECTOR ( 'NONE', #261, 39.37007874015747433 ) ;
#252 = EDGE_CURVE ( 'NONE', #184, #147, #149, .T. ) ;
#253 = ORIENTED_EDGE ( 'NONE', *, *, #3, .F. ) ;
#254 = AXIS2_PLACEMENT_3D ( 'NONE', #284, #202, #197 ) ;
#255 = COLOUR_RGB ( '',0.7921568627450980005, 0.8196078431372548767, 0.9333333333333333481 ) ;
#256 = ORIENTED_EDGE ( 'NONE', *, *, #35, .F. ) ;
#257 = ADVANCED_FACE ( 'NONE', ( #180 ), #2, .T. ) ;
#258 = MANIFOLD_SOLID_BREP ( 'Cut-Revolve1', #188 ) ;
#259 = EDGE_CURVE ( 'NONE', #52, #147, #38, .T. ) ;
#260 = ADVANCED_FACE ( 'NONE', ( #137 ), #215, .T. ) ;
#261 = DIRECTION ( 'NONE',  ( -0.1736481776669311916, 2.126576849575783316E-17, 0.9848077530122080203 ) ) ;
#262 = DIRECTION ( 'NONE',  ( -1.224646799147353207E-16, -0.0000000000000000000, -1.000000000000000000 ) ) ;
#263 = LINE ( 'NONE', #53, #167 ) ;
#264 = DIRECTION ( 'NONE',  ( -1.000000000000000000, 0.0000000000000000000, 0.0000000000000000000 ) ) ;
#265 = ORIENTED_EDGE ( 'NONE', *, *, #24, .F. ) ;
#266 = PLANE ( 'NONE',  #199 ) ;
#267 = ORIENTED_EDGE ( 'NONE', *, *, #13, .F. ) ;
#268 = DIRECTION ( 'NONE',  ( -1.000000000000000000, 0.0000000000000000000, 1.224646799147353207E-16 ) ) ;
#269 = AXIS2_PLACEMENT_3D ( 'NONE', #287, #169, #30 ) ;
#270 =( NAMED_UNIT ( * ) SI_UNIT ( $, .STERADIAN. ) SOLID_ANGLE_UNIT ( ) );
#271 = DIMENSIONAL_EXPONENTS ( 1.000000000000000000, 0.0000000000000000000, 0.0000000000000000000, 0.0000000000000000000, 0.0000000000000000000, 0.0000000000000000000, 0.0000000000000000000 ) ;
#272 = VERTEX_POINT ( 'NONE', #17 ) ;
#273 = LINE ( 'NONE', #120, #282 ) ;
#274 = DIRECTION ( 'NONE',  ( 1.000000000000000000, 0.0000000000000000000, 0.0000000000000000000 ) ) ;
#275 = ORIENTED_EDGE ( 'NONE', *, *, #213, .T. ) ;
#276 = CARTESIAN_POINT ( 'NONE',  ( -0.1250000000000000000, 0.0000000000000000000, 1.984999999999999432 ) ) ;
#277 = AXIS2_PLACEMENT_3D ( 'NONE', #296, #166, #294 ) ;
#278 =( GEOMETRIC_REPRESENTATION_CONTEXT ( 3 ) GLOBAL_UNCERTAINTY_ASSIGNED_CONTEXT ( ( #216 ) ) GLOBAL_UNIT_ASSIGNED_CONTEXT ( ( #112, #58, #270 ) ) REPRESENTATION_CONTEXT ( 'NONE', 'WORKASPACE' ) );
#279 = AXIS2_PLACEMENT_3D ( 'NONE', #205, #292, #268 ) ;
#280 = SURFACE_SIDE_STYLE ('',( #193 ) ) ;
#281 = PRESENTATION_STYLE_ASSIGNMENT (( #46 ) ) ;
#282 = VECTOR ( 'NONE', #20, 39.37007874015748143 ) ;
#283 = VECTOR ( 'NONE', #19, 39.37007874015748143 ) ;
#284 = CARTESIAN_POINT ( 'NONE',  ( 5.363952980265406880E-17, 0.0000000000000000000, 0.4380000000000000004 ) ) ;
#285 = ORIENTED_EDGE ( 'NONE', *, *, #144, .F. ) ;
#286 = EDGE_CURVE ( 'NONE', #136, #272, #123, .T. ) ;
#287 = CARTESIAN_POINT ( 'NONE',  ( 0.0000000000000000000, 0.0000000000000000000, 0.0000000000000000000 ) ) ;
#288 = AXIS2_PLACEMENT_3D ( 'NONE', #100, #106, #289 ) ;
#289 = DIRECTION ( 'NONE',  ( 1.000000000000000000, 0.0000000000000000000, 0.0000000000000000000 ) ) ;
#290 = ORIENTED_EDGE ( 'NONE', *, *, #65, .T. ) ;
#291 = FACE_OUTER_BOUND ( 'NONE', #121, .T. ) ;
#292 = DIRECTION ( 'NONE',  ( -1.224646799147353207E-16, -0.0000000000000000000, -1.000000000000000000 ) ) ;
#293 = ORIENTED_EDGE ( 'NONE', *, *, #286, .F. ) ;
#294 = DIRECTION ( 'NONE',  ( -1.000000000000000000, 0.0000000000000000000, 0.0000000000000000000 ) ) ;
#295 = ORIENTED_EDGE ( 'NONE', *, *, #146, .F. ) ;
#296 = CARTESIAN_POINT ( 'NONE',  ( 0.0000000000000000000, 0.0000000000000000000, 2.000000000000000000 ) ) ;
#297 = DIRECTION ( 'NONE',  ( 1.224646799147353207E-16, 0.0000000000000000000, 1.000000000000000000 ) ) ;
#298 = CARTESIAN_POINT ( 'NONE',  ( -0.1099999999999996397, 0.0000000000000000000, 2.000000000000000000 ) ) ;
#299 = CIRCLE ( 'NONE', #126, 0.1250000000000000000 ) ;
ENDSEC;
END-ISO-10303-21;
