ISO-10303-21;
HEADER;
FILE_DESCRIPTION (( 'STEP AP214' ),
    '1' );
FILE_NAME ('Micro_EMHM-100-6X.STEP',
    '2021-09-01T17:25:21',
    ( '' ),
    ( '' ),
    'SwSTEP 2.0',
    'SolidWorks 2020',
    '' );
FILE_SCHEMA (( 'AUTOMOTIVE_DESIGN' ));
ENDSEC;

DATA;
#1 =( NAMED_UNIT ( * ) PLANE_ANGLE_UNIT ( ) SI_UNIT ( $, .RADIAN. ) );
#2 = CIRCLE ( 'NONE', #217, 0.1966536494999999996 ) ;
#3 = CARTESIAN_POINT ( 'NONE',  ( 0.1966536494999999996, 2.408312624008205170E-17, 0.0000000000000000000 ) ) ;
#4 = EDGE_CURVE ( 'NONE', #226, #58, #68, .T. ) ;
#5 = CARTESIAN_POINT ( 'NONE',  ( 0.1818505000000002481, 2.318874837419510283E-17, 2.834646000000000665 ) ) ;
#6 = CIRCLE ( 'NONE', #104, 0.1968504999999999838 ) ;
#7 = LINE ( 'NONE', #284, #155 ) ;
#8 = FACE_OUTER_BOUND ( 'NONE', #243, .T. ) ;
#9 = VERTEX_POINT ( 'NONE', #121 ) ;
#10 = DIRECTION ( 'NONE',  ( 0.0000000000000000000, 0.0000000000000000000, 1.000000000000000000 ) ) ;
#11 = ORIENTED_EDGE ( 'NONE', *, *, #287, .T. ) ;
#12 = CARTESIAN_POINT ( 'NONE',  ( 0.0000000000000000000, 0.0000000000000000000, 0.0000000000000000000 ) ) ;
#13 = DIRECTION ( 'NONE',  ( 1.000000000000000000, 0.0000000000000000000, 0.0000000000000000000 ) ) ;
#14 = PLANE ( 'NONE',  #40 ) ;
#15 = EDGE_CURVE ( 'NONE', #35, #62, #286, .T. ) ;
#16 = PRESENTATION_STYLE_ASSIGNMENT (( #134 ) ) ;
#17 = ORIENTED_EDGE ( 'NONE', *, *, #181, .T. ) ;
#18 = VECTOR ( 'NONE', #163, 39.37007874015748143 ) ;
#19 = CIRCLE ( 'NONE', #108, 0.1968504999999999838 ) ;
#20 = DIRECTION ( 'NONE',  ( 1.000000000000000000, 0.0000000000000000000, 0.0000000000000000000 ) ) ;
#21 =( GEOMETRIC_REPRESENTATION_CONTEXT ( 3 ) GLOBAL_UNCERTAINTY_ASSIGNED_CONTEXT ( ( #223 ) ) GLOBAL_UNIT_ASSIGNED_CONTEXT ( ( #53, #1, #96 ) ) REPRESENTATION_CONTEXT ( 'NONE', 'WORKASPACE' ) );
#22 = ADVANCED_FACE ( 'NONE', ( #281 ), #73, .T. ) ;
#23 = EDGE_CURVE ( 'NONE', #226, #88, #7, .T. ) ;
#24 = PRODUCT_DEFINITION_CONTEXT ( 'detailed design', #255, 'design' ) ;
#25 = PLANE ( 'NONE',  #258 ) ;
#26 = CONICAL_SURFACE ( 'NONE', #186, 0.1818505000000002481, 0.7853981633974312926 ) ;
#27 = FACE_OUTER_BOUND ( 'NONE', #76, .T. ) ;
#28 = DIMENSIONAL_EXPONENTS ( 1.000000000000000000, 0.0000000000000000000, 0.0000000000000000000, 0.0000000000000000000, 0.0000000000000000000, 0.0000000000000000000, 0.0000000000000000000 ) ;
#29 = DIRECTION ( 'NONE',  ( 1.000000000000000000, 0.0000000000000000000, 0.0000000000000000000 ) ) ;
#30 = VERTEX_POINT ( 'NONE', #5 ) ;
#31 = CARTESIAN_POINT ( 'NONE',  ( 0.0000000000000000000, 0.0000000000000000000, 2.834646000000000665 ) ) ;
#32 = DIRECTION ( 'NONE',  ( -0.1736481776669312194, 2.126576849575783625E-17, 0.9848077530122080203 ) ) ;
#33 = DIRECTION ( 'NONE',  ( -1.000000000000000000, 0.0000000000000000000, 0.0000000000000000000 ) ) ;
#34 = EDGE_CURVE ( 'NONE', #58, #62, #6, .T. ) ;
#35 = VERTEX_POINT ( 'NONE', #95 ) ;
#36 = CYLINDRICAL_SURFACE ( 'NONE', #50, 0.1968504999999999838 ) ;
#37 = LENGTH_MEASURE_WITH_UNIT ( LENGTH_MEASURE( 0.02539999999999999897 ), #279 );
#38 = CIRCLE ( 'NONE', #191, 0.1818505000000002481 ) ;
#39 = DIRECTION ( 'NONE',  ( -1.224646799147353207E-16, -0.0000000000000000000, -1.000000000000000000 ) ) ;
#40 = AXIS2_PLACEMENT_3D ( 'NONE', #209, #84, #173 ) ;
#41 = APPLICATION_PROTOCOL_DEFINITION ( 'draft international standard', 'automotive_design', 1998, #257 ) ;
#42 = CARTESIAN_POINT ( 'NONE',  ( 0.0000000000000000000, 0.0000000000000000000, 0.0000000000000000000 ) ) ;
#43 = CIRCLE ( 'NONE', #79, 0.1966536494999999996 ) ;
#44 = ADVANCED_FACE ( 'NONE', ( #27 ), #236, .T. ) ;
#45 = PRESENTATION_LAYER_ASSIGNMENT (  '', '', ( #160 ) ) ;
#46 = VECTOR ( 'NONE', #143, 39.37007874015748143 ) ;
#47 = CIRCLE ( 'NONE', #179, 0.1968504999999999838 ) ;
#48 = DIRECTION ( 'NONE',  ( 1.000000000000000000, 0.0000000000000000000, 0.0000000000000000000 ) ) ;
#49 = ORIENTED_EDGE ( 'NONE', *, *, #180, .T. ) ;
#50 = AXIS2_PLACEMENT_3D ( 'NONE', #269, #175, #33 ) ;
#51 = DIRECTION ( 'NONE',  ( -0.0000000000000000000, -0.0000000000000000000, -1.000000000000000000 ) ) ;
#52 = DIMENSIONAL_EXPONENTS ( 1.000000000000000000, 0.0000000000000000000, 0.0000000000000000000, 0.0000000000000000000, 0.0000000000000000000, 0.0000000000000000000, 0.0000000000000000000 ) ;
#53 =( CONVERSION_BASED_UNIT ( 'INCH', #124 ) LENGTH_UNIT ( ) NAMED_UNIT ( #28 ) );
#54 = EDGE_CURVE ( 'NONE', #9, #58, #164, .T. ) ;
#55 = SURFACE_STYLE_USAGE ( .BOTH. , #214 ) ;
#56 = CARTESIAN_POINT ( 'NONE',  ( 0.0000000000000000000, 0.0000000000000000000, 2.819646000000000097 ) ) ;
#57 = DIRECTION ( 'NONE',  ( -1.224646799147353207E-16, -0.0000000000000000000, -1.000000000000000000 ) ) ;
#58 = VERTEX_POINT ( 'NONE', #190 ) ;
#59 = CARTESIAN_POINT ( 'NONE',  ( -0.1968504999999999838, 0.0000000000000000000, 2.819646000000000097 ) ) ;
#60 = ADVANCED_FACE ( 'NONE', ( #263 ), #26, .T. ) ;
#61 = LENGTH_MEASURE_WITH_UNIT ( LENGTH_MEASURE( 0.02539999999999999897 ), #296 );
#62 = VERTEX_POINT ( 'NONE', #145 ) ;
#63 = CARTESIAN_POINT ( 'NONE',  ( -0.1818505000000002481, 0.0000000000000000000, 2.834646000000000665 ) ) ;
#64 = CONICAL_SURFACE ( 'NONE', #208, 0.1818505000000002481, 0.7853981633974312926 ) ;
#65 = ORIENTED_EDGE ( 'NONE', *, *, #110, .T. ) ;
#66 = ORIENTED_EDGE ( 'NONE', *, *, #92, .T. ) ;
#67 = SURFACE_STYLE_FILL_AREA ( #182 ) ;
#68 = LINE ( 'NONE', #112, #18 ) ;
#69 = PRODUCT_RELATED_PRODUCT_CATEGORY ( 'part', '', ( #176 ) ) ;
#70 = MANIFOLD_SOLID_BREP ( 'Cut-Revolve1', #233 ) ;
#71 = DIRECTION ( 'NONE',  ( -1.224646799147353207E-16, -0.0000000000000000000, -1.000000000000000000 ) ) ;
#72 = ADVANCED_FACE ( 'NONE', ( #215 ), #25, .F. ) ;
#73 = CYLINDRICAL_SURFACE ( 'NONE', #213, 0.1968504999999999838 ) ;
#74 = SURFACE_STYLE_FILL_AREA ( #192 ) ;
#75 = CARTESIAN_POINT ( 'NONE',  ( 0.1968504999999999838, 2.410723347355560646E-17, 2.834646000000000665 ) ) ;
#76 = EDGE_LOOP ( 'NONE', ( #117, #136, #299, #207 ) ) ;
#77 = CARTESIAN_POINT ( 'NONE',  ( -0.1818505000000002481, 0.0000000000000000000, 2.834646000000000665 ) ) ;
#78 = EDGE_LOOP ( 'NONE', ( #268, #271, #11, #248 ) ) ;
#79 = AXIS2_PLACEMENT_3D ( 'NONE', #193, #295, #86 ) ;
#80 = VECTOR ( 'NONE', #275, 39.37007874015748143 ) ;
#81 = LINE ( 'NONE', #267, #111 ) ;
#82 = ORIENTED_EDGE ( 'NONE', *, *, #34, .F. ) ;
#83 = DIRECTION ( 'NONE',  ( -1.000000000000000000, 0.0000000000000000000, 0.0000000000000000000 ) ) ;
#84 = DIRECTION ( 'NONE',  ( 0.0000000000000000000, 0.0000000000000000000, 1.000000000000000000 ) ) ;
#85 = ORIENTED_EDGE ( 'NONE', *, *, #251, .T. ) ;
#86 = DIRECTION ( 'NONE',  ( -1.000000000000000000, 0.0000000000000000000, 0.0000000000000000000 ) ) ;
#87 = PRODUCT_DEFINITION_SHAPE ( 'NONE', 'NONE',  #128 ) ;
#88 = VERTEX_POINT ( 'NONE', #3 ) ;
#89 = PRESENTATION_LAYER_ASSIGNMENT (  '', '', ( #206 ) ) ;
#90 = PRODUCT_DEFINITION_FORMATION_WITH_SPECIFIED_SOURCE ( 'ANY', '', #176, .NOT_KNOWN. ) ;
#91 = DIRECTION ( 'NONE',  ( 0.0000000000000000000, 0.0000000000000000000, 1.000000000000000000 ) ) ;
#92 = EDGE_CURVE ( 'NONE', #204, #30, #38, .T. ) ;
#93 = COLOUR_RGB ( '',0.7921568627450980005, 0.8196078431372548767, 0.9333333333333333481 ) ;
#94 = ADVANCED_FACE ( 'NONE', ( #218 ), #99, .T. ) ;
#95 = CARTESIAN_POINT ( 'NONE',  ( -0.1966536494999999163, 2.409517985681882600E-17, 0.8661419999999999675 ) ) ;
#96 =( NAMED_UNIT ( * ) SI_UNIT ( $, .STERADIAN. ) SOLID_ANGLE_UNIT ( ) );
#97 = CARTESIAN_POINT ( 'NONE',  ( 1.060718027907086782E-16, 0.0000000000000000000, 0.8661419999999999675 ) ) ;
#98 =( GEOMETRIC_REPRESENTATION_CONTEXT ( 3 ) GLOBAL_UNCERTAINTY_ASSIGNED_CONTEXT ( ( #171 ) ) GLOBAL_UNIT_ASSIGNED_CONTEXT ( ( #159, #249, #177 ) ) REPRESENTATION_CONTEXT ( 'NONE', 'WORKASPACE' ) );
#99 = CYLINDRICAL_SURFACE ( 'NONE', #140, 0.1966536494999999996 ) ;
#100 = LINE ( 'NONE', #77, #122 ) ;
#101 = ORIENTED_EDGE ( 'NONE', *, *, #199, .T. ) ;
#102 = DIRECTION ( 'NONE',  ( -0.0000000000000000000, -0.0000000000000000000, -1.000000000000000000 ) ) ;
#103 = UNCERTAINTY_MEASURE_WITH_UNIT (LENGTH_MEASURE( 1.000000000000000082E-05 ), #231, 'distance_accuracy_value', 'NONE');
#104 = AXIS2_PLACEMENT_3D ( 'NONE', #254, #166, #48 ) ;
#105 = DIRECTION ( 'NONE',  ( -1.224646799147353207E-16, -0.0000000000000000000, -1.000000000000000000 ) ) ;
#106 = FACE_OUTER_BOUND ( 'NONE', #194, .T. ) ;
#107 = EDGE_LOOP ( 'NONE', ( #66, #101 ) ) ;
#108 = AXIS2_PLACEMENT_3D ( 'NONE', #205, #139, #20 ) ;
#109 = FACE_OUTER_BOUND ( 'NONE', #107, .T. ) ;
#110 = EDGE_CURVE ( 'NONE', #245, #88, #2, .T. ) ;
#111 = VECTOR ( 'NONE', #133, 39.37007874015748854 ) ;
#112 = CARTESIAN_POINT ( 'NONE',  ( 0.1966536495000001106, 0.0000000000000000000, 0.8661419999999999675 ) ) ;
#113 = EDGE_CURVE ( 'NONE', #226, #35, #43, .T. ) ;
#114 = CARTESIAN_POINT ( 'NONE',  ( 0.0000000000000000000, 0.0000000000000000000, 2.834646000000000665 ) ) ;
#115 = AXIS2_PLACEMENT_3D ( 'NONE', #56, #265, #148 ) ;
#116 = PRODUCT_CONTEXT ( 'NONE', #257, 'mechanical' ) ;
#117 = ORIENTED_EDGE ( 'NONE', *, *, #15, .F. ) ;
#118 = CARTESIAN_POINT ( 'NONE',  ( 0.0000000000000000000, 0.0000000000000000000, 0.0000000000000000000 ) ) ;
#119 = DIMENSIONAL_EXPONENTS ( 1.000000000000000000, 0.0000000000000000000, 0.0000000000000000000, 0.0000000000000000000, 0.0000000000000000000, 0.0000000000000000000, 0.0000000000000000000 ) ;
#120 = EDGE_CURVE ( 'NONE', #35, #226, #253, .T. ) ;
#121 = CARTESIAN_POINT ( 'NONE',  ( 0.1968504999999999838, 2.410723347355560646E-17, 2.819646000000000097 ) ) ;
#122 = VECTOR ( 'NONE', #168, 39.37007874015748854 ) ;
#123 = CONICAL_SURFACE ( 'NONE', #276, 0.1966536494999999996, 0.1745329251994339192 ) ;
#124 = LENGTH_MEASURE_WITH_UNIT ( LENGTH_MEASURE( 0.02539999999999999897 ), #146 );
#125 = ORIENTED_EDGE ( 'NONE', *, *, #15, .T. ) ;
#126 = FACE_OUTER_BOUND ( 'NONE', #246, .T. ) ;
#127 = EDGE_LOOP ( 'NONE', ( #17, #221, #144, #201 ) ) ;
#128 = PRODUCT_DEFINITION ( 'UNKNOWN', '', #90, #24 ) ;
#129 = ORIENTED_EDGE ( 'NONE', *, *, #137, .T. ) ;
#130 = DIRECTION ( 'NONE',  ( -1.224646799147353207E-16, -0.0000000000000000000, -1.000000000000000000 ) ) ;
#131 = FILL_AREA_STYLE_COLOUR ( '', #93 ) ;
#132 = ORIENTED_EDGE ( 'NONE', *, *, #185, .T. ) ;
#133 = DIRECTION ( 'NONE',  ( 0.7071067811865354713, 8.659560562354783714E-17, -0.7071067811865594521 ) ) ;
#134 = SURFACE_STYLE_USAGE ( .BOTH. , #203 ) ;
#135 = FACE_OUTER_BOUND ( 'NONE', #78, .T. ) ;
#136 = ORIENTED_EDGE ( 'NONE', *, *, #113, .F. ) ;
#137 = EDGE_CURVE ( 'NONE', #204, #154, #100, .T. ) ;
#138 = LINE ( 'NONE', #270, #80 ) ;
#139 = DIRECTION ( 'NONE',  ( -1.224646799147353207E-16, -0.0000000000000000000, -1.000000000000000000 ) ) ;
#140 = AXIS2_PLACEMENT_3D ( 'NONE', #12, #105, #200 ) ;
#141 = DIRECTION ( 'NONE',  ( 0.0000000000000000000, 0.0000000000000000000, 1.000000000000000000 ) ) ;
#142 = AXIS2_PLACEMENT_3D ( 'NONE', #195, #39, #224 ) ;
#143 = DIRECTION ( 'NONE',  ( -0.0000000000000000000, -0.0000000000000000000, -1.000000000000000000 ) ) ;
#144 = ORIENTED_EDGE ( 'NONE', *, *, #251, .F. ) ;
#145 = CARTESIAN_POINT ( 'NONE',  ( -0.1968504999999999006, 0.0000000000000000000, 0.8672583946618326323 ) ) ;
#146 =( LENGTH_UNIT ( ) NAMED_UNIT ( * ) SI_UNIT ( $, .METRE. ) );
#147 = ORIENTED_EDGE ( 'NONE', *, *, #23, .T. ) ;
#148 = DIRECTION ( 'NONE',  ( 1.000000000000000000, 0.0000000000000000000, 0.0000000000000000000 ) ) ;
#149 = ORIENTED_EDGE ( 'NONE', *, *, #211, .F. ) ;
#150 = CARTESIAN_POINT ( 'NONE',  ( 0.0000000000000000000, 0.0000000000000000000, 2.819646000000000097 ) ) ;
#151 =( NAMED_UNIT ( * ) PLANE_ANGLE_UNIT ( ) SI_UNIT ( $, .RADIAN. ) );
#152 = ORIENTED_EDGE ( 'NONE', *, *, #287, .F. ) ;
#153 = DIRECTION ( 'NONE',  ( 1.000000000000000000, 0.0000000000000000000, 0.0000000000000000000 ) ) ;
#154 = VERTEX_POINT ( 'NONE', #59 ) ;
#155 = VECTOR ( 'NONE', #71, 39.37007874015748143 ) ;
#156 = DIRECTION ( 'NONE',  ( 0.0000000000000000000, 0.0000000000000000000, -1.000000000000000000 ) ) ;
#157 = ORIENTED_EDGE ( 'NONE', *, *, #54, .F. ) ;
#158 = CARTESIAN_POINT ( 'NONE',  ( -0.1966536494999999996, 0.0000000000000000000, 4.816625248016410340E-17 ) ) ;
#159 =( CONVERSION_BASED_UNIT ( 'INCH', #61 ) LENGTH_UNIT ( ) NAMED_UNIT ( #52 ) );
#160 = STYLED_ITEM ( 'NONE', ( #16 ), #184 ) ;
#161 = APPLICATION_PROTOCOL_DEFINITION ( 'draft international standard', 'automotive_design', 1998, #255 ) ;
#162 = PRESENTATION_STYLE_ASSIGNMENT (( #55 ) ) ;
#163 = DIRECTION ( 'NONE',  ( 0.1736481776669314137, 0.0000000000000000000, 0.9848077530122077983 ) ) ;
#164 = LINE ( 'NONE', #75, #46 ) ;
#165 = EDGE_CURVE ( 'NONE', #9, #154, #250, .T. ) ;
#166 = DIRECTION ( 'NONE',  ( -1.224646799147353207E-16, -0.0000000000000000000, -1.000000000000000000 ) ) ;
#167 = DIRECTION ( 'NONE',  ( 1.224646799147353207E-16, 0.0000000000000000000, 1.000000000000000000 ) ) ;
#168 = DIRECTION ( 'NONE',  ( -0.7071067811865354713, 0.0000000000000000000, -0.7071067811865594521 ) ) ;
#169 = ORIENTED_EDGE ( 'NONE', *, *, #211, .T. ) ;
#170 = CARTESIAN_POINT ( 'NONE',  ( 1.060718027907086782E-16, 0.0000000000000000000, 0.8661419999999999675 ) ) ;
#171 = UNCERTAINTY_MEASURE_WITH_UNIT (LENGTH_MEASURE( 1.000000000000000082E-05 ), #159, 'distance_accuracy_value', 'NONE');
#172 = LINE ( 'NONE', #292, #183 ) ;
#173 = DIRECTION ( 'NONE',  ( 1.000000000000000000, 0.0000000000000000000, -0.0000000000000000000 ) ) ;
#174 = EDGE_LOOP ( 'NONE', ( #149, #247, #129, #297 ) ) ;
#175 = DIRECTION ( 'NONE',  ( -0.0000000000000000000, -0.0000000000000000000, -1.000000000000000000 ) ) ;
#176 = PRODUCT ( 'Micro_EMHM-100-6X', 'Micro_EMHM-100-6X', '', ( #116 ) ) ;
#177 =( NAMED_UNIT ( * ) SI_UNIT ( $, .STERADIAN. ) SOLID_ANGLE_UNIT ( ) );
#178 = ORIENTED_EDGE ( 'NONE', *, *, #165, .T. ) ;
#179 = AXIS2_PLACEMENT_3D ( 'NONE', #150, #238, #13 ) ;
#180 = EDGE_CURVE ( 'NONE', #88, #245, #280, .T. ) ;
#181 = EDGE_CURVE ( 'NONE', #154, #9, #47, .T. ) ;
#182 = FILL_AREA_STYLE ('',( #131 ) ) ;
#183 = VECTOR ( 'NONE', #102, 39.37007874015748143 ) ;
#184 = ADVANCED_BREP_SHAPE_REPRESENTATION ( 'Micro_EMHM-100-6X', ( #70, #230 ), #259 ) ;
#185 = EDGE_CURVE ( 'NONE', #154, #62, #172, .T. ) ;
#186 = AXIS2_PLACEMENT_3D ( 'NONE', #114, #260, #283 ) ;
#187 = CIRCLE ( 'NONE', #274, 0.1818505000000002481 ) ;
#188 = ADVANCED_FACE ( 'NONE', ( #8 ), #36, .T. ) ;
#189 = ADVANCED_FACE ( 'NONE', ( #126 ), #123, .T. ) ;
#190 = CARTESIAN_POINT ( 'NONE',  ( 0.1968505000000000948, 2.410723347355561570E-17, 0.8672583946618326323 ) ) ;
#191 = AXIS2_PLACEMENT_3D ( 'NONE', #31, #234, #216 ) ;
#192 = FILL_AREA_STYLE ('',( #262 ) ) ;
#193 = CARTESIAN_POINT ( 'NONE',  ( 1.060718027907086782E-16, 0.0000000000000000000, 0.8661419999999999675 ) ) ;
#194 = EDGE_LOOP ( 'NONE', ( #266, #169, #261, #225 ) ) ;
#195 = CARTESIAN_POINT ( 'NONE',  ( 2.949332346337811403E-33, 0.0000000000000000000, 2.408312624008205170E-17 ) ) ;
#196 = ORIENTED_EDGE ( 'NONE', *, *, #4, .F. ) ;
#197 = MECHANICAL_DESIGN_GEOMETRIC_PRESENTATION_REPRESENTATION (  '', ( #160 ), #98 ) ;
#198 = EDGE_LOOP ( 'NONE', ( #65, #49 ) ) ;
#199 = EDGE_CURVE ( 'NONE', #30, #204, #187, .T. ) ;
#200 = DIRECTION ( 'NONE',  ( -1.000000000000000000, 0.0000000000000000000, 1.224646799147353207E-16 ) ) ;
#201 = ORIENTED_EDGE ( 'NONE', *, *, #185, .F. ) ;
#202 = CARTESIAN_POINT ( 'NONE',  ( 0.0000000000000000000, 0.0000000000000000000, 2.834646000000000665 ) ) ;
#203 = SURFACE_SIDE_STYLE ('',( #67 ) ) ;
#204 = VERTEX_POINT ( 'NONE', #63 ) ;
#205 = CARTESIAN_POINT ( 'NONE',  ( 1.062085217056285306E-16, 0.0000000000000000000, 0.8672583946618326323 ) ) ;
#206 = STYLED_ITEM ( 'NONE', ( #162 ), #70 ) ;
#207 = ORIENTED_EDGE ( 'NONE', *, *, #34, .T. ) ;
#208 = AXIS2_PLACEMENT_3D ( 'NONE', #202, #156, #220 ) ;
#209 = CARTESIAN_POINT ( 'NONE',  ( 0.0000000000000000000, 0.0000000000000000000, 2.834646000000000665 ) ) ;
#210 = CYLINDRICAL_SURFACE ( 'NONE', #219, 0.1966536494999999996 ) ;
#211 = EDGE_CURVE ( 'NONE', #30, #9, #81, .T. ) ;
#212 = SHAPE_DEFINITION_REPRESENTATION ( #87, #184 ) ;
#213 = AXIS2_PLACEMENT_3D ( 'NONE', #256, #51, #288 ) ;
#214 = SURFACE_SIDE_STYLE ('',( #74 ) ) ;
#215 = FACE_OUTER_BOUND ( 'NONE', #198, .T. ) ;
#216 = DIRECTION ( 'NONE',  ( 1.000000000000000000, 0.0000000000000000000, 0.0000000000000000000 ) ) ;
#217 = AXIS2_PLACEMENT_3D ( 'NONE', #289, #130, #293 ) ;
#218 = FACE_OUTER_BOUND ( 'NONE', #240, .T. ) ;
#219 = AXIS2_PLACEMENT_3D ( 'NONE', #42, #228, #294 ) ;
#220 = DIRECTION ( 'NONE',  ( -1.000000000000000000, 0.0000000000000000000, 0.0000000000000000000 ) ) ;
#221 = ORIENTED_EDGE ( 'NONE', *, *, #54, .T. ) ;
#222 = CARTESIAN_POINT ( 'NONE',  ( 0.0000000000000000000, 0.0000000000000000000, 2.834646000000000665 ) ) ;
#223 = UNCERTAINTY_MEASURE_WITH_UNIT (LENGTH_MEASURE( 1.000000000000000082E-05 ), #53, 'distance_accuracy_value', 'NONE');
#224 = DIRECTION ( 'NONE',  ( -1.000000000000000000, 0.0000000000000000000, 1.224646799147353207E-16 ) ) ;
#225 = ORIENTED_EDGE ( 'NONE', *, *, #137, .F. ) ;
#226 = VERTEX_POINT ( 'NONE', #227 ) ;
#227 = CARTESIAN_POINT ( 'NONE',  ( 0.1966536495000001106, 0.0000000000000000000, 0.8661419999999999675 ) ) ;
#228 = DIRECTION ( 'NONE',  ( -1.224646799147353207E-16, -0.0000000000000000000, -1.000000000000000000 ) ) ;
#229 = MECHANICAL_DESIGN_GEOMETRIC_PRESENTATION_REPRESENTATION (  '', ( #206 ), #21 ) ;
#230 = AXIS2_PLACEMENT_3D ( 'NONE', #298, #91, #232 ) ;
#231 =( CONVERSION_BASED_UNIT ( 'INCH', #37 ) LENGTH_UNIT ( ) NAMED_UNIT ( #119 ) );
#232 = DIRECTION ( 'NONE',  ( 1.000000000000000000, 0.0000000000000000000, 0.0000000000000000000 ) ) ;
#233 = CLOSED_SHELL ( 'NONE', ( #94, #189, #239, #22, #188, #282, #60, #44, #252, #72 ) ) ;
#234 = DIRECTION ( 'NONE',  ( 0.0000000000000000000, 0.0000000000000000000, 1.000000000000000000 ) ) ;
#235 = DIRECTION ( 'NONE',  ( 1.000000000000000000, 0.0000000000000000000, -0.0000000000000000000 ) ) ;
#236 = CONICAL_SURFACE ( 'NONE', #264, 0.1966536494999999996, 0.1745329251994339192 ) ;
#237 = CARTESIAN_POINT ( 'NONE',  ( -0.1966536494999999163, 2.408312624008205170E-17, 0.8661419999999999675 ) ) ;
#238 = DIRECTION ( 'NONE',  ( 0.0000000000000000000, 0.0000000000000000000, -1.000000000000000000 ) ) ;
#239 = ADVANCED_FACE ( 'NONE', ( #106 ), #64, .T. ) ;
#240 = EDGE_LOOP ( 'NONE', ( #290, #147, #242, #152 ) ) ;
#241 = DIRECTION ( 'NONE',  ( 1.224646799147353207E-16, 0.0000000000000000000, 1.000000000000000000 ) ) ;
#242 = ORIENTED_EDGE ( 'NONE', *, *, #110, .F. ) ;
#243 = EDGE_LOOP ( 'NONE', ( #157, #178, #132, #82 ) ) ;
#244 = DIRECTION ( 'NONE',  ( 1.000000000000000000, 0.0000000000000000000, 0.0000000000000000000 ) ) ;
#245 = VERTEX_POINT ( 'NONE', #158 ) ;
#246 = EDGE_LOOP ( 'NONE', ( #278, #125, #85, #196 ) ) ;
#247 = ORIENTED_EDGE ( 'NONE', *, *, #92, .F. ) ;
#248 = ORIENTED_EDGE ( 'NONE', *, *, #180, .F. ) ;
#249 =( NAMED_UNIT ( * ) PLANE_ANGLE_UNIT ( ) SI_UNIT ( $, .RADIAN. ) );
#250 = CIRCLE ( 'NONE', #115, 0.1968504999999999838 ) ;
#251 = EDGE_CURVE ( 'NONE', #62, #58, #19, .T. ) ;
#252 = ADVANCED_FACE ( 'NONE', ( #135 ), #210, .T. ) ;
#253 = CIRCLE ( 'NONE', #291, 0.1966536494999999996 ) ;
#254 = CARTESIAN_POINT ( 'NONE',  ( 1.062085217056285306E-16, 0.0000000000000000000, 0.8672583946618326323 ) ) ;
#255 = APPLICATION_CONTEXT ( 'automotive_design' ) ;
#256 = CARTESIAN_POINT ( 'NONE',  ( 0.0000000000000000000, 0.0000000000000000000, 2.834646000000000665 ) ) ;
#257 = APPLICATION_CONTEXT ( 'automotive_design' ) ;
#258 = AXIS2_PLACEMENT_3D ( 'NONE', #118, #141, #235 ) ;
#259 =( GEOMETRIC_REPRESENTATION_CONTEXT ( 3 ) GLOBAL_UNCERTAINTY_ASSIGNED_CONTEXT ( ( #103 ) ) GLOBAL_UNIT_ASSIGNED_CONTEXT ( ( #231, #151, #277 ) ) REPRESENTATION_CONTEXT ( 'NONE', 'WORKASPACE' ) );
#260 = DIRECTION ( 'NONE',  ( 0.0000000000000000000, 0.0000000000000000000, -1.000000000000000000 ) ) ;
#261 = ORIENTED_EDGE ( 'NONE', *, *, #181, .F. ) ;
#262 = FILL_AREA_STYLE_COLOUR ( '', #273 ) ;
#263 = FACE_OUTER_BOUND ( 'NONE', #174, .T. ) ;
#264 = AXIS2_PLACEMENT_3D ( 'NONE', #97, #167, #29 ) ;
#265 = DIRECTION ( 'NONE',  ( 0.0000000000000000000, 0.0000000000000000000, -1.000000000000000000 ) ) ;
#266 = ORIENTED_EDGE ( 'NONE', *, *, #199, .F. ) ;
#267 = CARTESIAN_POINT ( 'NONE',  ( 0.1818505000000002481, 2.227026327483460228E-17, 2.834646000000000665 ) ) ;
#268 = ORIENTED_EDGE ( 'NONE', *, *, #23, .F. ) ;
#269 = CARTESIAN_POINT ( 'NONE',  ( 0.0000000000000000000, 0.0000000000000000000, 2.834646000000000665 ) ) ;
#270 = CARTESIAN_POINT ( 'NONE',  ( -0.1966536494999999996, 0.0000000000000000000, 2.408312624008205170E-17 ) ) ;
#271 = ORIENTED_EDGE ( 'NONE', *, *, #113, .T. ) ;
#272 = CARTESIAN_POINT ( 'NONE',  ( 1.060718027907086782E-16, 0.0000000000000000000, 0.8661419999999999675 ) ) ;
#273 = COLOUR_RGB ( '',0.7921568627450980005, 0.8196078431372548767, 0.9333333333333333481 ) ;
#274 = AXIS2_PLACEMENT_3D ( 'NONE', #222, #10, #244 ) ;
#275 = DIRECTION ( 'NONE',  ( -1.224646799147353207E-16, -0.0000000000000000000, -1.000000000000000000 ) ) ;
#276 = AXIS2_PLACEMENT_3D ( 'NONE', #170, #241, #153 ) ;
#277 =( NAMED_UNIT ( * ) SI_UNIT ( $, .STERADIAN. ) SOLID_ANGLE_UNIT ( ) );
#278 = ORIENTED_EDGE ( 'NONE', *, *, #120, .F. ) ;
#279 =( LENGTH_UNIT ( ) NAMED_UNIT ( * ) SI_UNIT ( $, .METRE. ) );
#280 = CIRCLE ( 'NONE', #142, 0.1966536494999999996 ) ;
#281 = FACE_OUTER_BOUND ( 'NONE', #127, .T. ) ;
#282 = ADVANCED_FACE ( 'NONE', ( #109 ), #14, .T. ) ;
#283 = DIRECTION ( 'NONE',  ( -1.000000000000000000, 0.0000000000000000000, 0.0000000000000000000 ) ) ;
#284 = CARTESIAN_POINT ( 'NONE',  ( 0.1966536494999999996, 2.408312624008205170E-17, -2.408312624008205170E-17 ) ) ;
#285 = VECTOR ( 'NONE', #32, 39.37007874015747433 ) ;
#286 = LINE ( 'NONE', #237, #285 ) ;
#287 = EDGE_CURVE ( 'NONE', #35, #245, #138, .T. ) ;
#288 = DIRECTION ( 'NONE',  ( -1.000000000000000000, 0.0000000000000000000, 0.0000000000000000000 ) ) ;
#289 = CARTESIAN_POINT ( 'NONE',  ( 2.949332346337811403E-33, 0.0000000000000000000, 2.408312624008205170E-17 ) ) ;
#290 = ORIENTED_EDGE ( 'NONE', *, *, #120, .T. ) ;
#291 = AXIS2_PLACEMENT_3D ( 'NONE', #272, #57, #83 ) ;
#292 = CARTESIAN_POINT ( 'NONE',  ( -0.1968504999999999838, 0.0000000000000000000, 2.834646000000000665 ) ) ;
#293 = DIRECTION ( 'NONE',  ( -1.000000000000000000, 0.0000000000000000000, 1.224646799147353207E-16 ) ) ;
#294 = DIRECTION ( 'NONE',  ( -1.000000000000000000, 0.0000000000000000000, 1.224646799147353207E-16 ) ) ;
#295 = DIRECTION ( 'NONE',  ( -1.224646799147353207E-16, -0.0000000000000000000, -1.000000000000000000 ) ) ;
#296 =( LENGTH_UNIT ( ) NAMED_UNIT ( * ) SI_UNIT ( $, .METRE. ) );
#297 = ORIENTED_EDGE ( 'NONE', *, *, #165, .F. ) ;
#298 = CARTESIAN_POINT ( 'NONE',  ( 0.0000000000000000000, 0.0000000000000000000, 0.0000000000000000000 ) ) ;
#299 = ORIENTED_EDGE ( 'NONE', *, *, #4, .T. ) ;
ENDSEC;
END-ISO-10303-21;
