ISO-10303-21;
HEADER;
FILE_DESCRIPTION (( 'STEP AP214' ),
    '1' );
FILE_NAME ('59279.STEP',
    '2023-06-22T22:53:36',
    ( '' ),
    ( '' ),
    'SwSTEP 2.0',
    'SolidWorks 2023',
    '' );
FILE_SCHEMA (( 'AUTOMOTIVE_DESIGN' ));
ENDSEC;

DATA;
#1 = LENGTH_MEASURE_WITH_UNIT ( LENGTH_MEASURE( 0.02539999999999999897 ), #281 );
#2 = CARTESIAN_POINT ( 'NONE',  ( 0.000000000000000000, 3.250000000000000000, 0.000000000000000000 ) ) ;
#3 = AXIS2_PLACEMENT_3D ( 'NONE', #154, #242, #62 ) ;
#4 =( GEOMETRIC_REPRESENTATION_CONTEXT ( 3 ) GLOBAL_UNCERTAINTY_ASSIGNED_CONTEXT ( ( #280 ) ) GLOBAL_UNIT_ASSIGNED_CONTEXT ( ( #246, #93, #297 ) ) REPRESENTATION_CONTEXT ( 'NONE', 'WORKASPACE' ) );
#5 = SURFACE_SIDE_STYLE ('',( #30 ) ) ;
#6 = PRODUCT ( '59279', '59279', '', ( #178 ) ) ;
#7 = ORIENTED_EDGE ( 'NONE', *, *, #251, .T. ) ;
#8 = ADVANCED_FACE ( 'NONE', ( #123 ), #81, .T. ) ;
#9 = FACE_OUTER_BOUND ( 'NONE', #221, .T. ) ;
#10 = EDGE_LOOP ( 'NONE', ( #187, #78, #108, #34 ) ) ;
#11 = DIMENSIONAL_EXPONENTS ( 1.000000000000000000, 0.000000000000000000, 0.000000000000000000, 0.000000000000000000, 0.000000000000000000, 0.000000000000000000, 0.000000000000000000 ) ;
#12 = ORIENTED_EDGE ( 'NONE', *, *, #251, .F. ) ;
#13 = LINE ( 'NONE', #135, #189 ) ;
#14 = CARTESIAN_POINT ( 'NONE',  ( 0.000000000000000000, 0.000000000000000000, 0.000000000000000000 ) ) ;
#15 = APPLICATION_PROTOCOL_DEFINITION ( 'draft international standard', 'automotive_design', 1998, #60 ) ;
#16 = CARTESIAN_POINT ( 'NONE',  ( 0.000000000000000000, 3.250000000000000000, -0.5000000000000000000 ) ) ;
#17 = DIRECTION ( 'NONE',  ( -4.453261087808560759E-17, 1.000000000000000000, -0.000000000000000000 ) ) ;
#18 =( CONVERSION_BASED_UNIT ( 'INCH', #273 ) LENGTH_UNIT ( ) NAMED_UNIT ( #38 ) );
#19 = PRESENTATION_LAYER_ASSIGNMENT (  '', '', ( #149 ) ) ;
#20 = PLANE ( 'NONE',  #22 ) ;
#21 = EDGE_CURVE ( 'NONE', #58, #167, #211, .T. ) ;
#22 = AXIS2_PLACEMENT_3D ( 'NONE', #205, #300, #249 ) ;
#23 = COLOUR_RGB ( '',0.7921568627450980005, 0.8196078431372548767, 0.9333333333333333481 ) ;
#24 = DIRECTION ( 'NONE',  ( -0.000000000000000000, -1.000000000000000000, -0.000000000000000000 ) ) ;
#25 = EDGE_CURVE ( 'NONE', #129, #195, #47, .T. ) ;
#26 = DIRECTION ( 'NONE',  ( -1.000000000000000000, 0.000000000000000000, 0.000000000000000000 ) ) ;
#27 = SURFACE_SIDE_STYLE ('',( #100 ) ) ;
#28 = UNCERTAINTY_MEASURE_WITH_UNIT (LENGTH_MEASURE( 1.000000000000000082E-05 ), #216, 'distance_accuracy_value', 'NONE');
#29 = ORIENTED_EDGE ( 'NONE', *, *, #227, .F. ) ;
#30 = SURFACE_STYLE_FILL_AREA ( #259 ) ;
#31 = DIRECTION ( 'NONE',  ( -1.000000000000000000, 0.000000000000000000, 0.000000000000000000 ) ) ;
#32 = ORIENTED_EDGE ( 'NONE', *, *, #145, .F. ) ;
#33 = CARTESIAN_POINT ( 'NONE',  ( -0.5000000000000002220, 6.000000000000000888, 0.000000000000000000 ) ) ;
#34 = ORIENTED_EDGE ( 'NONE', *, *, #179, .F. ) ;
#35 =( NAMED_UNIT ( * ) PLANE_ANGLE_UNIT ( ) SI_UNIT ( $, .RADIAN. ) );
#36 = SURFACE_STYLE_USAGE ( .BOTH. , #59 ) ;
#37 = CARTESIAN_POINT ( 'NONE',  ( 6.123233995736766036E-17, 3.250000000000000000, 0.5000000000000000000 ) ) ;
#38 = DIMENSIONAL_EXPONENTS ( 1.000000000000000000, 0.000000000000000000, 0.000000000000000000, 0.000000000000000000, 0.000000000000000000, 0.000000000000000000, 0.000000000000000000 ) ;
#39 = CARTESIAN_POINT ( 'NONE',  ( 4.957883579047472087E-34, 3.250000000000000000, 0.000000000000000000 ) ) ;
#40 = AXIS2_PLACEMENT_3D ( 'NONE', #84, #169, #286 ) ;
#41 =( NAMED_UNIT ( * ) SI_UNIT ( $, .STERADIAN. ) SOLID_ANGLE_UNIT ( ) );
#42 = MECHANICAL_DESIGN_GEOMETRIC_PRESENTATION_REPRESENTATION (  '', ( #65 ), #245 ) ;
#43 = PRODUCT_RELATED_PRODUCT_CATEGORY ( 'part', '', ( #6 ) ) ;
#44 = STYLED_ITEM ( 'NONE', ( #131 ), #256 ) ;
#45 = SURFACE_STYLE_USAGE ( .BOTH. , #5 ) ;
#46 = AXIS2_PLACEMENT_3D ( 'NONE', #217, #224, #75 ) ;
#47 = CIRCLE ( 'NONE', #139, 0.5000000000000000000 ) ;
#48 = ORIENTED_EDGE ( 'NONE', *, *, #21, .F. ) ;
#49 = DIRECTION ( 'NONE',  ( -4.453261087808560759E-17, 1.000000000000000000, -0.000000000000000000 ) ) ;
#50 = SURFACE_STYLE_USAGE ( .BOTH. , #197 ) ;
#51 = DIRECTION ( 'NONE',  ( -0.000000000000000000, -1.000000000000000000, -0.000000000000000000 ) ) ;
#52 = CARTESIAN_POINT ( 'NONE',  ( 0.000000000000000000, 0.000000000000000000, -0.5000000000000000000 ) ) ;
#53 =( GEOMETRIC_REPRESENTATION_CONTEXT ( 3 ) GLOBAL_UNCERTAINTY_ASSIGNED_CONTEXT ( ( #101 ) ) GLOBAL_UNIT_ASSIGNED_CONTEXT ( ( #209, #162, #99 ) ) REPRESENTATION_CONTEXT ( 'NONE', 'WORKASPACE' ) );
#54 =( LENGTH_UNIT ( ) NAMED_UNIT ( * ) SI_UNIT ( $, .METRE. ) );
#55 = CARTESIAN_POINT ( 'NONE',  ( 0.4999999999999999445, 6.000000000000000888, 6.123233995736767268E-17 ) ) ;
#56 = FILL_AREA_STYLE_COLOUR ( '', #166 ) ;
#57 = SURFACE_STYLE_USAGE ( .BOTH. , #148 ) ;
#58 = VERTEX_POINT ( 'NONE', #33 ) ;
#59 = SURFACE_SIDE_STYLE ('',( #89 ) ) ;
#60 = APPLICATION_CONTEXT ( 'automotive_design' ) ;
#61 = DIRECTION ( 'NONE',  ( -0.000000000000000000, -1.000000000000000000, -0.000000000000000000 ) ) ;
#62 = DIRECTION ( 'NONE',  ( 0.000000000000000000, -0.000000000000000000, 1.000000000000000000 ) ) ;
#63 =( GEOMETRIC_REPRESENTATION_CONTEXT ( 3 ) GLOBAL_UNCERTAINTY_ASSIGNED_CONTEXT ( ( #152 ) ) GLOBAL_UNIT_ASSIGNED_CONTEXT ( ( #253, #86, #41 ) ) REPRESENTATION_CONTEXT ( 'NONE', 'WORKASPACE' ) );
#64 = FACE_OUTER_BOUND ( 'NONE', #71, .T. ) ;
#65 = STYLED_ITEM ( 'NONE', ( #307 ), #183 ) ;
#66 = CARTESIAN_POINT ( 'NONE',  ( 0.000000000000000000, 3.250000000000000000, 0.000000000000000000 ) ) ;
#67 = LENGTH_MEASURE_WITH_UNIT ( LENGTH_MEASURE( 0.02539999999999999897 ), #54 );
#68 = CIRCLE ( 'NONE', #305, 0.5000000000000000000 ) ;
#69 = DIRECTION ( 'NONE',  ( 0.000000000000000000, 0.000000000000000000, -1.000000000000000000 ) ) ;
#70 = EDGE_CURVE ( 'NONE', #195, #129, #68, .T. ) ;
#71 = EDGE_LOOP ( 'NONE', ( #289, #236 ) ) ;
#72 = ADVANCED_FACE ( 'NONE', ( #64 ), #20, .T. ) ;
#73 = VECTOR ( 'NONE', #250, 39.37007874015748143 ) ;
#74 = DIRECTION ( 'NONE',  ( 0.000000000000000000, 0.000000000000000000, -1.000000000000000000 ) ) ;
#75 = DIRECTION ( 'NONE',  ( -1.000000000000000000, 0.000000000000000000, 0.000000000000000000 ) ) ;
#76 = UNCERTAINTY_MEASURE_WITH_UNIT (LENGTH_MEASURE( 1.000000000000000082E-05 ), #270, 'distance_accuracy_value', 'NONE');
#77 = PLANE ( 'NONE',  #3 ) ;
#78 = ORIENTED_EDGE ( 'NONE', *, *, #227, .T. ) ;
#79 = DIRECTION ( 'NONE',  ( -4.453261087808560759E-17, 1.000000000000000000, -0.000000000000000000 ) ) ;
#80 = COLOUR_RGB ( '',1.000000000000000000, 0.000000000000000000, 0.000000000000000000 ) ;
#81 = CYLINDRICAL_SURFACE ( 'NONE', #40, 0.5000000000000001110 ) ;
#82 = LINE ( 'NONE', #173, #193 ) ;
#83 = LENGTH_MEASURE_WITH_UNIT ( LENGTH_MEASURE( 0.02539999999999999897 ), #226 );
#84 = CARTESIAN_POINT ( 'NONE',  ( -1.224646799147354440E-16, 6.000000000000000888, 0.000000000000000000 ) ) ;
#85 = FILL_AREA_STYLE_COLOUR ( '', #23 ) ;
#86 =( NAMED_UNIT ( * ) PLANE_ANGLE_UNIT ( ) SI_UNIT ( $, .RADIAN. ) );
#87 = PRODUCT_DEFINITION_SHAPE ( 'NONE', 'NONE',  #153 ) ;
#88 = CARTESIAN_POINT ( 'NONE',  ( 0.5000000000000000000, 3.250000000000000000, 6.123233995736767268E-17 ) ) ;
#89 = SURFACE_STYLE_FILL_AREA ( #269 ) ;
#90 = STYLED_ITEM ( 'NONE', ( #155 ), #72 ) ;
#91 = DIMENSIONAL_EXPONENTS ( 1.000000000000000000, 0.000000000000000000, 0.000000000000000000, 0.000000000000000000, 0.000000000000000000, 0.000000000000000000, 0.000000000000000000 ) ;
#92 =( NAMED_UNIT ( * ) PLANE_ANGLE_UNIT ( ) SI_UNIT ( $, .RADIAN. ) );
#93 =( NAMED_UNIT ( * ) PLANE_ANGLE_UNIT ( ) SI_UNIT ( $, .RADIAN. ) );
#94 = DIRECTION ( 'NONE',  ( 1.000000000000000000, 0.000000000000000000, 0.000000000000000000 ) ) ;
#95 = LINE ( 'NONE', #55, #107 ) ;
#96 = ORIENTED_EDGE ( 'NONE', *, *, #233, .T. ) ;
#97 = AXIS2_PLACEMENT_3D ( 'NONE', #238, #79, #31 ) ;
#98 = MECHANICAL_DESIGN_GEOMETRIC_PRESENTATION_REPRESENTATION (  '', ( #44 ), #4 ) ;
#99 =( NAMED_UNIT ( * ) SI_UNIT ( $, .STERADIAN. ) SOLID_ANGLE_UNIT ( ) );
#100 = SURFACE_STYLE_FILL_AREA ( #210 ) ;
#101 = UNCERTAINTY_MEASURE_WITH_UNIT (LENGTH_MEASURE( 1.000000000000000082E-05 ), #209, 'distance_accuracy_value', 'NONE');
#102 = MECHANICAL_DESIGN_GEOMETRIC_PRESENTATION_REPRESENTATION (  '', ( #149 ), #170 ) ;
#103 = DIRECTION ( 'NONE',  ( -1.000000000000000000, 0.000000000000000000, 0.000000000000000000 ) ) ;
#104 = VERTEX_POINT ( 'NONE', #16 ) ;
#105 = ORIENTED_EDGE ( 'NONE', *, *, #241, .F. ) ;
#106 =( NAMED_UNIT ( * ) SI_UNIT ( $, .STERADIAN. ) SOLID_ANGLE_UNIT ( ) );
#107 = VECTOR ( 'NONE', #186, 39.37007874015748143 ) ;
#108 = ORIENTED_EDGE ( 'NONE', *, *, #241, .T. ) ;
#109 = EDGE_CURVE ( 'NONE', #192, #167, #95, .T. ) ;
#110 =( NAMED_UNIT ( * ) SI_UNIT ( $, .STERADIAN. ) SOLID_ANGLE_UNIT ( ) );
#111 = SURFACE_STYLE_FILL_AREA ( #175 ) ;
#112 = EDGE_LOOP ( 'NONE', ( #294, #142 ) ) ;
#113 =( LENGTH_UNIT ( ) NAMED_UNIT ( * ) SI_UNIT ( $, .METRE. ) );
#114 = DIMENSIONAL_EXPONENTS ( 1.000000000000000000, 0.000000000000000000, 0.000000000000000000, 0.000000000000000000, 0.000000000000000000, 0.000000000000000000, 0.000000000000000000 ) ;
#115 = CARTESIAN_POINT ( 'NONE',  ( -0.5000000000000000000, 3.250000000000000000, 0.000000000000000000 ) ) ;
#116 = AXIS2_PLACEMENT_3D ( 'NONE', #150, #288, #144 ) ;
#117 =( NAMED_UNIT ( * ) SI_UNIT ( $, .STERADIAN. ) SOLID_ANGLE_UNIT ( ) );
#118 = UNCERTAINTY_MEASURE_WITH_UNIT (LENGTH_MEASURE( 1.000000000000000082E-05 ), #18, 'distance_accuracy_value', 'NONE');
#119 = CARTESIAN_POINT ( 'NONE',  ( 0.000000000000000000, 3.250000000000000000, 0.000000000000000000 ) ) ;
#120 = STYLED_ITEM ( 'NONE', ( #257 ), #165 ) ;
#121 = FACE_OUTER_BOUND ( 'NONE', #126, .T. ) ;
#122 = ORIENTED_EDGE ( 'NONE', *, *, #262, .F. ) ;
#123 = FACE_OUTER_BOUND ( 'NONE', #10, .T. ) ;
#124 = MECHANICAL_DESIGN_GEOMETRIC_PRESENTATION_REPRESENTATION (  '', ( #90 ), #63 ) ;
#125 =( NAMED_UNIT ( * ) SI_UNIT ( $, .STERADIAN. ) SOLID_ANGLE_UNIT ( ) );
#126 = EDGE_LOOP ( 'NONE', ( #244, #7, #130, #147 ) ) ;
#127 = ORIENTED_EDGE ( 'NONE', *, *, #145, .T. ) ;
#128 = DIRECTION ( 'NONE',  ( -0.000000000000000000, -1.000000000000000000, -0.000000000000000000 ) ) ;
#129 = VERTEX_POINT ( 'NONE', #52 ) ;
#130 = ORIENTED_EDGE ( 'NONE', *, *, #262, .T. ) ;
#131 = PRESENTATION_STYLE_ASSIGNMENT (( #36 ) ) ;
#132 = DIRECTION ( 'NONE',  ( 0.000000000000000000, 0.000000000000000000, 1.000000000000000000 ) ) ;
#133 = DIMENSIONAL_EXPONENTS ( 1.000000000000000000, 0.000000000000000000, 0.000000000000000000, 0.000000000000000000, 0.000000000000000000, 0.000000000000000000, 0.000000000000000000 ) ;
#134 = SURFACE_STYLE_USAGE ( .BOTH. , #158 ) ;
#135 = CARTESIAN_POINT ( 'NONE',  ( 0.000000000000000000, 0.000000000000000000, -0.5000000000000000000 ) ) ;
#136 = CLOSED_SHELL ( 'NONE', ( #160, #277, #8, #218 ) ) ;
#137 = CIRCLE ( 'NONE', #230, 0.5000000000000001110 ) ;
#138 = DIRECTION ( 'NONE',  ( -4.453261087808560759E-17, 1.000000000000000000, -0.000000000000000000 ) ) ;
#139 = AXIS2_PLACEMENT_3D ( 'NONE', #263, #51, #191 ) ;
#140 = CARTESIAN_POINT ( 'NONE',  ( 0.000000000000000000, 0.000000000000000000, 0.000000000000000000 ) ) ;
#141 = CIRCLE ( 'NONE', #97, 0.5000000000000000000 ) ;
#142 = ORIENTED_EDGE ( 'NONE', *, *, #179, .T. ) ;
#143 = CYLINDRICAL_SURFACE ( 'NONE', #157, 0.5000000000000001110 ) ;
#144 = DIRECTION ( 'NONE',  ( 1.000000000000000000, 4.453261087808560759E-17, 0.000000000000000000 ) ) ;
#145 = EDGE_CURVE ( 'NONE', #104, #295, #182, .T. ) ;
#146 = DIRECTION ( 'NONE',  ( -4.453261087808560759E-17, 1.000000000000000000, -0.000000000000000000 ) ) ;
#147 = ORIENTED_EDGE ( 'NONE', *, *, #70, .F. ) ;
#148 = SURFACE_SIDE_STYLE ('',( #267 ) ) ;
#149 = STYLED_ITEM ( 'NONE', ( #287 ), #200 ) ;
#150 = CARTESIAN_POINT ( 'NONE',  ( 0.5000000000000000000, 6.000000000000000888, 0.000000000000000000 ) ) ;
#151 = PRESENTATION_LAYER_ASSIGNMENT (  '', '', ( #44 ) ) ;
#152 = UNCERTAINTY_MEASURE_WITH_UNIT (LENGTH_MEASURE( 1.000000000000000082E-05 ), #253, 'distance_accuracy_value', 'NONE');
#153 = PRODUCT_DEFINITION ( 'UNKNOWN', '', #215, #285 ) ;
#154 = CARTESIAN_POINT ( 'NONE',  ( 0.000000000000000000, 3.250000000000000000, 0.000000000000000000 ) ) ;
#155 = PRESENTATION_STYLE_ASSIGNMENT (( #57 ) ) ;
#156 = DIMENSIONAL_EXPONENTS ( 1.000000000000000000, 0.000000000000000000, 0.000000000000000000, 0.000000000000000000, 0.000000000000000000, 0.000000000000000000, 0.000000000000000000 ) ;
#157 = AXIS2_PLACEMENT_3D ( 'NONE', #237, #138, #26 ) ;
#158 = SURFACE_SIDE_STYLE ('',( #111 ) ) ;
#159 = FACE_OUTER_BOUND ( 'NONE', #279, .T. ) ;
#160 = ADVANCED_FACE ( 'NONE', ( #159 ), #143, .T. ) ;
#161 = CARTESIAN_POINT ( 'NONE',  ( 6.123233995736766036E-17, 0.000000000000000000, 0.5000000000000000000 ) ) ;
#162 =( NAMED_UNIT ( * ) PLANE_ANGLE_UNIT ( ) SI_UNIT ( $, .RADIAN. ) );
#163 = CYLINDRICAL_SURFACE ( 'NONE', #276, 0.5000000000000000000 ) ;
#164 =( LENGTH_UNIT ( ) NAMED_UNIT ( * ) SI_UNIT ( $, .METRE. ) );
#165 = MANIFOLD_SOLID_BREP ( 'Revolve - Tool Body (Straight Shanked)', #136 ) ;
#166 = COLOUR_RGB ( '',1.000000000000000000, 0.000000000000000000, 0.000000000000000000 ) ;
#167 = VERTEX_POINT ( 'NONE', #235 ) ;
#168 = FILL_AREA_STYLE_COLOUR ( '', #248 ) ;
#169 = DIRECTION ( 'NONE',  ( -4.453261087808560759E-17, 1.000000000000000000, -0.000000000000000000 ) ) ;
#170 =( GEOMETRIC_REPRESENTATION_CONTEXT ( 3 ) GLOBAL_UNCERTAINTY_ASSIGNED_CONTEXT ( ( #28 ) ) GLOBAL_UNIT_ASSIGNED_CONTEXT ( ( #216, #35, #125 ) ) REPRESENTATION_CONTEXT ( 'NONE', 'WORKASPACE' ) );
#171 = CYLINDRICAL_SURFACE ( 'NONE', #228, 0.5000000000000000000 ) ;
#172 = FILL_AREA_STYLE ('',( #168 ) ) ;
#173 = CARTESIAN_POINT ( 'NONE',  ( -0.5000000000000002220, 6.000000000000000888, 0.000000000000000000 ) ) ;
#174 = CARTESIAN_POINT ( 'NONE',  ( 0.000000000000000000, 0.000000000000000000, 0.000000000000000000 ) ) ;
#175 = FILL_AREA_STYLE ('',( #266 ) ) ;
#176 = FACE_OUTER_BOUND ( 'NONE', #220, .T. ) ;
#177 = DIRECTION ( 'NONE',  ( -0.000000000000000000, -1.000000000000000000, -0.000000000000000000 ) ) ;
#178 = PRODUCT_CONTEXT ( 'NONE', #60, 'mechanical' ) ;
#179 = EDGE_CURVE ( 'NONE', #167, #58, #137, .T. ) ;
#180 = CIRCLE ( 'NONE', #292, 0.5000000000000000000 ) ;
#181 = LENGTH_MEASURE_WITH_UNIT ( LENGTH_MEASURE( 0.02539999999999999897 ), #164 );
#182 = CIRCLE ( 'NONE', #207, 0.5000000000000000000 ) ;
#183 = ADVANCED_FACE ( 'NONE', ( #121 ), #163, .T. ) ;
#184 = DIRECTION ( 'NONE',  ( -1.000000000000000000, 0.000000000000000000, 0.000000000000000000 ) ) ;
#185 = UNCERTAINTY_MEASURE_WITH_UNIT (LENGTH_MEASURE( 1.000000000000000082E-05 ), #231, 'distance_accuracy_value', 'NONE');
#186 = DIRECTION ( 'NONE',  ( -4.453261087808560759E-17, 1.000000000000000000, -0.000000000000000000 ) ) ;
#187 = ORIENTED_EDGE ( 'NONE', *, *, #109, .F. ) ;
#188 = COLOUR_RGB ( '',0.7921568627450980005, 0.8196078431372548767, 0.9333333333333333481 ) ;
#189 = VECTOR ( 'NONE', #61, 39.37007874015748143 ) ;
#190 = EDGE_LOOP ( 'NONE', ( #32, #12 ) ) ;
#191 = DIRECTION ( 'NONE',  ( 0.000000000000000000, 0.000000000000000000, -1.000000000000000000 ) ) ;
#192 = VERTEX_POINT ( 'NONE', #88 ) ;
#193 = VECTOR ( 'NONE', #17, 39.37007874015748143 ) ;
#194 = SURFACE_STYLE_FILL_AREA ( #268 ) ;
#195 = VERTEX_POINT ( 'NONE', #219 ) ;
#196 =( LENGTH_UNIT ( ) NAMED_UNIT ( * ) SI_UNIT ( $, .METRE. ) );
#197 = SURFACE_SIDE_STYLE ('',( #194 ) ) ;
#198 = ORIENTED_EDGE ( 'NONE', *, *, #109, .T. ) ;
#199 =( LENGTH_UNIT ( ) NAMED_UNIT ( * ) SI_UNIT ( $, .METRE. ) );
#200 = ADVANCED_FACE ( 'NONE', ( #293 ), #77, .T. ) ;
#201 = PRESENTATION_STYLE_ASSIGNMENT (( #134 ) ) ;
#202 = PRESENTATION_LAYER_ASSIGNMENT (  '', '', ( #284 ) ) ;
#203 =( NAMED_UNIT ( * ) PLANE_ANGLE_UNIT ( ) SI_UNIT ( $, .RADIAN. ) );
#204 = ADVANCED_FACE ( 'NONE', ( #9 ), #171, .T. ) ;
#205 = CARTESIAN_POINT ( 'NONE',  ( 0.000000000000000000, 0.000000000000000000, 0.000000000000000000 ) ) ;
#206 = FACE_OUTER_BOUND ( 'NONE', #112, .T. ) ;
#207 = AXIS2_PLACEMENT_3D ( 'NONE', #119, #234, #74 ) ;
#208 = EDGE_CURVE ( 'NONE', #295, #195, #229, .T. ) ;
#209 =( CONVERSION_BASED_UNIT ( 'INCH', #181 ) LENGTH_UNIT ( ) NAMED_UNIT ( #11 ) );
#210 = FILL_AREA_STYLE ('',( #304 ) ) ;
#211 = CIRCLE ( 'NONE', #46, 0.5000000000000001110 ) ;
#212 = CARTESIAN_POINT ( 'NONE',  ( 0.000000000000000000, 0.000000000000000000, 0.000000000000000000 ) ) ;
#213 = ORIENTED_EDGE ( 'NONE', *, *, #208, .T. ) ;
#214 = AXIS2_PLACEMENT_3D ( 'NONE', #2, #49, #103 ) ;
#215 = PRODUCT_DEFINITION_FORMATION_WITH_SPECIFIED_SOURCE ( 'ANY', '', #6, .NOT_KNOWN. ) ;
#216 =( CONVERSION_BASED_UNIT ( 'INCH', #83 ) LENGTH_UNIT ( ) NAMED_UNIT ( #91 ) );
#217 = CARTESIAN_POINT ( 'NONE',  ( -1.224646799147354440E-16, 6.000000000000000888, 0.000000000000000000 ) ) ;
#218 = ADVANCED_FACE ( 'NONE', ( #206 ), #303, .F. ) ;
#219 = CARTESIAN_POINT ( 'NONE',  ( 6.123233995736766036E-17, 0.000000000000000000, 0.5000000000000000000 ) ) ;
#220 = EDGE_LOOP ( 'NONE', ( #239, #29 ) ) ;
#221 = EDGE_LOOP ( 'NONE', ( #127, #213, #240, #122 ) ) ;
#222 = DIRECTION ( 'NONE',  ( 0.000000000000000000, 0.000000000000000000, -1.000000000000000000 ) ) ;
#223 = PRESENTATION_LAYER_ASSIGNMENT (  '', '', ( #120 ) ) ;
#224 = DIRECTION ( 'NONE',  ( -4.453261087808560759E-17, 1.000000000000000000, -0.000000000000000000 ) ) ;
#225 = DIRECTION ( 'NONE',  ( -4.453261087808560759E-17, 1.000000000000000000, 0.000000000000000000 ) ) ;
#226 =( LENGTH_UNIT ( ) NAMED_UNIT ( * ) SI_UNIT ( $, .METRE. ) );
#227 = EDGE_CURVE ( 'NONE', #192, #261, #141, .T. ) ;
#228 = AXIS2_PLACEMENT_3D ( 'NONE', #140, #24, #69 ) ;
#229 = LINE ( 'NONE', #161, #73 ) ;
#230 = AXIS2_PLACEMENT_3D ( 'NONE', #254, #146, #184 ) ;
#231 =( CONVERSION_BASED_UNIT ( 'INCH', #1 ) LENGTH_UNIT ( ) NAMED_UNIT ( #133 ) );
#232 = DIRECTION ( 'NONE',  ( 0.000000000000000000, 0.000000000000000000, -1.000000000000000000 ) ) ;
#233 = EDGE_CURVE ( 'NONE', #261, #192, #264, .T. ) ;
#234 = DIRECTION ( 'NONE',  ( -0.000000000000000000, -1.000000000000000000, -0.000000000000000000 ) ) ;
#235 = CARTESIAN_POINT ( 'NONE',  ( 0.5000000000000000000, 6.000000000000000888, 6.123233995736767268E-17 ) ) ;
#236 = ORIENTED_EDGE ( 'NONE', *, *, #70, .T. ) ;
#237 = CARTESIAN_POINT ( 'NONE',  ( -1.224646799147354440E-16, 6.000000000000000888, 0.000000000000000000 ) ) ;
#238 = CARTESIAN_POINT ( 'NONE',  ( 0.000000000000000000, 3.250000000000000000, 0.000000000000000000 ) ) ;
#239 = ORIENTED_EDGE ( 'NONE', *, *, #233, .F. ) ;
#240 = ORIENTED_EDGE ( 'NONE', *, *, #25, .F. ) ;
#241 = EDGE_CURVE ( 'NONE', #261, #58, #82, .T. ) ;
#242 = DIRECTION ( 'NONE',  ( 0.000000000000000000, 1.000000000000000000, 0.000000000000000000 ) ) ;
#243 = LENGTH_MEASURE_WITH_UNIT ( LENGTH_MEASURE( 0.02539999999999999897 ), #196 );
#244 = ORIENTED_EDGE ( 'NONE', *, *, #208, .F. ) ;
#245 =( GEOMETRIC_REPRESENTATION_CONTEXT ( 3 ) GLOBAL_UNCERTAINTY_ASSIGNED_CONTEXT ( ( #185 ) ) GLOBAL_UNIT_ASSIGNED_CONTEXT ( ( #231, #278, #117 ) ) REPRESENTATION_CONTEXT ( 'NONE', 'WORKASPACE' ) );
#246 =( CONVERSION_BASED_UNIT ( 'INCH', #296 ) LENGTH_UNIT ( ) NAMED_UNIT ( #114 ) );
#247 = CLOSED_SHELL ( 'NONE', ( #204, #200, #183, #72 ) ) ;
#248 = COLOUR_RGB ( '',1.000000000000000000, 0.000000000000000000, 0.000000000000000000 ) ;
#249 = DIRECTION ( 'NONE',  ( 0.000000000000000000, 0.000000000000000000, -1.000000000000000000 ) ) ;
#250 = DIRECTION ( 'NONE',  ( -0.000000000000000000, -1.000000000000000000, -0.000000000000000000 ) ) ;
#251 = EDGE_CURVE ( 'NONE', #295, #104, #180, .T. ) ;
#252 = MECHANICAL_DESIGN_GEOMETRIC_PRESENTATION_REPRESENTATION (  '', ( #284 ), #53 ) ;
#253 =( CONVERSION_BASED_UNIT ( 'INCH', #67 ) LENGTH_UNIT ( ) NAMED_UNIT ( #301 ) );
#254 = CARTESIAN_POINT ( 'NONE',  ( -1.224646799147354440E-16, 6.000000000000000888, 0.000000000000000000 ) ) ;
#255 = DIRECTION ( 'NONE',  ( -0.000000000000000000, -1.000000000000000000, -0.000000000000000000 ) ) ;
#256 = MANIFOLD_SOLID_BREP ( 'Revolve - Cutting Edge', #247 ) ;
#257 = PRESENTATION_STYLE_ASSIGNMENT (( #308 ) ) ;
#258 = PRESENTATION_LAYER_ASSIGNMENT (  '', '', ( #65 ) ) ;
#259 = FILL_AREA_STYLE ('',( #309 ) ) ;
#260 = AXIS2_PLACEMENT_3D ( 'NONE', #174, #132, #94 ) ;
#261 = VERTEX_POINT ( 'NONE', #115 ) ;
#262 = EDGE_CURVE ( 'NONE', #104, #129, #13, .T. ) ;
#263 = CARTESIAN_POINT ( 'NONE',  ( 0.000000000000000000, 0.000000000000000000, 0.000000000000000000 ) ) ;
#264 = CIRCLE ( 'NONE', #214, 0.5000000000000000000 ) ;
#265 = AXIS2_PLACEMENT_3D ( 'NONE', #39, #225, #274 ) ;
#266 = FILL_AREA_STYLE_COLOUR ( '', #80 ) ;
#267 = SURFACE_STYLE_FILL_AREA ( #172 ) ;
#268 = FILL_AREA_STYLE ('',( #56 ) ) ;
#269 = FILL_AREA_STYLE ('',( #85 ) ) ;
#270 =( CONVERSION_BASED_UNIT ( 'INCH', #243 ) LENGTH_UNIT ( ) NAMED_UNIT ( #156 ) );
#271 = DIRECTION ( 'NONE',  ( 0.000000000000000000, 0.000000000000000000, -1.000000000000000000 ) ) ;
#272 = SHAPE_DEFINITION_REPRESENTATION ( #87, #283 ) ;
#273 = LENGTH_MEASURE_WITH_UNIT ( LENGTH_MEASURE( 0.02539999999999999897 ), #113 );
#274 = DIRECTION ( 'NONE',  ( -1.000000000000000000, -4.453261087808560759E-17, 0.000000000000000000 ) ) ;
#275 = MECHANICAL_DESIGN_GEOMETRIC_PRESENTATION_REPRESENTATION (  '', ( #120 ), #290 ) ;
#276 = AXIS2_PLACEMENT_3D ( 'NONE', #212, #255, #232 ) ;
#277 = ADVANCED_FACE ( 'NONE', ( #176 ), #299, .F. ) ;
#278 =( NAMED_UNIT ( * ) PLANE_ANGLE_UNIT ( ) SI_UNIT ( $, .RADIAN. ) );
#279 = EDGE_LOOP ( 'NONE', ( #96, #198, #48, #105 ) ) ;
#280 = UNCERTAINTY_MEASURE_WITH_UNIT (LENGTH_MEASURE( 1.000000000000000082E-05 ), #246, 'distance_accuracy_value', 'NONE');
#281 =( LENGTH_UNIT ( ) NAMED_UNIT ( * ) SI_UNIT ( $, .METRE. ) );
#282 = APPLICATION_CONTEXT ( 'automotive_design' ) ;
#283 = ADVANCED_BREP_SHAPE_REPRESENTATION ( '59279', ( #256, #165, #260 ), #306 ) ;
#284 = STYLED_ITEM ( 'NONE', ( #201 ), #204 ) ;
#285 = PRODUCT_DEFINITION_CONTEXT ( 'detailed design', #282, 'design' ) ;
#286 = DIRECTION ( 'NONE',  ( -1.000000000000000000, 0.000000000000000000, 0.000000000000000000 ) ) ;
#287 = PRESENTATION_STYLE_ASSIGNMENT (( #50 ) ) ;
#288 = DIRECTION ( 'NONE',  ( 4.453261087808560759E-17, -1.000000000000000000, 0.000000000000000000 ) ) ;
#289 = ORIENTED_EDGE ( 'NONE', *, *, #25, .T. ) ;
#290 =( GEOMETRIC_REPRESENTATION_CONTEXT ( 3 ) GLOBAL_UNCERTAINTY_ASSIGNED_CONTEXT ( ( #118 ) ) GLOBAL_UNIT_ASSIGNED_CONTEXT ( ( #18, #92, #110 ) ) REPRESENTATION_CONTEXT ( 'NONE', 'WORKASPACE' ) );
#291 = APPLICATION_PROTOCOL_DEFINITION ( 'draft international standard', 'automotive_design', 1998, #282 ) ;
#292 = AXIS2_PLACEMENT_3D ( 'NONE', #66, #128, #222 ) ;
#293 = FACE_OUTER_BOUND ( 'NONE', #190, .T. ) ;
#294 = ORIENTED_EDGE ( 'NONE', *, *, #21, .T. ) ;
#295 = VERTEX_POINT ( 'NONE', #37 ) ;
#296 = LENGTH_MEASURE_WITH_UNIT ( LENGTH_MEASURE( 0.02539999999999999897 ), #199 );
#297 =( NAMED_UNIT ( * ) SI_UNIT ( $, .STERADIAN. ) SOLID_ANGLE_UNIT ( ) );
#298 = COLOUR_RGB ( '',1.000000000000000000, 0.000000000000000000, 0.000000000000000000 ) ;
#299 = PLANE ( 'NONE',  #265 ) ;
#300 = DIRECTION ( 'NONE',  ( 0.000000000000000000, -1.000000000000000000, -0.000000000000000000 ) ) ;
#301 = DIMENSIONAL_EXPONENTS ( 1.000000000000000000, 0.000000000000000000, 0.000000000000000000, 0.000000000000000000, 0.000000000000000000, 0.000000000000000000, 0.000000000000000000 ) ;
#302 = PRESENTATION_LAYER_ASSIGNMENT (  '', '', ( #90 ) ) ;
#303 = PLANE ( 'NONE',  #116 ) ;
#304 = FILL_AREA_STYLE_COLOUR ( '', #188 ) ;
#305 = AXIS2_PLACEMENT_3D ( 'NONE', #14, #177, #271 ) ;
#306 =( GEOMETRIC_REPRESENTATION_CONTEXT ( 3 ) GLOBAL_UNCERTAINTY_ASSIGNED_CONTEXT ( ( #76 ) ) GLOBAL_UNIT_ASSIGNED_CONTEXT ( ( #270, #203, #106 ) ) REPRESENTATION_CONTEXT ( 'NONE', 'WORKASPACE' ) );
#307 = PRESENTATION_STYLE_ASSIGNMENT (( #45 ) ) ;
#308 = SURFACE_STYLE_USAGE ( .BOTH. , #27 ) ;
#309 = FILL_AREA_STYLE_COLOUR ( '', #298 ) ;
ENDSEC;
END-ISO-10303-21;
