ISO-10303-21;
HEADER;
FILE_DESCRIPTION (( 'STEP AP214' ),
    '1' );
FILE_NAME ('Micro_SME-008-2.STEP',
    '2021-09-02T09:46:37',
    ( '' ),
    ( '' ),
    'SwSTEP 2.0',
    'SolidWorks 2020',
    '' );
FILE_SCHEMA (( 'AUTOMOTIVE_DESIGN' ));
ENDSEC;

DATA;
#1 = CIRCLE ( 'NONE', #47, 0.06250000000000002776 ) ;
#2 = DIRECTION ( 'NONE',  ( -0.7071067811865462405, 0.0000000000000000000, -0.7071067811865486830 ) ) ;
#3 = DIRECTION ( 'NONE',  ( -1.000000000000000000, 0.0000000000000000000, 1.224646799147353700E-16 ) ) ;
#4 = ORIENTED_EDGE ( 'NONE', *, *, #294, .F. ) ;
#5 = FILL_AREA_STYLE_COLOUR ( '', #88 ) ;
#6 = EDGE_LOOP ( 'NONE', ( #252, #59 ) ) ;
#7 = DIRECTION ( 'NONE',  ( 1.000000000000000000, 0.0000000000000000000, 0.0000000000000000000 ) ) ;
#8 = VERTEX_POINT ( 'NONE', #158 ) ;
#9 = VECTOR ( 'NONE', #11, 39.37007874015748143 ) ;
#10 = PRESENTATION_LAYER_ASSIGNMENT (  '', '', ( #297 ) ) ;
#11 = DIRECTION ( 'NONE',  ( -1.224646799147353700E-16, -0.0000000000000000000, -1.000000000000000000 ) ) ;
#12 = VERTEX_POINT ( 'NONE', #244 ) ;
#13 = FACE_OUTER_BOUND ( 'NONE', #277, .T. ) ;
#14 = PLANE ( 'NONE',  #243 ) ;
#15 = DIRECTION ( 'NONE',  ( 1.000000000000000000, 0.0000000000000000000, 0.0000000000000000000 ) ) ;
#16 = CLOSED_SHELL ( 'NONE', ( #284, #230, #45, #181, #224, #233, #77, #121, #125, #242 ) ) ;
#17 = CARTESIAN_POINT ( 'NONE',  ( 0.0000000000000000000, 0.0000000000000000000, 0.0000000000000000000 ) ) ;
#18 = PRESENTATION_LAYER_ASSIGNMENT (  '', '', ( #32 ) ) ;
#19 = EDGE_CURVE ( 'NONE', #186, #81, #221, .T. ) ;
#20 = LENGTH_MEASURE_WITH_UNIT ( LENGTH_MEASURE( 0.02539999999999999897 ), #120 );
#21 =( CONVERSION_BASED_UNIT ( 'INCH', #20 ) LENGTH_UNIT ( ) NAMED_UNIT ( #119 ) );
#22 = CARTESIAN_POINT ( 'NONE',  ( 1.469576158976824446E-18, 0.0000000000000000000, 0.01200000000000000025 ) ) ;
#23 = ORIENTED_EDGE ( 'NONE', *, *, #245, .T. ) ;
#24 = AXIS2_PLACEMENT_3D ( 'NONE', #160, #248, #141 ) ;
#25 = CARTESIAN_POINT ( 'NONE',  ( 0.06250000000000006939, 7.654042494670963708E-18, 0.3437926715749127227 ) ) ;
#26 = ORIENTED_EDGE ( 'NONE', *, *, #256, .T. ) ;
#27 = CARTESIAN_POINT ( 'NONE',  ( -0.06250000000000002776, 0.0000000000000000000, 1.500000000000000222 ) ) ;
#28 = ORIENTED_EDGE ( 'NONE', *, *, #299, .F. ) ;
#29 = LINE ( 'NONE', #129, #270 ) ;
#30 = VERTEX_POINT ( 'NONE', #202 ) ;
#31 = DIRECTION ( 'NONE',  ( -0.1736481776669311916, 2.126576849575783316E-17, 0.9848077530122080203 ) ) ;
#32 = STYLED_ITEM ( 'NONE', ( #132 ), #215 ) ;
#33 = ORIENTED_EDGE ( 'NONE', *, *, #56, .F. ) ;
#34 = DIRECTION ( 'NONE',  ( -1.000000000000000000, 0.0000000000000000000, 0.0000000000000000000 ) ) ;
#35 =( NAMED_UNIT ( * ) PLANE_ANGLE_UNIT ( ) SI_UNIT ( $, .RADIAN. ) );
#36 = DIRECTION ( 'NONE',  ( 1.000000000000000000, 0.0000000000000000000, 0.0000000000000000000 ) ) ;
#37 = AXIS2_PLACEMENT_3D ( 'NONE', #124, #229, #184 ) ;
#38 = LENGTH_MEASURE_WITH_UNIT ( LENGTH_MEASURE( 0.02539999999999999897 ), #106 );
#39 = CARTESIAN_POINT ( 'NONE',  ( 0.0000000000000000000, 0.0000000000000000000, 1.500000000000000222 ) ) ;
#40 = DIMENSIONAL_EXPONENTS ( 1.000000000000000000, 0.0000000000000000000, 0.0000000000000000000, 0.0000000000000000000, 0.0000000000000000000, 0.0000000000000000000, 0.0000000000000000000 ) ;
#41 = ORIENTED_EDGE ( 'NONE', *, *, #172, .F. ) ;
#42 = CONICAL_SURFACE ( 'NONE', #204, 0.003996000000000000420, 0.1745329251994338915 ) ;
#43 = AXIS2_PLACEMENT_3D ( 'NONE', #90, #157, #218 ) ;
#44 =( NAMED_UNIT ( * ) PLANE_ANGLE_UNIT ( ) SI_UNIT ( $, .RADIAN. ) );
#45 = ADVANCED_FACE ( 'NONE', ( #253 ), #46, .T. ) ;
#46 = CONICAL_SURFACE ( 'NONE', #211, 0.04750000000000064587, 0.7853981633974466137 ) ;
#47 = AXIS2_PLACEMENT_3D ( 'NONE', #249, #49, #126 ) ;
#48 = DIRECTION ( 'NONE',  ( -1.000000000000000000, 0.0000000000000000000, 0.0000000000000000000 ) ) ;
#49 = DIRECTION ( 'NONE',  ( 0.0000000000000000000, 0.0000000000000000000, -1.000000000000000000 ) ) ;
#50 = VERTEX_POINT ( 'NONE', #278 ) ;
#51 = CIRCLE ( 'NONE', #177, 0.003996000000000000420 ) ;
#52 = CARTESIAN_POINT ( 'NONE',  ( -0.06250000000000002776, 0.0000000000000000000, 1.485000000000000764 ) ) ;
#53 = ORIENTED_EDGE ( 'NONE', *, *, #273, .T. ) ;
#54 = CARTESIAN_POINT ( 'NONE',  ( 4.210245948145342992E-17, 0.0000000000000000000, 0.3437926715749127227 ) ) ;
#55 = FACE_OUTER_BOUND ( 'NONE', #75, .T. ) ;
#56 = EDGE_CURVE ( 'NONE', #81, #186, #133, .T. ) ;
#57 = ORIENTED_EDGE ( 'NONE', *, *, #110, .F. ) ;
#58 = CARTESIAN_POINT ( 'NONE',  ( -0.06249999999999997918, 0.0000000000000000000, 0.3437926715749127227 ) ) ;
#59 = ORIENTED_EDGE ( 'NONE', *, *, #19, .T. ) ;
#60 = CARTESIAN_POINT ( 'NONE',  ( 1.469576158976824446E-18, 0.0000000000000000000, 0.01200000000000000025 ) ) ;
#61 = CARTESIAN_POINT ( 'NONE',  ( 0.003995999999999998685, 4.893688609392822225E-19, -4.893688609392824151E-19 ) ) ;
#62 = APPLICATION_CONTEXT ( 'automotive_design' ) ;
#63 = PLANE ( 'NONE',  #296 ) ;
#64 =( GEOMETRIC_REPRESENTATION_CONTEXT ( 3 ) GLOBAL_UNCERTAINTY_ASSIGNED_CONTEXT ( ( #291 ) ) GLOBAL_UNIT_ASSIGNED_CONTEXT ( ( #288, #295, #89 ) ) REPRESENTATION_CONTEXT ( 'NONE', 'WORKASPACE' ) );
#65 = DIRECTION ( 'NONE',  ( -0.0000000000000000000, -0.0000000000000000000, -1.000000000000000000 ) ) ;
#66 = PRODUCT_CONTEXT ( 'NONE', #118, 'mechanical' ) ;
#67 = LENGTH_MEASURE_WITH_UNIT ( LENGTH_MEASURE( 0.02539999999999999897 ), #241 );
#68 = ORIENTED_EDGE ( 'NONE', *, *, #275, .F. ) ;
#69 = MECHANICAL_DESIGN_GEOMETRIC_PRESENTATION_REPRESENTATION (  '', ( #297 ), #64 ) ;
#70 = DIRECTION ( 'NONE',  ( -1.224646799147353700E-16, -0.0000000000000000000, -1.000000000000000000 ) ) ;
#71 = AXIS2_PLACEMENT_3D ( 'NONE', #127, #142, #7 ) ;
#72 = AXIS2_PLACEMENT_3D ( 'NONE', #131, #283, #169 ) ;
#73 = DIRECTION ( 'NONE',  ( -1.224646799147353700E-16, -0.0000000000000000000, -1.000000000000000000 ) ) ;
#74 = LINE ( 'NONE', #27, #259 ) ;
#75 = EDGE_LOOP ( 'NONE', ( #28, #123, #235, #189 ) ) ;
#76 = CARTESIAN_POINT ( 'NONE',  ( 5.993040091516783558E-35, 0.0000000000000000000, 4.893688609392821262E-19 ) ) ;
#77 = ADVANCED_FACE ( 'NONE', ( #166 ), #108, .T. ) ;
#78 = DIRECTION ( 'NONE',  ( -1.000000000000000000, 0.0000000000000000000, 0.0000000000000000000 ) ) ;
#79 = ORIENTED_EDGE ( 'NONE', *, *, #136, .T. ) ;
#80 = CARTESIAN_POINT ( 'NONE',  ( 0.0000000000000000000, 0.0000000000000000000, 0.0000000000000000000 ) ) ;
#81 = VERTEX_POINT ( 'NONE', #188 ) ;
#82 = CARTESIAN_POINT ( 'NONE',  ( 0.0000000000000000000, 0.0000000000000000000, 1.500000000000000222 ) ) ;
#83 = DIRECTION ( 'NONE',  ( -1.224646799147353700E-16, -0.0000000000000000000, -1.000000000000000000 ) ) ;
#84 = CIRCLE ( 'NONE', #180, 0.06250000000000002776 ) ;
#85 = DIRECTION ( 'NONE',  ( 1.000000000000000000, 0.0000000000000000000, -0.0000000000000000000 ) ) ;
#86 = DIRECTION ( 'NONE',  ( 1.000000000000000000, 0.0000000000000000000, 0.0000000000000000000 ) ) ;
#87 = CARTESIAN_POINT ( 'NONE',  ( 0.0000000000000000000, 0.0000000000000000000, 1.485000000000000764 ) ) ;
#88 = COLOUR_RGB ( '',0.7921568627450980005, 0.8196078431372548767, 0.9333333333333333481 ) ;
#89 =( NAMED_UNIT ( * ) SI_UNIT ( $, .STERADIAN. ) SOLID_ANGLE_UNIT ( ) );
#90 = CARTESIAN_POINT ( 'NONE',  ( 0.0000000000000000000, 0.0000000000000000000, 0.0000000000000000000 ) ) ;
#91 = VERTEX_POINT ( 'NONE', #97 ) ;
#92 = PRODUCT ( 'Micro_SME-008-2', 'Micro_SME-008-2', '', ( #66 ) ) ;
#93 = EDGE_CURVE ( 'NONE', #128, #292, #101, .T. ) ;
#94 = VECTOR ( 'NONE', #65, 39.37007874015748143 ) ;
#95 = AXIS2_PLACEMENT_3D ( 'NONE', #76, #163, #3 ) ;
#96 = CYLINDRICAL_SURFACE ( 'NONE', #24, 0.06250000000000002776 ) ;
#97 = CARTESIAN_POINT ( 'NONE',  ( 0.06250000000000002776, 7.654042494670959086E-18, 1.485000000000000764 ) ) ;
#98 = ORIENTED_EDGE ( 'NONE', *, *, #110, .T. ) ;
#99 = FILL_AREA_STYLE ('',( #5 ) ) ;
#100 = ORIENTED_EDGE ( 'NONE', *, *, #93, .F. ) ;
#101 = CIRCLE ( 'NONE', #246, 0.06250000000000002776 ) ;
#102 = DIRECTION ( 'NONE',  ( -1.224646799147353700E-16, -0.0000000000000000000, -1.000000000000000000 ) ) ;
#103 = ORIENTED_EDGE ( 'NONE', *, *, #273, .F. ) ;
#104 = FACE_OUTER_BOUND ( 'NONE', #191, .T. ) ;
#105 = VERTEX_POINT ( 'NONE', #52 ) ;
#106 =( LENGTH_UNIT ( ) NAMED_UNIT ( * ) SI_UNIT ( $, .METRE. ) );
#107 = LINE ( 'NONE', #239, #165 ) ;
#108 = CONICAL_SURFACE ( 'NONE', #225, 0.04750000000000064587, 0.7853981633974466137 ) ;
#109 = DIRECTION ( 'NONE',  ( 0.0000000000000000000, 0.0000000000000000000, 1.000000000000000000 ) ) ;
#110 = EDGE_CURVE ( 'NONE', #30, #91, #29, .T. ) ;
#111 =( CONVERSION_BASED_UNIT ( 'INCH', #38 ) LENGTH_UNIT ( ) NAMED_UNIT ( #178 ) );
#112 = UNCERTAINTY_MEASURE_WITH_UNIT (LENGTH_MEASURE( 1.000000000000000082E-05 ), #111, 'distance_accuracy_value', 'NONE');
#113 = DIRECTION ( 'NONE',  ( 0.0000000000000000000, 0.0000000000000000000, 1.000000000000000000 ) ) ;
#114 = PRESENTATION_STYLE_ASSIGNMENT (( #156 ) ) ;
#115 = AXIS2_PLACEMENT_3D ( 'NONE', #80, #73, #168 ) ;
#116 = VECTOR ( 'NONE', #261, 39.37007874015748143 ) ;
#117 = ORIENTED_EDGE ( 'NONE', *, *, #294, .T. ) ;
#118 = APPLICATION_CONTEXT ( 'automotive_design' ) ;
#119 = DIMENSIONAL_EXPONENTS ( 1.000000000000000000, 0.0000000000000000000, 0.0000000000000000000, 0.0000000000000000000, 0.0000000000000000000, 0.0000000000000000000, 0.0000000000000000000 ) ;
#120 =( LENGTH_UNIT ( ) NAMED_UNIT ( * ) SI_UNIT ( $, .METRE. ) );
#121 = ADVANCED_FACE ( 'NONE', ( #212 ), #266, .T. ) ;
#122 = LINE ( 'NONE', #144, #293 ) ;
#123 = ORIENTED_EDGE ( 'NONE', *, *, #201, .T. ) ;
#124 = CARTESIAN_POINT ( 'NONE',  ( 0.0000000000000000000, 0.0000000000000000000, 1.500000000000000222 ) ) ;
#125 = ADVANCED_FACE ( 'NONE', ( #55 ), #148, .T. ) ;
#126 = DIRECTION ( 'NONE',  ( 1.000000000000000000, 0.0000000000000000000, 0.0000000000000000000 ) ) ;
#127 = CARTESIAN_POINT ( 'NONE',  ( 1.469576158976824446E-18, 0.0000000000000000000, 0.01200000000000000025 ) ) ;
#128 = VERTEX_POINT ( 'NONE', #25 ) ;
#129 = CARTESIAN_POINT ( 'NONE',  ( 0.04750000000000064587, 5.817072295950006528E-18, 1.500000000000000222 ) ) ;
#130 = PRODUCT_DEFINITION ( 'UNKNOWN', '', #236, #153 ) ;
#131 = CARTESIAN_POINT ( 'NONE',  ( 0.0000000000000000000, 0.0000000000000000000, 0.0000000000000000000 ) ) ;
#132 = PRESENTATION_STYLE_ASSIGNMENT (( #152 ) ) ;
#133 = CIRCLE ( 'NONE', #95, 0.003995999999999996950 ) ;
#134 = EDGE_CURVE ( 'NONE', #50, #105, #122, .T. ) ;
#135 = DIRECTION ( 'NONE',  ( 0.1736481776669313859, 0.0000000000000000000, 0.9848077530122077983 ) ) ;
#136 = EDGE_CURVE ( 'NONE', #8, #292, #234, .T. ) ;
#137 = DIRECTION ( 'NONE',  ( 1.000000000000000000, 0.0000000000000000000, 0.0000000000000000000 ) ) ;
#138 = ORIENTED_EDGE ( 'NONE', *, *, #134, .T. ) ;
#139 = CIRCLE ( 'NONE', #287, 0.06250000000000002776 ) ;
#140 =( NAMED_UNIT ( * ) SI_UNIT ( $, .STERADIAN. ) SOLID_ANGLE_UNIT ( ) );
#141 = DIRECTION ( 'NONE',  ( -1.000000000000000000, 0.0000000000000000000, 0.0000000000000000000 ) ) ;
#142 = DIRECTION ( 'NONE',  ( 1.224646799147353700E-16, 0.0000000000000000000, 1.000000000000000000 ) ) ;
#143 = EDGE_LOOP ( 'NONE', ( #117, #149, #33, #41 ) ) ;
#144 = CARTESIAN_POINT ( 'NONE',  ( -0.04750000000000064587, 0.0000000000000000000, 1.500000000000000222 ) ) ;
#145 = EDGE_LOOP ( 'NONE', ( #147, #98, #179, #231 ) ) ;
#146 = CARTESIAN_POINT ( 'NONE',  ( 0.0000000000000000000, 0.0000000000000000000, 1.500000000000000222 ) ) ;
#147 = ORIENTED_EDGE ( 'NONE', *, *, #194, .F. ) ;
#148 = CYLINDRICAL_SURFACE ( 'NONE', #115, 0.003995999999999998685 ) ;
#149 = ORIENTED_EDGE ( 'NONE', *, *, #299, .T. ) ;
#150 = CARTESIAN_POINT ( 'NONE',  ( 1.469576158976824446E-18, 0.0000000000000000000, 0.01200000000000000025 ) ) ;
#151 = ORIENTED_EDGE ( 'NONE', *, *, #263, .F. ) ;
#152 = SURFACE_STYLE_USAGE ( .BOTH. , #155 ) ;
#153 = PRODUCT_DEFINITION_CONTEXT ( 'detailed design', #62, 'design' ) ;
#154 =( GEOMETRIC_REPRESENTATION_CONTEXT ( 3 ) GLOBAL_UNCERTAINTY_ASSIGNED_CONTEXT ( ( #192 ) ) GLOBAL_UNIT_ASSIGNED_CONTEXT ( ( #21, #44, #140 ) ) REPRESENTATION_CONTEXT ( 'NONE', 'WORKASPACE' ) );
#155 = SURFACE_SIDE_STYLE ('',( #187 ) ) ;
#156 = SURFACE_STYLE_USAGE ( .BOTH. , #268 ) ;
#157 = DIRECTION ( 'NONE',  ( 0.0000000000000000000, 0.0000000000000000000, 1.000000000000000000 ) ) ;
#158 = CARTESIAN_POINT ( 'NONE',  ( -0.003995999999999998685, 4.071705677805121232E-18, 0.01200000000000000025 ) ) ;
#159 = VECTOR ( 'NONE', #31, 39.37007874015747433 ) ;
#160 = CARTESIAN_POINT ( 'NONE',  ( 0.0000000000000000000, 0.0000000000000000000, 1.500000000000000222 ) ) ;
#161 = DIRECTION ( 'NONE',  ( -0.0000000000000000000, -0.0000000000000000000, -1.000000000000000000 ) ) ;
#162 = ORIENTED_EDGE ( 'NONE', *, *, #194, .T. ) ;
#163 = DIRECTION ( 'NONE',  ( -1.224646799147353700E-16, -0.0000000000000000000, -1.000000000000000000 ) ) ;
#164 = ORIENTED_EDGE ( 'NONE', *, *, #263, .T. ) ;
#165 = VECTOR ( 'NONE', #135, 39.37007874015748143 ) ;
#166 = FACE_OUTER_BOUND ( 'NONE', #199, .T. ) ;
#167 = ORIENTED_EDGE ( 'NONE', *, *, #93, .T. ) ;
#168 = DIRECTION ( 'NONE',  ( -1.000000000000000000, 0.0000000000000000000, 1.224646799147353700E-16 ) ) ;
#169 = DIRECTION ( 'NONE',  ( -1.000000000000000000, 0.0000000000000000000, 1.224646799147353700E-16 ) ) ;
#170 = EDGE_LOOP ( 'NONE', ( #68, #26, #213, #100 ) ) ;
#171 =( GEOMETRIC_REPRESENTATION_CONTEXT ( 3 ) GLOBAL_UNCERTAINTY_ASSIGNED_CONTEXT ( ( #112 ) ) GLOBAL_UNIT_ASSIGNED_CONTEXT ( ( #111, #35, #257 ) ) REPRESENTATION_CONTEXT ( 'NONE', 'WORKASPACE' ) );
#172 = EDGE_CURVE ( 'NONE', #8, #81, #276, .T. ) ;
#173 = DIRECTION ( 'NONE',  ( 0.0000000000000000000, 0.0000000000000000000, -1.000000000000000000 ) ) ;
#174 = LINE ( 'NONE', #219, #94 ) ;
#175 = SHAPE_DEFINITION_REPRESENTATION ( #182, #269 ) ;
#176 = DIRECTION ( 'NONE',  ( 1.000000000000000000, 0.0000000000000000000, -0.0000000000000000000 ) ) ;
#177 = AXIS2_PLACEMENT_3D ( 'NONE', #22, #274, #228 ) ;
#178 = DIMENSIONAL_EXPONENTS ( 1.000000000000000000, 0.0000000000000000000, 0.0000000000000000000, 0.0000000000000000000, 0.0000000000000000000, 0.0000000000000000000, 0.0000000000000000000 ) ;
#179 = ORIENTED_EDGE ( 'NONE', *, *, #210, .F. ) ;
#180 = AXIS2_PLACEMENT_3D ( 'NONE', #87, #173, #137 ) ;
#181 = ADVANCED_FACE ( 'NONE', ( #104 ), #96, .T. ) ;
#182 = PRODUCT_DEFINITION_SHAPE ( 'NONE', 'NONE',  #130 ) ;
#183 = MECHANICAL_DESIGN_GEOMETRIC_PRESENTATION_REPRESENTATION (  '', ( #32 ), #171 ) ;
#184 = DIRECTION ( 'NONE',  ( 1.000000000000000000, 0.0000000000000000000, 0.0000000000000000000 ) ) ;
#185 = CARTESIAN_POINT ( 'NONE',  ( -0.003995999999999998685, 4.893688609392824151E-19, 0.01200000000000000025 ) ) ;
#186 = VERTEX_POINT ( 'NONE', #227 ) ;
#187 = SURFACE_STYLE_FILL_AREA ( #99 ) ;
#188 = CARTESIAN_POINT ( 'NONE',  ( -0.003995999999999996950, 0.0000000000000000000, 9.787377218785642524E-19 ) ) ;
#189 = ORIENTED_EDGE ( 'NONE', *, *, #19, .F. ) ;
#190 = CARTESIAN_POINT ( 'NONE',  ( -0.003995999999999998685, 0.0000000000000000000, 4.893688609392824151E-19 ) ) ;
#191 = EDGE_LOOP ( 'NONE', ( #258, #298, #103, #279 ) ) ;
#192 = UNCERTAINTY_MEASURE_WITH_UNIT (LENGTH_MEASURE( 1.000000000000000082E-05 ), #21, 'distance_accuracy_value', 'NONE');
#193 = FACE_OUTER_BOUND ( 'NONE', #206, .T. ) ;
#194 = EDGE_CURVE ( 'NONE', #30, #50, #272, .T. ) ;
#195 = CARTESIAN_POINT ( 'NONE',  ( 4.210245948145342992E-17, 0.0000000000000000000, 0.3437926715749127227 ) ) ;
#196 = SURFACE_STYLE_FILL_AREA ( #220 ) ;
#197 = DIRECTION ( 'NONE',  ( -0.0000000000000000000, -0.0000000000000000000, -1.000000000000000000 ) ) ;
#198 = APPLICATION_PROTOCOL_DEFINITION ( 'draft international standard', 'automotive_design', 1998, #118 ) ;
#199 = EDGE_LOOP ( 'NONE', ( #57, #223, #138, #203 ) ) ;
#200 = CIRCLE ( 'NONE', #216, 0.04750000000000064587 ) ;
#201 = EDGE_CURVE ( 'NONE', #12, #8, #51, .T. ) ;
#202 = CARTESIAN_POINT ( 'NONE',  ( 0.04750000000000064587, 6.735557395310483192E-18, 1.500000000000000222 ) ) ;
#203 = ORIENTED_EDGE ( 'NONE', *, *, #256, .F. ) ;
#204 = AXIS2_PLACEMENT_3D ( 'NONE', #60, #214, #15 ) ;
#205 = CARTESIAN_POINT ( 'NONE',  ( 0.0000000000000000000, 0.0000000000000000000, 1.500000000000000222 ) ) ;
#206 = EDGE_LOOP ( 'NONE', ( #4, #79, #53, #151 ) ) ;
#207 = CYLINDRICAL_SURFACE ( 'NONE', #286, 0.06250000000000002776 ) ;
#208 = EDGE_CURVE ( 'NONE', #105, #292, #74, .T. ) ;
#209 = DIRECTION ( 'NONE',  ( 0.0000000000000000000, 0.0000000000000000000, -1.000000000000000000 ) ) ;
#210 = EDGE_CURVE ( 'NONE', #105, #91, #1, .T. ) ;
#211 = AXIS2_PLACEMENT_3D ( 'NONE', #205, #251, #78 ) ;
#212 = FACE_OUTER_BOUND ( 'NONE', #255, .T. ) ;
#213 = ORIENTED_EDGE ( 'NONE', *, *, #208, .T. ) ;
#214 = DIRECTION ( 'NONE',  ( 1.224646799147353700E-16, 0.0000000000000000000, 1.000000000000000000 ) ) ;
#215 = MANIFOLD_SOLID_BREP ( 'Cut-Revolve1', #16 ) ;
#216 = AXIS2_PLACEMENT_3D ( 'NONE', #39, #238, #86 ) ;
#217 = AXIS2_PLACEMENT_3D ( 'NONE', #271, #70, #232 ) ;
#218 = DIRECTION ( 'NONE',  ( 1.000000000000000000, 0.0000000000000000000, 0.0000000000000000000 ) ) ;
#219 = CARTESIAN_POINT ( 'NONE',  ( 0.06250000000000002776, 7.654042494670959086E-18, 1.500000000000000222 ) ) ;
#220 = FILL_AREA_STYLE ('',( #265 ) ) ;
#221 = CIRCLE ( 'NONE', #217, 0.003995999999999996950 ) ;
#222 = CYLINDRICAL_SURFACE ( 'NONE', #72, 0.003995999999999998685 ) ;
#223 = ORIENTED_EDGE ( 'NONE', *, *, #245, .F. ) ;
#224 = ADVANCED_FACE ( 'NONE', ( #264 ), #207, .T. ) ;
#225 = AXIS2_PLACEMENT_3D ( 'NONE', #146, #209, #48 ) ;
#226 = PRODUCT_RELATED_PRODUCT_CATEGORY ( 'part', '', ( #92 ) ) ;
#227 = CARTESIAN_POINT ( 'NONE',  ( 0.003995999999999996950, 4.893688609392821262E-19, 0.0000000000000000000 ) ) ;
#228 = DIRECTION ( 'NONE',  ( -1.000000000000000000, 0.0000000000000000000, 0.0000000000000000000 ) ) ;
#229 = DIRECTION ( 'NONE',  ( 0.0000000000000000000, 0.0000000000000000000, 1.000000000000000000 ) ) ;
#230 = ADVANCED_FACE ( 'NONE', ( #193 ), #42, .T. ) ;
#231 = ORIENTED_EDGE ( 'NONE', *, *, #134, .F. ) ;
#232 = DIRECTION ( 'NONE',  ( -1.000000000000000000, 0.0000000000000000000, 1.224646799147353700E-16 ) ) ;
#233 = ADVANCED_FACE ( 'NONE', ( #13 ), #63, .T. ) ;
#234 = LINE ( 'NONE', #185, #159 ) ;
#235 = ORIENTED_EDGE ( 'NONE', *, *, #172, .T. ) ;
#236 = PRODUCT_DEFINITION_FORMATION_WITH_SPECIFIED_SOURCE ( 'ANY', '', #92, .NOT_KNOWN. ) ;
#237 = DIRECTION ( 'NONE',  ( -1.224646799147353700E-16, -0.0000000000000000000, -1.000000000000000000 ) ) ;
#238 = DIRECTION ( 'NONE',  ( 0.0000000000000000000, 0.0000000000000000000, 1.000000000000000000 ) ) ;
#239 = CARTESIAN_POINT ( 'NONE',  ( 0.003996000000000002154, 0.0000000000000000000, 0.01200000000000000025 ) ) ;
#240 = CARTESIAN_POINT ( 'NONE',  ( 0.0000000000000000000, 0.0000000000000000000, 1.500000000000000222 ) ) ;
#241 =( LENGTH_UNIT ( ) NAMED_UNIT ( * ) SI_UNIT ( $, .METRE. ) );
#242 = ADVANCED_FACE ( 'NONE', ( #290 ), #14, .F. ) ;
#243 = AXIS2_PLACEMENT_3D ( 'NONE', #17, #109, #85 ) ;
#244 = CARTESIAN_POINT ( 'NONE',  ( 0.003996000000000002154, 0.0000000000000000000, 0.01200000000000000025 ) ) ;
#245 = EDGE_CURVE ( 'NONE', #50, #30, #200, .T. ) ;
#246 = AXIS2_PLACEMENT_3D ( 'NONE', #54, #102, #254 ) ;
#247 = COLOUR_RGB ( '',0.7921568627450980005, 0.8196078431372548767, 0.9333333333333333481 ) ;
#248 = DIRECTION ( 'NONE',  ( -0.0000000000000000000, -0.0000000000000000000, -1.000000000000000000 ) ) ;
#249 = CARTESIAN_POINT ( 'NONE',  ( 0.0000000000000000000, 0.0000000000000000000, 1.485000000000000764 ) ) ;
#250 = ORIENTED_EDGE ( 'NONE', *, *, #201, .F. ) ;
#251 = DIRECTION ( 'NONE',  ( 0.0000000000000000000, 0.0000000000000000000, -1.000000000000000000 ) ) ;
#252 = ORIENTED_EDGE ( 'NONE', *, *, #56, .T. ) ;
#253 = FACE_OUTER_BOUND ( 'NONE', #145, .T. ) ;
#254 = DIRECTION ( 'NONE',  ( 1.000000000000000000, 0.0000000000000000000, 0.0000000000000000000 ) ) ;
#255 = EDGE_LOOP ( 'NONE', ( #282, #250, #164, #167 ) ) ;
#256 = EDGE_CURVE ( 'NONE', #91, #105, #84, .T. ) ;
#257 =( NAMED_UNIT ( * ) SI_UNIT ( $, .STERADIAN. ) SOLID_ANGLE_UNIT ( ) );
#258 = ORIENTED_EDGE ( 'NONE', *, *, #210, .T. ) ;
#259 = VECTOR ( 'NONE', #161, 39.37007874015748143 ) ;
#260 = AXIS2_PLACEMENT_3D ( 'NONE', #150, #237, #34 ) ;
#261 = DIRECTION ( 'NONE',  ( -1.224646799147353700E-16, -0.0000000000000000000, -1.000000000000000000 ) ) ;
#262 = FACE_OUTER_BOUND ( 'NONE', #143, .T. ) ;
#263 = EDGE_CURVE ( 'NONE', #12, #128, #107, .T. ) ;
#264 = FACE_OUTER_BOUND ( 'NONE', #170, .T. ) ;
#265 = FILL_AREA_STYLE_COLOUR ( '', #247 ) ;
#266 = CONICAL_SURFACE ( 'NONE', #71, 0.003996000000000000420, 0.1745329251994338915 ) ;
#267 = APPLICATION_PROTOCOL_DEFINITION ( 'draft international standard', 'automotive_design', 1998, #62 ) ;
#268 = SURFACE_SIDE_STYLE ('',( #196 ) ) ;
#269 = ADVANCED_BREP_SHAPE_REPRESENTATION ( 'Micro_SME-008-2', ( #215, #43 ), #154 ) ;
#270 = VECTOR ( 'NONE', #281, 39.37007874015748854 ) ;
#271 = CARTESIAN_POINT ( 'NONE',  ( 5.993040091516783558E-35, 0.0000000000000000000, 4.893688609392821262E-19 ) ) ;
#272 = CIRCLE ( 'NONE', #37, 0.04750000000000064587 ) ;
#273 = EDGE_CURVE ( 'NONE', #292, #128, #139, .T. ) ;
#274 = DIRECTION ( 'NONE',  ( -1.224646799147353700E-16, -0.0000000000000000000, -1.000000000000000000 ) ) ;
#275 = EDGE_CURVE ( 'NONE', #91, #128, #174, .T. ) ;
#276 = LINE ( 'NONE', #190, #9 ) ;
#277 = EDGE_LOOP ( 'NONE', ( #23, #162 ) ) ;
#278 = CARTESIAN_POINT ( 'NONE',  ( -0.04750000000000064587, 0.0000000000000000000, 1.500000000000000222 ) ) ;
#279 = ORIENTED_EDGE ( 'NONE', *, *, #208, .F. ) ;
#280 = CIRCLE ( 'NONE', #260, 0.003996000000000000420 ) ;
#281 = DIRECTION ( 'NONE',  ( 0.7071067811865462405, 8.659560562354916834E-17, -0.7071067811865486830 ) ) ;
#282 = ORIENTED_EDGE ( 'NONE', *, *, #136, .F. ) ;
#283 = DIRECTION ( 'NONE',  ( -1.224646799147353700E-16, -0.0000000000000000000, -1.000000000000000000 ) ) ;
#284 = ADVANCED_FACE ( 'NONE', ( #262 ), #222, .T. ) ;
#285 = LINE ( 'NONE', #61, #116 ) ;
#286 = AXIS2_PLACEMENT_3D ( 'NONE', #82, #197, #289 ) ;
#287 = AXIS2_PLACEMENT_3D ( 'NONE', #195, #83, #36 ) ;
#288 =( CONVERSION_BASED_UNIT ( 'INCH', #67 ) LENGTH_UNIT ( ) NAMED_UNIT ( #40 ) );
#289 = DIRECTION ( 'NONE',  ( -1.000000000000000000, 0.0000000000000000000, 0.0000000000000000000 ) ) ;
#290 = FACE_OUTER_BOUND ( 'NONE', #6, .T. ) ;
#291 = UNCERTAINTY_MEASURE_WITH_UNIT (LENGTH_MEASURE( 1.000000000000000082E-05 ), #288, 'distance_accuracy_value', 'NONE');
#292 = VERTEX_POINT ( 'NONE', #58 ) ;
#293 = VECTOR ( 'NONE', #2, 39.37007874015748854 ) ;
#294 = EDGE_CURVE ( 'NONE', #8, #12, #280, .T. ) ;
#295 =( NAMED_UNIT ( * ) PLANE_ANGLE_UNIT ( ) SI_UNIT ( $, .RADIAN. ) );
#296 = AXIS2_PLACEMENT_3D ( 'NONE', #240, #113, #176 ) ;
#297 = STYLED_ITEM ( 'NONE', ( #114 ), #269 ) ;
#298 = ORIENTED_EDGE ( 'NONE', *, *, #275, .T. ) ;
#299 = EDGE_CURVE ( 'NONE', #12, #186, #285, .T. ) ;
ENDSEC;
END-ISO-10303-21;
