ISO-10303-21;
HEADER;
FILE_DESCRIPTION (( 'STEP AP214' ),
    '1' );
FILE_NAME ('Micro_RNCM-100-1.STEP',
    '2021-09-03T17:42:59',
    ( '' ),
    ( '' ),
    'SwSTEP 2.0',
    'SolidWorks 2020',
    '' );
FILE_SCHEMA (( 'AUTOMOTIVE_DESIGN' ));
ENDSEC;

DATA;
#1 = AXIS2_PLACEMENT_3D ( 'NONE', #135, #201, #239 ) ;
#2 = CARTESIAN_POINT ( 'NONE',  ( 0.1968504999999999838, 2.410723347355560646E-17, 0.1929134999999992106 ) ) ;
#3 = VECTOR ( 'NONE', #55, 39.37007874015748143 ) ;
#4 = EDGE_CURVE ( 'NONE', #151, #41, #40, .T. ) ;
#5 = UNCERTAINTY_MEASURE_WITH_UNIT (LENGTH_MEASURE( 1.000000000000000082E-05 ), #118, 'distance_accuracy_value', 'NONE');
#6 = CARTESIAN_POINT ( 'NONE',  ( 0.0000000000000000000, 0.0000000000000000000, 0.0000000000000000000 ) ) ;
#7 =( NAMED_UNIT ( * ) PLANE_ANGLE_UNIT ( ) SI_UNIT ( $, .RADIAN. ) );
#8 = APPLICATION_CONTEXT ( 'automotive_design' ) ;
#9 = DIRECTION ( 'NONE',  ( 1.000000000000000000, 0.0000000000000000000, 0.0000000000000000000 ) ) ;
#10 = CARTESIAN_POINT ( 'NONE',  ( 0.0000000000000000000, 0.0000000000000000000, 2.834646000000000665 ) ) ;
#11 = DIMENSIONAL_EXPONENTS ( 1.000000000000000000, 0.0000000000000000000, 0.0000000000000000000, 0.0000000000000000000, 0.0000000000000000000, 0.0000000000000000000, 0.0000000000000000000 ) ;
#12 = ADVANCED_FACE ( 'NONE', ( #102 ), #101, .T. ) ;
#13 = CARTESIAN_POINT ( 'NONE',  ( 0.1818505000000002481, 2.318874837419510283E-17, 2.834646000000000665 ) ) ;
#14 = FACE_OUTER_BOUND ( 'NONE', #16, .T. ) ;
#15 = LINE ( 'NONE', #168, #142 ) ;
#16 = EDGE_LOOP ( 'NONE', ( #99, #44, #171, #137 ) ) ;
#17 = CIRCLE ( 'NONE', #184, 0.1818505000000002481 ) ;
#18 = DIRECTION ( 'NONE',  ( -0.0000000000000000000, -0.0000000000000000000, -1.000000000000000000 ) ) ;
#19 = ORIENTED_EDGE ( 'NONE', *, *, #23, .T. ) ;
#20 = DIRECTION ( 'NONE',  ( -0.7071067811865490160, 8.659560562354951347E-17, 0.7071067811865460184 ) ) ;
#21 = VERTEX_POINT ( 'NONE', #200 ) ;
#22 = DIRECTION ( 'NONE',  ( -1.000000000000000000, 0.0000000000000000000, 0.0000000000000000000 ) ) ;
#23 = EDGE_CURVE ( 'NONE', #126, #204, #15, .T. ) ;
#24 = DIRECTION ( 'NONE',  ( -0.0000000000000000000, -0.0000000000000000000, -1.000000000000000000 ) ) ;
#25 = PRODUCT_DEFINITION_SHAPE ( 'NONE', 'NONE',  #182 ) ;
#26 = FILL_AREA_STYLE_COLOUR ( '', #136 ) ;
#27 = PRODUCT_CONTEXT ( 'NONE', #8, 'mechanical' ) ;
#28 = PRESENTATION_LAYER_ASSIGNMENT (  '', '', ( #113 ) ) ;
#29 = DIRECTION ( 'NONE',  ( 0.0000000000000000000, 0.0000000000000000000, -1.000000000000000000 ) ) ;
#30 = CARTESIAN_POINT ( 'NONE',  ( 0.1818505000000002481, 2.227026327483460228E-17, 2.834646000000000665 ) ) ;
#31 = EDGE_CURVE ( 'NONE', #60, #87, #76, .T. ) ;
#32 = CARTESIAN_POINT ( 'NONE',  ( 0.1968504999999999838, 2.410723347355560646E-17, 2.819646000000000097 ) ) ;
#33 = MECHANICAL_DESIGN_GEOMETRIC_PRESENTATION_REPRESENTATION (  '', ( #113 ), #242 ) ;
#34 = CARTESIAN_POINT ( 'NONE',  ( -0.1968504999999999838, 0.0000000000000000000, 2.819646000000000097 ) ) ;
#35 = LENGTH_MEASURE_WITH_UNIT ( LENGTH_MEASURE( 0.02539999999999999897 ), #167 );
#36 = CARTESIAN_POINT ( 'NONE',  ( -0.1968504999999999838, 0.0000000000000000000, 2.834646000000000665 ) ) ;
#37 = AXIS2_PLACEMENT_3D ( 'NONE', #97, #79, #148 ) ;
#38 =( GEOMETRIC_REPRESENTATION_CONTEXT ( 3 ) GLOBAL_UNCERTAINTY_ASSIGNED_CONTEXT ( ( #5 ) ) GLOBAL_UNIT_ASSIGNED_CONTEXT ( ( #118, #131, #54 ) ) REPRESENTATION_CONTEXT ( 'NONE', 'WORKASPACE' ) );
#39 = APPLICATION_CONTEXT ( 'automotive_design' ) ;
#40 = LINE ( 'NONE', #191, #207 ) ;
#41 = VERTEX_POINT ( 'NONE', #86 ) ;
#42 = ADVANCED_FACE ( 'NONE', ( #245 ), #233, .T. ) ;
#43 = ORIENTED_EDGE ( 'NONE', *, *, #185, .F. ) ;
#44 = ORIENTED_EDGE ( 'NONE', *, *, #235, .T. ) ;
#45 = DIRECTION ( 'NONE',  ( -0.7071067811865354713, 0.0000000000000000000, -0.7071067811865594521 ) ) ;
#46 = ORIENTED_EDGE ( 'NONE', *, *, #31, .T. ) ;
#47 = DIRECTION ( 'NONE',  ( -0.0000000000000000000, -0.0000000000000000000, -1.000000000000000000 ) ) ;
#48 = DIRECTION ( 'NONE',  ( 0.0000000000000000000, 0.0000000000000000000, 1.000000000000000000 ) ) ;
#49 = AXIS2_PLACEMENT_3D ( 'NONE', #147, #47, #73 ) ;
#50 = DIRECTION ( 'NONE',  ( -0.0000000000000000000, -0.0000000000000000000, -1.000000000000000000 ) ) ;
#51 = DIRECTION ( 'NONE',  ( 0.0000000000000000000, 0.0000000000000000000, 1.000000000000000000 ) ) ;
#52 = FACE_OUTER_BOUND ( 'NONE', #154, .T. ) ;
#53 = AXIS2_PLACEMENT_3D ( 'NONE', #103, #24, #178 ) ;
#54 =( NAMED_UNIT ( * ) SI_UNIT ( $, .STERADIAN. ) SOLID_ANGLE_UNIT ( ) );
#55 = DIRECTION ( 'NONE',  ( -0.0000000000000000000, -0.0000000000000000000, -1.000000000000000000 ) ) ;
#56 = AXIS2_PLACEMENT_3D ( 'NONE', #105, #48, #106 ) ;
#57 = EDGE_LOOP ( 'NONE', ( #156, #230, #194, #61 ) ) ;
#58 = PRODUCT ( 'Micro_RNCM-100-1', 'Micro_RNCM-100-1', '', ( #27 ) ) ;
#59 = EDGE_LOOP ( 'NONE', ( #43, #190, #177, #175 ) ) ;
#60 = VERTEX_POINT ( 'NONE', #193 ) ;
#61 = ORIENTED_EDGE ( 'NONE', *, *, #31, .F. ) ;
#62 = SURFACE_STYLE_FILL_AREA ( #227 ) ;
#63 = SURFACE_STYLE_USAGE ( .BOTH. , #228 ) ;
#64 = CARTESIAN_POINT ( 'NONE',  ( 0.0000000000000000000, 0.0000000000000000000, 0.0000000000000000000 ) ) ;
#65 = APPLICATION_PROTOCOL_DEFINITION ( 'draft international standard', 'automotive_design', 1998, #8 ) ;
#66 = EDGE_CURVE ( 'NONE', #204, #41, #100, .T. ) ;
#67 =( NAMED_UNIT ( * ) SI_UNIT ( $, .STERADIAN. ) SOLID_ANGLE_UNIT ( ) );
#68 = CARTESIAN_POINT ( 'NONE',  ( 0.0000000000000000000, 0.0000000000000000000, 2.834646000000000665 ) ) ;
#69 = EDGE_CURVE ( 'NONE', #21, #151, #90, .T. ) ;
#70 =( CONVERSION_BASED_UNIT ( 'INCH', #161 ) LENGTH_UNIT ( ) NAMED_UNIT ( #92 ) );
#71 = MANIFOLD_SOLID_BREP ( 'Cut-Revolve1', #183 ) ;
#72 = PRODUCT_DEFINITION_CONTEXT ( 'detailed design', #39, 'design' ) ;
#73 = DIRECTION ( 'NONE',  ( -1.000000000000000000, 0.0000000000000000000, 0.0000000000000000000 ) ) ;
#74 = ADVANCED_FACE ( 'NONE', ( #188 ), #217, .T. ) ;
#75 = CIRCLE ( 'NONE', #49, 0.1968504999999999838 ) ;
#76 = LINE ( 'NONE', #146, #169 ) ;
#77 = FACE_OUTER_BOUND ( 'NONE', #144, .T. ) ;
#78 = DIRECTION ( 'NONE',  ( 0.7071067811865490160, 0.0000000000000000000, 0.7071067811865460184 ) ) ;
#79 = DIRECTION ( 'NONE',  ( 0.0000000000000000000, 0.0000000000000000000, 1.000000000000000000 ) ) ;
#80 = CARTESIAN_POINT ( 'NONE',  ( 0.0000000000000000000, 0.0000000000000000000, 2.834646000000000665 ) ) ;
#81 = FACE_OUTER_BOUND ( 'NONE', #57, .T. ) ;
#82 = DIMENSIONAL_EXPONENTS ( 1.000000000000000000, 0.0000000000000000000, 0.0000000000000000000, 0.0000000000000000000, 0.0000000000000000000, 0.0000000000000000000, 0.0000000000000000000 ) ;
#83 = AXIS2_PLACEMENT_3D ( 'NONE', #64, #176, #231 ) ;
#84 = ORIENTED_EDGE ( 'NONE', *, *, #69, .T. ) ;
#85 = ORIENTED_EDGE ( 'NONE', *, *, #206, .F. ) ;
#86 = CARTESIAN_POINT ( 'NONE',  ( -0.1968504999999999838, 0.0000000000000000000, 0.1929134999999992106 ) ) ;
#87 = VERTEX_POINT ( 'NONE', #34 ) ;
#88 =( NAMED_UNIT ( * ) PLANE_ANGLE_UNIT ( ) SI_UNIT ( $, .RADIAN. ) );
#89 = PRESENTATION_STYLE_ASSIGNMENT (( #63 ) ) ;
#90 = CIRCLE ( 'NONE', #83, 0.003936999999999995191 ) ;
#91 = CYLINDRICAL_SURFACE ( 'NONE', #211, 0.1968504999999999838 ) ;
#92 = DIMENSIONAL_EXPONENTS ( 1.000000000000000000, 0.0000000000000000000, 0.0000000000000000000, 0.0000000000000000000, 0.0000000000000000000, 0.0000000000000000000, 0.0000000000000000000 ) ;
#93 = AXIS2_PLACEMENT_3D ( 'NONE', #138, #29, #197 ) ;
#94 = LINE ( 'NONE', #30, #120 ) ;
#95 = CARTESIAN_POINT ( 'NONE',  ( 0.0000000000000000000, 0.0000000000000000000, 2.819646000000000097 ) ) ;
#96 = DIRECTION ( 'NONE',  ( -0.0000000000000000000, -0.0000000000000000000, -1.000000000000000000 ) ) ;
#97 = CARTESIAN_POINT ( 'NONE',  ( 0.0000000000000000000, 0.0000000000000000000, 0.0000000000000000000 ) ) ;
#98 = CYLINDRICAL_SURFACE ( 'NONE', #164, 0.1968504999999999838 ) ;
#99 = ORIENTED_EDGE ( 'NONE', *, *, #23, .F. ) ;
#100 = CIRCLE ( 'NONE', #53, 0.1968504999999999838 ) ;
#101 = PLANE ( 'NONE',  #112 ) ;
#102 = FACE_OUTER_BOUND ( 'NONE', #172, .T. ) ;
#103 = CARTESIAN_POINT ( 'NONE',  ( 0.0000000000000000000, 0.0000000000000000000, 0.1929134999999992106 ) ) ;
#104 = CIRCLE ( 'NONE', #202, 0.003936999999999995191 ) ;
#105 = CARTESIAN_POINT ( 'NONE',  ( 0.0000000000000000000, 0.0000000000000000000, 0.0000000000000000000 ) ) ;
#106 = DIRECTION ( 'NONE',  ( 1.000000000000000000, 0.0000000000000000000, 0.0000000000000000000 ) ) ;
#107 =( LENGTH_UNIT ( ) NAMED_UNIT ( * ) SI_UNIT ( $, .METRE. ) );
#108 = PRESENTATION_LAYER_ASSIGNMENT (  '', '', ( #116 ) ) ;
#109 = SHAPE_DEFINITION_REPRESENTATION ( #25, #237 ) ;
#110 = CARTESIAN_POINT ( 'NONE',  ( 0.0000000000000000000, 0.0000000000000000000, 0.0000000000000000000 ) ) ;
#111 = DIRECTION ( 'NONE',  ( 1.000000000000000000, 0.0000000000000000000, 0.0000000000000000000 ) ) ;
#112 = AXIS2_PLACEMENT_3D ( 'NONE', #173, #244, #226 ) ;
#113 = STYLED_ITEM ( 'NONE', ( #89 ), #237 ) ;
#114 = SURFACE_SIDE_STYLE ('',( #62 ) ) ;
#115 = DIRECTION ( 'NONE',  ( 0.7071067811865354713, 8.659560562354783714E-17, -0.7071067811865594521 ) ) ;
#116 = STYLED_ITEM ( 'NONE', ( #186 ), #71 ) ;
#117 = EDGE_CURVE ( 'NONE', #87, #126, #187, .T. ) ;
#118 =( CONVERSION_BASED_UNIT ( 'INCH', #35 ) LENGTH_UNIT ( ) NAMED_UNIT ( #82 ) );
#119 = SURFACE_STYLE_USAGE ( .BOTH. , #114 ) ;
#120 = VECTOR ( 'NONE', #115, 39.37007874015748854 ) ;
#121 = ORIENTED_EDGE ( 'NONE', *, *, #4, .F. ) ;
#122 = VERTEX_POINT ( 'NONE', #13 ) ;
#123 = EDGE_LOOP ( 'NONE', ( #247, #205, #46, #203 ) ) ;
#124 = DIRECTION ( 'NONE',  ( 0.0000000000000000000, 0.0000000000000000000, -1.000000000000000000 ) ) ;
#125 = VECTOR ( 'NONE', #78, 39.37007874015748143 ) ;
#126 = VERTEX_POINT ( 'NONE', #32 ) ;
#127 =( CONVERSION_BASED_UNIT ( 'INCH', #249 ) LENGTH_UNIT ( ) NAMED_UNIT ( #11 ) );
#128 = ADVANCED_FACE ( 'NONE', ( #81 ), #208, .T. ) ;
#129 = AXIS2_PLACEMENT_3D ( 'NONE', #198, #222, #170 ) ;
#130 = EDGE_CURVE ( 'NONE', #21, #204, #166, .T. ) ;
#131 =( NAMED_UNIT ( * ) PLANE_ANGLE_UNIT ( ) SI_UNIT ( $, .RADIAN. ) );
#132 = EDGE_CURVE ( 'NONE', #87, #41, #189, .T. ) ;
#133 = CARTESIAN_POINT ( 'NONE',  ( -0.003936999999999995191, 1.229468845918995738E-17, 0.0000000000000000000 ) ) ;
#134 = MECHANICAL_DESIGN_GEOMETRIC_PRESENTATION_REPRESENTATION (  '', ( #116 ), #38 ) ;
#135 = CARTESIAN_POINT ( 'NONE',  ( 0.0000000000000000000, 0.0000000000000000000, 2.834646000000000665 ) ) ;
#136 = COLOUR_RGB ( '',0.7921568627450980005, 0.8196078431372548767, 0.9333333333333333481 ) ;
#137 = ORIENTED_EDGE ( 'NONE', *, *, #66, .F. ) ;
#138 = CARTESIAN_POINT ( 'NONE',  ( 0.0000000000000000000, 0.0000000000000000000, 2.819646000000000097 ) ) ;
#139 = ORIENTED_EDGE ( 'NONE', *, *, #132, .F. ) ;
#140 = ORIENTED_EDGE ( 'NONE', *, *, #236, .T. ) ;
#141 = ORIENTED_EDGE ( 'NONE', *, *, #185, .T. ) ;
#142 = VECTOR ( 'NONE', #18, 39.37007874015748143 ) ;
#143 = PRODUCT_DEFINITION_FORMATION_WITH_SPECIFIED_SOURCE ( 'ANY', '', #58, .NOT_KNOWN. ) ;
#144 = EDGE_LOOP ( 'NONE', ( #121, #155, #223, #229 ) ) ;
#145 = DIRECTION ( 'NONE',  ( 1.000000000000000000, 0.0000000000000000000, 0.0000000000000000000 ) ) ;
#146 = CARTESIAN_POINT ( 'NONE',  ( -0.1818505000000002481, 0.0000000000000000000, 2.834646000000000665 ) ) ;
#147 = CARTESIAN_POINT ( 'NONE',  ( 0.0000000000000000000, 0.0000000000000000000, 0.1929134999999992106 ) ) ;
#148 = DIRECTION ( 'NONE',  ( 1.000000000000000000, 0.0000000000000000000, -0.0000000000000000000 ) ) ;
#149 = DIRECTION ( 'NONE',  ( -0.0000000000000000000, -0.0000000000000000000, -1.000000000000000000 ) ) ;
#150 = CIRCLE ( 'NONE', #93, 0.1968504999999999838 ) ;
#151 = VERTEX_POINT ( 'NONE', #133 ) ;
#152 = COLOUR_RGB ( '',0.7921568627450980005, 0.8196078431372548767, 0.9333333333333333481 ) ;
#153 = FILL_AREA_STYLE_COLOUR ( '', #152 ) ;
#154 = EDGE_LOOP ( 'NONE', ( #210, #19, #85, #139 ) ) ;
#155 = ORIENTED_EDGE ( 'NONE', *, *, #69, .F. ) ;
#156 = ORIENTED_EDGE ( 'NONE', *, *, #236, .F. ) ;
#157 = AXIS2_PLACEMENT_3D ( 'NONE', #192, #124, #22 ) ;
#158 =( NAMED_UNIT ( * ) SI_UNIT ( $, .STERADIAN. ) SOLID_ANGLE_UNIT ( ) );
#159 = DIRECTION ( 'NONE',  ( 1.000000000000000000, 0.0000000000000000000, 0.0000000000000000000 ) ) ;
#160 = UNCERTAINTY_MEASURE_WITH_UNIT (LENGTH_MEASURE( 1.000000000000000082E-05 ), #70, 'distance_accuracy_value', 'NONE');
#161 = LENGTH_MEASURE_WITH_UNIT ( LENGTH_MEASURE( 0.02539999999999999897 ), #212 );
#162 = PRODUCT_RELATED_PRODUCT_CATEGORY ( 'part', '', ( #58 ) ) ;
#163 = UNCERTAINTY_MEASURE_WITH_UNIT (LENGTH_MEASURE( 1.000000000000000082E-05 ), #127, 'distance_accuracy_value', 'NONE');
#164 = AXIS2_PLACEMENT_3D ( 'NONE', #80, #149, #248 ) ;
#165 = ADVANCED_FACE ( 'NONE', ( #14 ), #98, .T. ) ;
#166 = LINE ( 'NONE', #240, #125 ) ;
#167 =( LENGTH_UNIT ( ) NAMED_UNIT ( * ) SI_UNIT ( $, .METRE. ) );
#168 = CARTESIAN_POINT ( 'NONE',  ( 0.1968504999999999838, 2.410723347355560646E-17, 2.834646000000000665 ) ) ;
#169 = VECTOR ( 'NONE', #45, 39.37007874015748854 ) ;
#170 = DIRECTION ( 'NONE',  ( 1.000000000000000000, 0.0000000000000000000, 0.0000000000000000000 ) ) ;
#171 = ORIENTED_EDGE ( 'NONE', *, *, #132, .T. ) ;
#172 = EDGE_LOOP ( 'NONE', ( #225, #140 ) ) ;
#173 = CARTESIAN_POINT ( 'NONE',  ( 0.0000000000000000000, 0.0000000000000000000, 2.834646000000000665 ) ) ;
#174 = ADVANCED_FACE ( 'NONE', ( #52 ), #91, .T. ) ;
#175 = ORIENTED_EDGE ( 'NONE', *, *, #130, .F. ) ;
#176 = DIRECTION ( 'NONE',  ( -0.0000000000000000000, -0.0000000000000000000, -1.000000000000000000 ) ) ;
#177 = ORIENTED_EDGE ( 'NONE', *, *, #206, .T. ) ;
#178 = DIRECTION ( 'NONE',  ( -1.000000000000000000, 0.0000000000000000000, 0.0000000000000000000 ) ) ;
#179 = DIRECTION ( 'NONE',  ( 0.0000000000000000000, 0.0000000000000000000, 1.000000000000000000 ) ) ;
#180 = AXIS2_PLACEMENT_3D ( 'NONE', #6, #238, #111 ) ;
#181 = CONICAL_SURFACE ( 'NONE', #180, 0.003936999999999995191, 0.7853981633974503884 ) ;
#182 = PRODUCT_DEFINITION ( 'UNKNOWN', '', #143, #72 ) ;
#183 = CLOSED_SHELL ( 'NONE', ( #74, #128, #174, #165, #12, #42, #213, #220 ) ) ;
#184 = AXIS2_PLACEMENT_3D ( 'NONE', #68, #51, #159 ) ;
#185 = EDGE_CURVE ( 'NONE', #151, #21, #104, .T. ) ;
#186 = PRESENTATION_STYLE_ASSIGNMENT (( #119 ) ) ;
#187 = CIRCLE ( 'NONE', #221, 0.1968504999999999838 ) ;
#188 = FACE_OUTER_BOUND ( 'NONE', #59, .T. ) ;
#189 = LINE ( 'NONE', #36, #3 ) ;
#190 = ORIENTED_EDGE ( 'NONE', *, *, #4, .T. ) ;
#191 = CARTESIAN_POINT ( 'NONE',  ( -0.003936999999999995191, 4.821434448243123477E-19, 0.0000000000000000000 ) ) ;
#192 = CARTESIAN_POINT ( 'NONE',  ( 0.0000000000000000000, 0.0000000000000000000, 2.834646000000000665 ) ) ;
#193 = CARTESIAN_POINT ( 'NONE',  ( -0.1818505000000002481, 0.0000000000000000000, 2.834646000000000665 ) ) ;
#194 = ORIENTED_EDGE ( 'NONE', *, *, #117, .F. ) ;
#195 = FILL_AREA_STYLE ('',( #26 ) ) ;
#196 = AXIS2_PLACEMENT_3D ( 'NONE', #241, #179, #145 ) ;
#197 = DIRECTION ( 'NONE',  ( 1.000000000000000000, 0.0000000000000000000, 0.0000000000000000000 ) ) ;
#198 = CARTESIAN_POINT ( 'NONE',  ( 0.0000000000000000000, 0.0000000000000000000, 0.0000000000000000000 ) ) ;
#199 = EDGE_CURVE ( 'NONE', #60, #122, #246, .T. ) ;
#200 = CARTESIAN_POINT ( 'NONE',  ( 0.003936999999999995191, 0.0000000000000000000, 0.0000000000000000000 ) ) ;
#201 = DIRECTION ( 'NONE',  ( 0.0000000000000000000, 0.0000000000000000000, -1.000000000000000000 ) ) ;
#202 = AXIS2_PLACEMENT_3D ( 'NONE', #110, #96, #219 ) ;
#203 = ORIENTED_EDGE ( 'NONE', *, *, #235, .F. ) ;
#204 = VERTEX_POINT ( 'NONE', #2 ) ;
#205 = ORIENTED_EDGE ( 'NONE', *, *, #199, .F. ) ;
#206 = EDGE_CURVE ( 'NONE', #41, #204, #75, .T. ) ;
#207 = VECTOR ( 'NONE', #20, 39.37007874015748143 ) ;
#208 = CONICAL_SURFACE ( 'NONE', #1, 0.1818505000000002481, 0.7853981633974312926 ) ;
#209 = APPLICATION_PROTOCOL_DEFINITION ( 'draft international standard', 'automotive_design', 1998, #39 ) ;
#210 = ORIENTED_EDGE ( 'NONE', *, *, #117, .T. ) ;
#211 = AXIS2_PLACEMENT_3D ( 'NONE', #10, #50, #216 ) ;
#212 =( LENGTH_UNIT ( ) NAMED_UNIT ( * ) SI_UNIT ( $, .METRE. ) );
#213 = ADVANCED_FACE ( 'NONE', ( #77 ), #181, .T. ) ;
#214 = PLANE ( 'NONE',  #37 ) ;
#215 = EDGE_CURVE ( 'NONE', #122, #126, #94, .T. ) ;
#216 = DIRECTION ( 'NONE',  ( -1.000000000000000000, 0.0000000000000000000, 0.0000000000000000000 ) ) ;
#217 = CONICAL_SURFACE ( 'NONE', #129, 0.003936999999999995191, 0.7853981633974503884 ) ;
#218 = FACE_OUTER_BOUND ( 'NONE', #224, .T. ) ;
#219 = DIRECTION ( 'NONE',  ( -1.000000000000000000, 0.0000000000000000000, 0.0000000000000000000 ) ) ;
#220 = ADVANCED_FACE ( 'NONE', ( #218 ), #214, .F. ) ;
#221 = AXIS2_PLACEMENT_3D ( 'NONE', #95, #243, #9 ) ;
#222 = DIRECTION ( 'NONE',  ( 0.0000000000000000000, 0.0000000000000000000, 1.000000000000000000 ) ) ;
#223 = ORIENTED_EDGE ( 'NONE', *, *, #130, .T. ) ;
#224 = EDGE_LOOP ( 'NONE', ( #84, #141 ) ) ;
#225 = ORIENTED_EDGE ( 'NONE', *, *, #199, .T. ) ;
#226 = DIRECTION ( 'NONE',  ( 1.000000000000000000, 0.0000000000000000000, -0.0000000000000000000 ) ) ;
#227 = FILL_AREA_STYLE ('',( #153 ) ) ;
#228 = SURFACE_SIDE_STYLE ('',( #232 ) ) ;
#229 = ORIENTED_EDGE ( 'NONE', *, *, #66, .T. ) ;
#230 = ORIENTED_EDGE ( 'NONE', *, *, #215, .T. ) ;
#231 = DIRECTION ( 'NONE',  ( -1.000000000000000000, 0.0000000000000000000, 0.0000000000000000000 ) ) ;
#232 = SURFACE_STYLE_FILL_AREA ( #195 ) ;
#233 = CONICAL_SURFACE ( 'NONE', #157, 0.1818505000000002481, 0.7853981633974312926 ) ;
#234 =( GEOMETRIC_REPRESENTATION_CONTEXT ( 3 ) GLOBAL_UNCERTAINTY_ASSIGNED_CONTEXT ( ( #160 ) ) GLOBAL_UNIT_ASSIGNED_CONTEXT ( ( #70, #7, #158 ) ) REPRESENTATION_CONTEXT ( 'NONE', 'WORKASPACE' ) );
#235 = EDGE_CURVE ( 'NONE', #126, #87, #150, .T. ) ;
#236 = EDGE_CURVE ( 'NONE', #122, #60, #17, .T. ) ;
#237 = ADVANCED_BREP_SHAPE_REPRESENTATION ( 'Micro_RNCM-100-1', ( #71, #56 ), #234 ) ;
#238 = DIRECTION ( 'NONE',  ( 0.0000000000000000000, 0.0000000000000000000, 1.000000000000000000 ) ) ;
#239 = DIRECTION ( 'NONE',  ( -1.000000000000000000, 0.0000000000000000000, 0.0000000000000000000 ) ) ;
#240 = CARTESIAN_POINT ( 'NONE',  ( 0.003936999999999995191, 0.0000000000000000000, 0.0000000000000000000 ) ) ;
#241 = CARTESIAN_POINT ( 'NONE',  ( 0.0000000000000000000, 0.0000000000000000000, 2.834646000000000665 ) ) ;
#242 =( GEOMETRIC_REPRESENTATION_CONTEXT ( 3 ) GLOBAL_UNCERTAINTY_ASSIGNED_CONTEXT ( ( #163 ) ) GLOBAL_UNIT_ASSIGNED_CONTEXT ( ( #127, #88, #67 ) ) REPRESENTATION_CONTEXT ( 'NONE', 'WORKASPACE' ) );
#243 = DIRECTION ( 'NONE',  ( 0.0000000000000000000, 0.0000000000000000000, -1.000000000000000000 ) ) ;
#244 = DIRECTION ( 'NONE',  ( 0.0000000000000000000, 0.0000000000000000000, 1.000000000000000000 ) ) ;
#245 = FACE_OUTER_BOUND ( 'NONE', #123, .T. ) ;
#246 = CIRCLE ( 'NONE', #196, 0.1818505000000002481 ) ;
#247 = ORIENTED_EDGE ( 'NONE', *, *, #215, .F. ) ;
#248 = DIRECTION ( 'NONE',  ( -1.000000000000000000, 0.0000000000000000000, 0.0000000000000000000 ) ) ;
#249 = LENGTH_MEASURE_WITH_UNIT ( LENGTH_MEASURE( 0.02539999999999999897 ), #107 );
ENDSEC;
END-ISO-10303-21;
