ISO-10303-21;
HEADER;
FILE_DESCRIPTION (( 'STEP AP214' ),
    '1' );
FILE_NAME ('84599.STEP',
    '2023-07-12T13:10:06',
    ( '' ),
    ( '' ),
    'SwSTEP 2.0',
    'SolidWorks 2023',
    '' );
FILE_SCHEMA (( 'AUTOMOTIVE_DESIGN' ));
ENDSEC;

DATA;
#1 = EDGE_CURVE ( 'NONE', #266, #259, #289, .T. ) ;
#2 = CARTESIAN_POINT ( 'NONE',  ( 0.06249999999999997918, 1.500000000000000222, 0.000000000000000000 ) ) ;
#3 = VECTOR ( 'NONE', #216, 39.37007874015748854 ) ;
#4 = CIRCLE ( 'NONE', #131, 0.06249999999999992367 ) ;
#5 = FACE_OUTER_BOUND ( 'NONE', #14, .T. ) ;
#6 = DIRECTION ( 'NONE',  ( 9.656694405676853608E-33, -1.000000000000000000, -0.000000000000000000 ) ) ;
#7 = DIRECTION ( 'NONE',  ( -1.223378938303813434E-16, 1.000000000000000000, 0.000000000000000000 ) ) ;
#8 = EDGE_CURVE ( 'NONE', #115, #44, #118, .T. ) ;
#9 = MECHANICAL_DESIGN_GEOMETRIC_PRESENTATION_REPRESENTATION (  '', ( #282 ), #22 ) ;
#10 = PLANE ( 'NONE',  #85 ) ;
#11 = APPLICATION_PROTOCOL_DEFINITION ( 'draft international standard', 'automotive_design', 1998, #28 ) ;
#12 = CARTESIAN_POINT ( 'NONE',  ( -2.369500423704768587E-34, 0.02453738644055896562, 0.000000000000000000 ) ) ;
#13 = PRESENTATION_STYLE_ASSIGNMENT (( #213 ) ) ;
#14 = EDGE_LOOP ( 'NONE', ( #166, #117 ) ) ;
#15 =( CONVERSION_BASED_UNIT ( 'INCH', #175 ) LENGTH_UNIT ( ) NAMED_UNIT ( #225 ) );
#16 = ORIENTED_EDGE ( 'NONE', *, *, #302, .T. ) ;
#17 = DIRECTION ( 'NONE',  ( -1.000000000000000000, 0.000000000000000000, 0.000000000000000000 ) ) ;
#18 =( LENGTH_UNIT ( ) NAMED_UNIT ( * ) SI_UNIT ( $, .METRE. ) );
#19 = ORIENTED_EDGE ( 'NONE', *, *, #34, .T. ) ;
#20 = DIRECTION ( 'NONE',  ( 1.000000000000000000, 0.000000000000000000, 0.000000000000000000 ) ) ;
#21 = CLOSED_SHELL ( 'NONE', ( #24, #252, #51, #291 ) ) ;
#22 =( GEOMETRIC_REPRESENTATION_CONTEXT ( 3 ) GLOBAL_UNCERTAINTY_ASSIGNED_CONTEXT ( ( #234 ) ) GLOBAL_UNIT_ASSIGNED_CONTEXT ( ( #227, #35, #228 ) ) REPRESENTATION_CONTEXT ( 'NONE', 'WORKASPACE' ) );
#23 = CARTESIAN_POINT ( 'NONE',  ( -0.06249999999999977796, 1.500000000000000222, 0.000000000000000000 ) ) ;
#24 = ADVANCED_FACE ( 'NONE', ( #298 ), #183, .T. ) ;
#25 = CARTESIAN_POINT ( 'NONE',  ( 0.06250000000000001388, 0.02453738644055896562, 7.654042494670959086E-18 ) ) ;
#26 = STYLED_ITEM ( 'NONE', ( #79 ), #252 ) ;
#27 = DIRECTION ( 'NONE',  ( 1.000000000000000000, 9.656694405676853608E-33, 0.000000000000000000 ) ) ;
#28 = APPLICATION_CONTEXT ( 'automotive_design' ) ;
#29 = SURFACE_STYLE_USAGE ( .BOTH. , #134 ) ;
#30 = AXIS2_PLACEMENT_3D ( 'NONE', #283, #127, #171 ) ;
#31 = ORIENTED_EDGE ( 'NONE', *, *, #60, .T. ) ;
#32 = DIRECTION ( 'NONE',  ( 0.8660254037844397068, 0.4999999999999979461, 1.060575238724908024E-16 ) ) ;
#33 = CARTESIAN_POINT ( 'NONE',  ( 2.417373285256995277E-16, 0.02453738644055896215, 0.000000000000000000 ) ) ;
#34 = EDGE_CURVE ( 'NONE', #276, #279, #140, .T. ) ;
#35 =( NAMED_UNIT ( * ) PLANE_ANGLE_UNIT ( ) SI_UNIT ( $, .RADIAN. ) );
#36 =( GEOMETRIC_REPRESENTATION_CONTEXT ( 3 ) GLOBAL_UNCERTAINTY_ASSIGNED_CONTEXT ( ( #88 ) ) GLOBAL_UNIT_ASSIGNED_CONTEXT ( ( #15, #143, #186 ) ) REPRESENTATION_CONTEXT ( 'NONE', 'WORKASPACE' ) );
#37 = PRODUCT_DEFINITION ( 'UNKNOWN', '', #306, #55 ) ;
#38 = EDGE_CURVE ( 'NONE', #279, #44, #149, .T. ) ;
#39 = SURFACE_SIDE_STYLE ('',( #211 ) ) ;
#40 = FILL_AREA_STYLE_COLOUR ( '', #223 ) ;
#41 = ORIENTED_EDGE ( 'NONE', *, *, #287, .F. ) ;
#42 = MECHANICAL_DESIGN_GEOMETRIC_PRESENTATION_REPRESENTATION (  '', ( #26 ), #36 ) ;
#43 = EDGE_LOOP ( 'NONE', ( #19, #69, #229, #62 ) ) ;
#44 = VERTEX_POINT ( 'NONE', #128 ) ;
#45 =( NAMED_UNIT ( * ) SI_UNIT ( $, .STERADIAN. ) SOLID_ANGLE_UNIT ( ) );
#46 = DIRECTION ( 'NONE',  ( -1.223378938303813434E-16, 1.000000000000000000, -0.000000000000000000 ) ) ;
#47 = CARTESIAN_POINT ( 'NONE',  ( 9.325174684463064220E-67, -9.656694405676852667E-35, 0.000000000000000000 ) ) ;
#48 = LINE ( 'NONE', #121, #3 ) ;
#49 = AXIS2_PLACEMENT_3D ( 'NONE', #2, #230, #106 ) ;
#50 = MECHANICAL_DESIGN_GEOMETRIC_PRESENTATION_REPRESENTATION (  '', ( #155 ), #150 ) ;
#51 = ADVANCED_FACE ( 'NONE', ( #189 ), #264, .T. ) ;
#52 = FACE_OUTER_BOUND ( 'NONE', #113, .T. ) ;
#53 =( CONVERSION_BASED_UNIT ( 'INCH', #105 ) LENGTH_UNIT ( ) NAMED_UNIT ( #265 ) );
#54 =( LENGTH_UNIT ( ) NAMED_UNIT ( * ) SI_UNIT ( $, .METRE. ) );
#55 = PRODUCT_DEFINITION_CONTEXT ( 'detailed design', #28, 'design' ) ;
#56 = DIMENSIONAL_EXPONENTS ( 1.000000000000000000, 0.000000000000000000, 0.000000000000000000, 0.000000000000000000, 0.000000000000000000, 0.000000000000000000, 0.000000000000000000 ) ;
#57 = APPLICATION_PROTOCOL_DEFINITION ( 'draft international standard', 'automotive_design', 1998, #87 ) ;
#58 = LINE ( 'NONE', #173, #209 ) ;
#59 = AXIS2_PLACEMENT_3D ( 'NONE', #192, #77, #284 ) ;
#60 = EDGE_CURVE ( 'NONE', #276, #115, #217, .T. ) ;
#61 = COLOUR_RGB ( '',1.000000000000000000, 0.000000000000000000, 0.000000000000000000 ) ;
#62 = ORIENTED_EDGE ( 'NONE', *, *, #60, .F. ) ;
#63 =( NAMED_UNIT ( * ) PLANE_ANGLE_UNIT ( ) SI_UNIT ( $, .RADIAN. ) );
#64 = EDGE_LOOP ( 'NONE', ( #241, #187, #260, #256 ) ) ;
#65 = PLANE ( 'NONE',  #295 ) ;
#66 = SURFACE_STYLE_FILL_AREA ( #96 ) ;
#67 =( GEOMETRIC_REPRESENTATION_CONTEXT ( 3 ) GLOBAL_UNCERTAINTY_ASSIGNED_CONTEXT ( ( #174 ) ) GLOBAL_UNIT_ASSIGNED_CONTEXT ( ( #293, #63, #168 ) ) REPRESENTATION_CONTEXT ( 'NONE', 'WORKASPACE' ) );
#68 = UNCERTAINTY_MEASURE_WITH_UNIT (LENGTH_MEASURE( 1.000000000000000082E-05 ), #151, 'distance_accuracy_value', 'NONE');
#69 = ORIENTED_EDGE ( 'NONE', *, *, #38, .T. ) ;
#70 = SURFACE_SIDE_STYLE ('',( #262 ) ) ;
#71 = STYLED_ITEM ( 'NONE', ( #72 ), #51 ) ;
#72 = PRESENTATION_STYLE_ASSIGNMENT (( #172 ) ) ;
#73 = DIRECTION ( 'NONE',  ( 9.656694405676853608E-33, -1.000000000000000000, -0.000000000000000000 ) ) ;
#74 =( LENGTH_UNIT ( ) NAMED_UNIT ( * ) SI_UNIT ( $, .METRE. ) );
#75 = PRODUCT_DEFINITION_SHAPE ( 'NONE', 'NONE',  #37 ) ;
#76 = CYLINDRICAL_SURFACE ( 'NONE', #30, 0.06249999999999984041 ) ;
#77 = DIRECTION ( 'NONE',  ( -9.656694405676853608E-33, 1.000000000000000000, 0.000000000000000000 ) ) ;
#78 = DIRECTION ( 'NONE',  ( -1.223378938303813434E-16, 1.000000000000000000, -0.000000000000000000 ) ) ;
#79 = PRESENTATION_STYLE_ASSIGNMENT (( #271 ) ) ;
#80 = VERTEX_POINT ( 'NONE', #25 ) ;
#81 = UNCERTAINTY_MEASURE_WITH_UNIT (LENGTH_MEASURE( 1.000000000000000082E-05 ), #116, 'distance_accuracy_value', 'NONE');
#82 = FACE_OUTER_BOUND ( 'NONE', #167, .T. ) ;
#83 = CARTESIAN_POINT ( 'NONE',  ( 6.123233995736763571E-17, 1.500000000000000222, 0.000000000000000000 ) ) ;
#84 = PRESENTATION_LAYER_ASSIGNMENT (  '', '', ( #71 ) ) ;
#85 = AXIS2_PLACEMENT_3D ( 'NONE', #33, #7, #107 ) ;
#86 = FILL_AREA_STYLE ('',( #129 ) ) ;
#87 = APPLICATION_CONTEXT ( 'automotive_design' ) ;
#88 = UNCERTAINTY_MEASURE_WITH_UNIT (LENGTH_MEASURE( 1.000000000000000082E-05 ), #15, 'distance_accuracy_value', 'NONE');
#89 = LENGTH_MEASURE_WITH_UNIT ( LENGTH_MEASURE( 0.02539999999999999897 ), #294 );
#90 = MECHANICAL_DESIGN_GEOMETRIC_PRESENTATION_REPRESENTATION (  '', ( #246 ), #251 ) ;
#91 = ORIENTED_EDGE ( 'NONE', *, *, #120, .F. ) ;
#92 = CARTESIAN_POINT ( 'NONE',  ( 1.865034936892612844E-66, -1.931338881135370533E-34, 0.000000000000000000 ) ) ;
#93 = SURFACE_STYLE_FILL_AREA ( #208 ) ;
#94 = SURFACE_SIDE_STYLE ('',( #66 ) ) ;
#95 = VECTOR ( 'NONE', #78, 39.37007874015748143 ) ;
#96 = FILL_AREA_STYLE ('',( #182 ) ) ;
#97 = EDGE_CURVE ( 'NONE', #259, #138, #48, .T. ) ;
#98 = CARTESIAN_POINT ( 'NONE',  ( 2.417373285256995277E-16, 0.02453738644055890664, 0.000000000000000000 ) ) ;
#99 = AXIS2_PLACEMENT_3D ( 'NONE', #309, #102, #170 ) ;
#100 = DIRECTION ( 'NONE',  ( -9.656694405676853608E-33, 1.000000000000000000, 0.000000000000000000 ) ) ;
#101 = FACE_OUTER_BOUND ( 'NONE', #43, .T. ) ;
#102 = DIRECTION ( 'NONE',  ( -1.223378938303813434E-16, 1.000000000000000000, -0.000000000000000000 ) ) ;
#103 = DIRECTION ( 'NONE',  ( 1.000000000000000000, 0.000000000000000000, 0.000000000000000000 ) ) ;
#104 = ORIENTED_EDGE ( 'NONE', *, *, #231, .T. ) ;
#105 = LENGTH_MEASURE_WITH_UNIT ( LENGTH_MEASURE( 0.02539999999999999897 ), #220 );
#106 = DIRECTION ( 'NONE',  ( 1.000000000000000000, 1.223378938303813434E-16, 0.000000000000000000 ) ) ;
#107 = DIRECTION ( 'NONE',  ( -1.000000000000000000, -1.223378938303813434E-16, 0.000000000000000000 ) ) ;
#108 =( GEOMETRIC_REPRESENTATION_CONTEXT ( 3 ) GLOBAL_UNCERTAINTY_ASSIGNED_CONTEXT ( ( #68 ) ) GLOBAL_UNIT_ASSIGNED_CONTEXT ( ( #151, #281, #263 ) ) REPRESENTATION_CONTEXT ( 'NONE', 'WORKASPACE' ) );
#109 = STYLED_ITEM ( 'NONE', ( #13 ), #291 ) ;
#110 = CARTESIAN_POINT ( 'NONE',  ( 1.865034936892612844E-66, -1.931338881135370533E-34, 0.000000000000000000 ) ) ;
#111 = SURFACE_SIDE_STYLE ('',( #93 ) ) ;
#112 = DIRECTION ( 'NONE',  ( -1.000000000000000000, 0.000000000000000000, 0.000000000000000000 ) ) ;
#113 = EDGE_LOOP ( 'NONE', ( #214, #226, #31, #41 ) ) ;
#114 = AXIS2_PLACEMENT_3D ( 'NONE', #305, #126, #308 ) ;
#115 = VERTEX_POINT ( 'NONE', #303 ) ;
#116 =( CONVERSION_BASED_UNIT ( 'INCH', #176 ) LENGTH_UNIT ( ) NAMED_UNIT ( #219 ) );
#117 = ORIENTED_EDGE ( 'NONE', *, *, #287, .T. ) ;
#118 = CIRCLE ( 'NONE', #190, 0.06249999999999992367 ) ;
#119 = PRESENTATION_LAYER_ASSIGNMENT (  '', '', ( #109 ) ) ;
#120 = EDGE_CURVE ( 'NONE', #279, #276, #135, .T. ) ;
#121 = CARTESIAN_POINT ( 'NONE',  ( -0.02000000000000000042, -3.862677762270741067E-34, 0.000000000000000000 ) ) ;
#122 = ADVANCED_BREP_SHAPE_REPRESENTATION ( '84599', ( #194, #286, #184 ), #269 ) ;
#123 = CARTESIAN_POINT ( 'NONE',  ( 0.06249999999999989592, 1.500000000000000222, 7.654042494670937515E-18 ) ) ;
#124 = LENGTH_MEASURE_WITH_UNIT ( LENGTH_MEASURE( 0.02539999999999999897 ), #74 );
#125 = CIRCLE ( 'NONE', #114, 0.06250000000000000000 ) ;
#126 = DIRECTION ( 'NONE',  ( 9.656694405676853608E-33, -1.000000000000000000, -0.000000000000000000 ) ) ;
#127 = DIRECTION ( 'NONE',  ( -1.223378938303813434E-16, 1.000000000000000000, -0.000000000000000000 ) ) ;
#128 = CARTESIAN_POINT ( 'NONE',  ( 0.06249999999999997918, 1.500000000000000222, 7.654042494670942137E-18 ) ) ;
#129 = FILL_AREA_STYLE_COLOUR ( '', #61 ) ;
#130 = COLOUR_RGB ( '',1.000000000000000000, 0.000000000000000000, 0.000000000000000000 ) ;
#131 = AXIS2_PLACEMENT_3D ( 'NONE', #297, #273, #17 ) ;
#132 =( LENGTH_UNIT ( ) NAMED_UNIT ( * ) SI_UNIT ( $, .METRE. ) );
#133 = SURFACE_STYLE_FILL_AREA ( #244 ) ;
#134 = SURFACE_SIDE_STYLE ('',( #133 ) ) ;
#135 = CIRCLE ( 'NONE', #164, 0.06249999999999975020 ) ;
#136 = DIMENSIONAL_EXPONENTS ( 1.000000000000000000, 0.000000000000000000, 0.000000000000000000, 0.000000000000000000, 0.000000000000000000, 0.000000000000000000, 0.000000000000000000 ) ;
#137 = PRESENTATION_STYLE_ASSIGNMENT (( #274 ) ) ;
#138 = VERTEX_POINT ( 'NONE', #152 ) ;
#139 = EDGE_LOOP ( 'NONE', ( #104, #158 ) ) ;
#140 = CIRCLE ( 'NONE', #99, 0.06249999999999975020 ) ;
#141 = CARTESIAN_POINT ( 'NONE',  ( -0.06249999999999951428, 0.02453738644055889623, 0.000000000000000000 ) ) ;
#142 = CARTESIAN_POINT ( 'NONE',  ( 1.865034936892612844E-66, -1.931338881135370533E-34, 0.000000000000000000 ) ) ;
#143 =( NAMED_UNIT ( * ) PLANE_ANGLE_UNIT ( ) SI_UNIT ( $, .RADIAN. ) );
#144 =( CONVERSION_BASED_UNIT ( 'INCH', #89 ) LENGTH_UNIT ( ) NAMED_UNIT ( #136 ) );
#145 = DIRECTION ( 'NONE',  ( 1.000000000000000000, 9.656694405676852239E-33, 0.000000000000000000 ) ) ;
#146 = AXIS2_PLACEMENT_3D ( 'NONE', #142, #275, #145 ) ;
#147 = AXIS2_PLACEMENT_3D ( 'NONE', #12, #165, #253 ) ;
#148 = CIRCLE ( 'NONE', #199, 0.06250000000000000000 ) ;
#149 = LINE ( 'NONE', #123, #207 ) ;
#150 =( GEOMETRIC_REPRESENTATION_CONTEXT ( 3 ) GLOBAL_UNCERTAINTY_ASSIGNED_CONTEXT ( ( #204 ) ) GLOBAL_UNIT_ASSIGNED_CONTEXT ( ( #144, #178, #254 ) ) REPRESENTATION_CONTEXT ( 'NONE', 'WORKASPACE' ) );
#151 =( CONVERSION_BASED_UNIT ( 'INCH', #124 ) LENGTH_UNIT ( ) NAMED_UNIT ( #56 ) );
#152 = CARTESIAN_POINT ( 'NONE',  ( -0.06250000000000001388, 0.02453738644055896562, 0.000000000000000000 ) ) ;
#153 =( NAMED_UNIT ( * ) PLANE_ANGLE_UNIT ( ) SI_UNIT ( $, .RADIAN. ) );
#154 = DIRECTION ( 'NONE',  ( -1.000000000000000000, 0.000000000000000000, 0.000000000000000000 ) ) ;
#155 = STYLED_ITEM ( 'NONE', ( #238 ), #24 ) ;
#156 = AXIS2_PLACEMENT_3D ( 'NONE', #83, #247, #154 ) ;
#157 = CARTESIAN_POINT ( 'NONE',  ( 0.02000000000000000042, 0.000000000000000000, 5.051668046482832349E-18 ) ) ;
#158 = ORIENTED_EDGE ( 'NONE', *, *, #1, .T. ) ;
#159 =( NAMED_UNIT ( * ) SI_UNIT ( $, .STERADIAN. ) SOLID_ANGLE_UNIT ( ) );
#160 = EDGE_LOOP ( 'NONE', ( #235, #237, #296, #16 ) ) ;
#161 =( NAMED_UNIT ( * ) PLANE_ANGLE_UNIT ( ) SI_UNIT ( $, .RADIAN. ) );
#162 = SURFACE_STYLE_USAGE ( .BOTH. , #94 ) ;
#163 = MECHANICAL_DESIGN_GEOMETRIC_PRESENTATION_REPRESENTATION (  '', ( #71 ), #108 ) ;
#164 = AXIS2_PLACEMENT_3D ( 'NONE', #98, #188, #221 ) ;
#165 = DIRECTION ( 'NONE',  ( -9.656694405676853608E-33, 1.000000000000000000, 0.000000000000000000 ) ) ;
#166 = ORIENTED_EDGE ( 'NONE', *, *, #8, .T. ) ;
#167 = EDGE_LOOP ( 'NONE', ( #210, #180 ) ) ;
#168 =( NAMED_UNIT ( * ) SI_UNIT ( $, .STERADIAN. ) SOLID_ANGLE_UNIT ( ) );
#169 = ADVANCED_FACE ( 'NONE', ( #52 ), #245, .T. ) ;
#170 = DIRECTION ( 'NONE',  ( -1.000000000000000000, -1.365923996832137033E-16, 0.000000000000000000 ) ) ;
#171 = DIRECTION ( 'NONE',  ( -1.000000000000000000, 0.000000000000000000, 0.000000000000000000 ) ) ;
#172 = SURFACE_STYLE_USAGE ( .BOTH. , #70 ) ;
#173 = CARTESIAN_POINT ( 'NONE',  ( 0.02000000000000000042, 0.000000000000000000, 2.449293598294706769E-18 ) ) ;
#174 = UNCERTAINTY_MEASURE_WITH_UNIT (LENGTH_MEASURE( 1.000000000000000082E-05 ), #293, 'distance_accuracy_value', 'NONE');
#175 = LENGTH_MEASURE_WITH_UNIT ( LENGTH_MEASURE( 0.02539999999999999897 ), #54 );
#176 = LENGTH_MEASURE_WITH_UNIT ( LENGTH_MEASURE( 0.02539999999999999897 ), #233 );
#177 = PRODUCT_RELATED_PRODUCT_CATEGORY ( 'part', '', ( #201 ) ) ;
#178 =( NAMED_UNIT ( * ) PLANE_ANGLE_UNIT ( ) SI_UNIT ( $, .RADIAN. ) );
#179 = EDGE_CURVE ( 'NONE', #266, #80, #58, .T. ) ;
#180 = ORIENTED_EDGE ( 'NONE', *, *, #198, .F. ) ;
#181 = FACE_OUTER_BOUND ( 'NONE', #139, .T. ) ;
#182 = FILL_AREA_STYLE_COLOUR ( '', #130 ) ;
#183 = CONICAL_SURFACE ( 'NONE', #268, 0.02000000000000000042, 1.047197551196600074 ) ;
#184 = AXIS2_PLACEMENT_3D ( 'NONE', #261, #202, #20 ) ;
#185 = SHAPE_DEFINITION_REPRESENTATION ( #75, #122 ) ;
#186 =( NAMED_UNIT ( * ) SI_UNIT ( $, .STERADIAN. ) SOLID_ANGLE_UNIT ( ) );
#187 = ORIENTED_EDGE ( 'NONE', *, *, #179, .T. ) ;
#188 = DIRECTION ( 'NONE',  ( -1.223378938303813434E-16, 1.000000000000000000, -0.000000000000000000 ) ) ;
#189 = FACE_OUTER_BOUND ( 'NONE', #160, .T. ) ;
#190 = AXIS2_PLACEMENT_3D ( 'NONE', #301, #212, #112 ) ;
#191 = COLOUR_RGB ( '',0.7921568627450980005, 0.8196078431372548767, 0.9333333333333333481 ) ;
#192 = CARTESIAN_POINT ( 'NONE',  ( 1.865034936892612844E-66, -1.931338881135370533E-34, 0.000000000000000000 ) ) ;
#193 = COLOUR_RGB ( '',1.000000000000000000, 0.000000000000000000, 0.000000000000000000 ) ;
#194 = MANIFOLD_SOLID_BREP ( 'Revolve - Cutting Edge', #21 ) ;
#195 = CIRCLE ( 'NONE', #257, 0.02000000000000000042 ) ;
#196 = FACE_OUTER_BOUND ( 'NONE', #240, .T. ) ;
#197 = DIRECTION ( 'NONE',  ( 9.656694405676853608E-33, -1.000000000000000000, -0.000000000000000000 ) ) ;
#198 = EDGE_CURVE ( 'NONE', #80, #138, #148, .T. ) ;
#199 = AXIS2_PLACEMENT_3D ( 'NONE', #224, #6, #103 ) ;
#200 = PLANE ( 'NONE',  #147 ) ;
#201 = PRODUCT ( '84599', '84599', '', ( #232 ) ) ;
#202 = DIRECTION ( 'NONE',  ( 0.000000000000000000, 0.000000000000000000, 1.000000000000000000 ) ) ;
#203 = SURFACE_STYLE_FILL_AREA ( #86 ) ;
#204 = UNCERTAINTY_MEASURE_WITH_UNIT (LENGTH_MEASURE( 1.000000000000000082E-05 ), #144, 'distance_accuracy_value', 'NONE');
#205 = ADVANCED_FACE ( 'NONE', ( #5 ), #288, .F. ) ;
#206 = ADVANCED_FACE ( 'NONE', ( #196 ), #10, .F. ) ;
#207 = VECTOR ( 'NONE', #46, 39.37007874015748143 ) ;
#208 = FILL_AREA_STYLE ('',( #258 ) ) ;
#209 = VECTOR ( 'NONE', #32, 39.37007874015748854 ) ;
#210 = ORIENTED_EDGE ( 'NONE', *, *, #302, .F. ) ;
#211 = SURFACE_STYLE_FILL_AREA ( #239 ) ;
#212 = DIRECTION ( 'NONE',  ( -1.223378938303813434E-16, 1.000000000000000000, -0.000000000000000000 ) ) ;
#213 = SURFACE_STYLE_USAGE ( .BOTH. , #111 ) ;
#214 = ORIENTED_EDGE ( 'NONE', *, *, #38, .F. ) ;
#215 = PRESENTATION_LAYER_ASSIGNMENT (  '', '', ( #246 ) ) ;
#216 = DIRECTION ( 'NONE',  ( -0.8660254037844397068, 0.4999999999999979461, 0.000000000000000000 ) ) ;
#217 = LINE ( 'NONE', #23, #95 ) ;
#218 = PRESENTATION_LAYER_ASSIGNMENT (  '', '', ( #155 ) ) ;
#219 = DIMENSIONAL_EXPONENTS ( 1.000000000000000000, 0.000000000000000000, 0.000000000000000000, 0.000000000000000000, 0.000000000000000000, 0.000000000000000000, 0.000000000000000000 ) ;
#220 =( LENGTH_UNIT ( ) NAMED_UNIT ( * ) SI_UNIT ( $, .METRE. ) );
#221 = DIRECTION ( 'NONE',  ( -1.000000000000000000, -1.365923996832137033E-16, 0.000000000000000000 ) ) ;
#222 = CLOSED_SHELL ( 'NONE', ( #307, #206, #169, #205 ) ) ;
#223 = COLOUR_RGB ( '',0.7921568627450980005, 0.8196078431372548767, 0.9333333333333333481 ) ;
#224 = CARTESIAN_POINT ( 'NONE',  ( -2.369500423704768587E-34, 0.02453738644055896562, 0.000000000000000000 ) ) ;
#225 = DIMENSIONAL_EXPONENTS ( 1.000000000000000000, 0.000000000000000000, 0.000000000000000000, 0.000000000000000000, 0.000000000000000000, 0.000000000000000000, 0.000000000000000000 ) ;
#226 = ORIENTED_EDGE ( 'NONE', *, *, #120, .T. ) ;
#227 =( CONVERSION_BASED_UNIT ( 'INCH', #248 ) LENGTH_UNIT ( ) NAMED_UNIT ( #250 ) );
#228 =( NAMED_UNIT ( * ) SI_UNIT ( $, .STERADIAN. ) SOLID_ANGLE_UNIT ( ) );
#229 = ORIENTED_EDGE ( 'NONE', *, *, #8, .F. ) ;
#230 = DIRECTION ( 'NONE',  ( 1.223378938303813434E-16, -1.000000000000000000, 0.000000000000000000 ) ) ;
#231 = EDGE_CURVE ( 'NONE', #259, #266, #195, .T. ) ;
#232 = PRODUCT_CONTEXT ( 'NONE', #87, 'mechanical' ) ;
#233 =( LENGTH_UNIT ( ) NAMED_UNIT ( * ) SI_UNIT ( $, .METRE. ) );
#234 = UNCERTAINTY_MEASURE_WITH_UNIT (LENGTH_MEASURE( 1.000000000000000082E-05 ), #227, 'distance_accuracy_value', 'NONE');
#235 = ORIENTED_EDGE ( 'NONE', *, *, #179, .F. ) ;
#236 = MECHANICAL_DESIGN_GEOMETRIC_PRESENTATION_REPRESENTATION (  '', ( #109 ), #67 ) ;
#237 = ORIENTED_EDGE ( 'NONE', *, *, #231, .F. ) ;
#238 = PRESENTATION_STYLE_ASSIGNMENT (( #162 ) ) ;
#239 = FILL_AREA_STYLE ('',( #40 ) ) ;
#240 = EDGE_LOOP ( 'NONE', ( #299, #91 ) ) ;
#241 = ORIENTED_EDGE ( 'NONE', *, *, #1, .F. ) ;
#242 = PRESENTATION_LAYER_ASSIGNMENT (  '', '', ( #282 ) ) ;
#243 = FILL_AREA_STYLE_COLOUR ( '', #193 ) ;
#244 = FILL_AREA_STYLE ('',( #270 ) ) ;
#245 = CYLINDRICAL_SURFACE ( 'NONE', #156, 0.06249999999999984041 ) ;
#246 = STYLED_ITEM ( 'NONE', ( #137 ), #286 ) ;
#247 = DIRECTION ( 'NONE',  ( -1.223378938303813434E-16, 1.000000000000000000, -0.000000000000000000 ) ) ;
#248 = LENGTH_MEASURE_WITH_UNIT ( LENGTH_MEASURE( 0.02539999999999999897 ), #132 );
#249 = PRESENTATION_STYLE_ASSIGNMENT (( #29 ) ) ;
#250 = DIMENSIONAL_EXPONENTS ( 1.000000000000000000, 0.000000000000000000, 0.000000000000000000, 0.000000000000000000, 0.000000000000000000, 0.000000000000000000, 0.000000000000000000 ) ;
#251 =( GEOMETRIC_REPRESENTATION_CONTEXT ( 3 ) GLOBAL_UNCERTAINTY_ASSIGNED_CONTEXT ( ( #81 ) ) GLOBAL_UNIT_ASSIGNED_CONTEXT ( ( #116, #161, #159 ) ) REPRESENTATION_CONTEXT ( 'NONE', 'WORKASPACE' ) );
#252 = ADVANCED_FACE ( 'NONE', ( #82 ), #200, .T. ) ;
#253 = DIRECTION ( 'NONE',  ( -1.000000000000000000, -9.656694405676853608E-33, 0.000000000000000000 ) ) ;
#254 =( NAMED_UNIT ( * ) SI_UNIT ( $, .STERADIAN. ) SOLID_ANGLE_UNIT ( ) );
#255 = CARTESIAN_POINT ( 'NONE',  ( 0.06249999999999999306, 0.02453738644055891358, 7.654042494670942137E-18 ) ) ;
#256 = ORIENTED_EDGE ( 'NONE', *, *, #97, .F. ) ;
#257 = AXIS2_PLACEMENT_3D ( 'NONE', #110, #197, #285 ) ;
#258 = FILL_AREA_STYLE_COLOUR ( '', #277 ) ;
#259 = VERTEX_POINT ( 'NONE', #300 ) ;
#260 = ORIENTED_EDGE ( 'NONE', *, *, #198, .T. ) ;
#261 = CARTESIAN_POINT ( 'NONE',  ( 0.000000000000000000, 0.000000000000000000, 0.000000000000000000 ) ) ;
#262 = SURFACE_STYLE_FILL_AREA ( #280 ) ;
#263 =( NAMED_UNIT ( * ) SI_UNIT ( $, .STERADIAN. ) SOLID_ANGLE_UNIT ( ) );
#264 = CONICAL_SURFACE ( 'NONE', #59, 0.02000000000000000042, 1.047197551196600074 ) ;
#265 = DIMENSIONAL_EXPONENTS ( 1.000000000000000000, 0.000000000000000000, 0.000000000000000000, 0.000000000000000000, 0.000000000000000000, 0.000000000000000000, 0.000000000000000000 ) ;
#266 = VERTEX_POINT ( 'NONE', #157 ) ;
#267 = UNCERTAINTY_MEASURE_WITH_UNIT (LENGTH_MEASURE( 1.000000000000000082E-05 ), #53, 'distance_accuracy_value', 'NONE');
#268 = AXIS2_PLACEMENT_3D ( 'NONE', #92, #100, #304 ) ;
#269 =( GEOMETRIC_REPRESENTATION_CONTEXT ( 3 ) GLOBAL_UNCERTAINTY_ASSIGNED_CONTEXT ( ( #267 ) ) GLOBAL_UNIT_ASSIGNED_CONTEXT ( ( #53, #153, #45 ) ) REPRESENTATION_CONTEXT ( 'NONE', 'WORKASPACE' ) );
#270 = FILL_AREA_STYLE_COLOUR ( '', #191 ) ;
#271 = SURFACE_STYLE_USAGE ( .BOTH. , #290 ) ;
#272 = PRESENTATION_LAYER_ASSIGNMENT (  '', '', ( #26 ) ) ;
#273 = DIRECTION ( 'NONE',  ( -1.223378938303813434E-16, 1.000000000000000000, -0.000000000000000000 ) ) ;
#274 = SURFACE_STYLE_USAGE ( .BOTH. , #39 ) ;
#275 = DIRECTION ( 'NONE',  ( 9.656694405676853608E-33, -1.000000000000000000, -0.000000000000000000 ) ) ;
#276 = VERTEX_POINT ( 'NONE', #141 ) ;
#277 = COLOUR_RGB ( '',1.000000000000000000, 0.000000000000000000, 0.000000000000000000 ) ;
#278 = LENGTH_MEASURE_WITH_UNIT ( LENGTH_MEASURE( 0.02539999999999999897 ), #18 );
#279 = VERTEX_POINT ( 'NONE', #255 ) ;
#280 = FILL_AREA_STYLE ('',( #243 ) ) ;
#281 =( NAMED_UNIT ( * ) PLANE_ANGLE_UNIT ( ) SI_UNIT ( $, .RADIAN. ) );
#282 = STYLED_ITEM ( 'NONE', ( #249 ), #194 ) ;
#283 = CARTESIAN_POINT ( 'NONE',  ( 6.123233995736763571E-17, 1.500000000000000222, 0.000000000000000000 ) ) ;
#284 = DIRECTION ( 'NONE',  ( -1.000000000000000000, -9.656694405676852239E-33, 0.000000000000000000 ) ) ;
#285 = DIRECTION ( 'NONE',  ( 1.000000000000000000, 9.656694405676852239E-33, 0.000000000000000000 ) ) ;
#286 = MANIFOLD_SOLID_BREP ( 'Revolve - Tool Body (Tipped Off)', #222 ) ;
#287 = EDGE_CURVE ( 'NONE', #44, #115, #4, .T. ) ;
#288 = PLANE ( 'NONE',  #49 ) ;
#289 = CIRCLE ( 'NONE', #146, 0.02000000000000000042 ) ;
#290 = SURFACE_SIDE_STYLE ('',( #203 ) ) ;
#291 = ADVANCED_FACE ( 'NONE', ( #181 ), #65, .T. ) ;
#292 = DIMENSIONAL_EXPONENTS ( 1.000000000000000000, 0.000000000000000000, 0.000000000000000000, 0.000000000000000000, 0.000000000000000000, 0.000000000000000000, 0.000000000000000000 ) ;
#293 =( CONVERSION_BASED_UNIT ( 'INCH', #278 ) LENGTH_UNIT ( ) NAMED_UNIT ( #292 ) );
#294 =( LENGTH_UNIT ( ) NAMED_UNIT ( * ) SI_UNIT ( $, .METRE. ) );
#295 = AXIS2_PLACEMENT_3D ( 'NONE', #47, #73, #27 ) ;
#296 = ORIENTED_EDGE ( 'NONE', *, *, #97, .T. ) ;
#297 = CARTESIAN_POINT ( 'NONE',  ( 6.123233995736763571E-17, 1.500000000000000222, 0.000000000000000000 ) ) ;
#298 = FACE_OUTER_BOUND ( 'NONE', #64, .T. ) ;
#299 = ORIENTED_EDGE ( 'NONE', *, *, #34, .F. ) ;
#300 = CARTESIAN_POINT ( 'NONE',  ( -0.02000000000000000042, -3.862677762270741067E-34, 0.000000000000000000 ) ) ;
#301 = CARTESIAN_POINT ( 'NONE',  ( 6.123233995736763571E-17, 1.500000000000000222, 0.000000000000000000 ) ) ;
#302 = EDGE_CURVE ( 'NONE', #138, #80, #125, .T. ) ;
#303 = CARTESIAN_POINT ( 'NONE',  ( -0.06249999999999986122, 1.500000000000000222, 0.000000000000000000 ) ) ;
#304 = DIRECTION ( 'NONE',  ( -1.000000000000000000, -9.656694405676852239E-33, 0.000000000000000000 ) ) ;
#305 = CARTESIAN_POINT ( 'NONE',  ( -2.369500423704768587E-34, 0.02453738644055896562, 0.000000000000000000 ) ) ;
#306 = PRODUCT_DEFINITION_FORMATION_WITH_SPECIFIED_SOURCE ( 'ANY', '', #201, .NOT_KNOWN. ) ;
#307 = ADVANCED_FACE ( 'NONE', ( #101 ), #76, .T. ) ;
#308 = DIRECTION ( 'NONE',  ( 1.000000000000000000, 0.000000000000000000, 0.000000000000000000 ) ) ;
#309 = CARTESIAN_POINT ( 'NONE',  ( 2.417373285256995277E-16, 0.02453738644055890664, 0.000000000000000000 ) ) ;
ENDSEC;
END-ISO-10303-21;
