ISO-10303-21;
HEADER;
FILE_DESCRIPTION (( 'STEP AP214' ),
    '1' );
FILE_NAME ('84597.STEP',
    '2023-07-12T13:09:51',
    ( '' ),
    ( '' ),
    'SwSTEP 2.0',
    'SolidWorks 2023',
    '' );
FILE_SCHEMA (( 'AUTOMOTIVE_DESIGN' ));
ENDSEC;

DATA;
#1 =( NAMED_UNIT ( * ) SI_UNIT ( $, .STERADIAN. ) SOLID_ANGLE_UNIT ( ) );
#2 = FACE_OUTER_BOUND ( 'NONE', #182, .T. ) ;
#3 = STYLED_ITEM ( 'NONE', ( #155 ), #273 ) ;
#4 = EDGE_LOOP ( 'NONE', ( #216, #87, #236, #307 ) ) ;
#5 = APPLICATION_CONTEXT ( 'automotive_design' ) ;
#6 =( NAMED_UNIT ( * ) SI_UNIT ( $, .STERADIAN. ) SOLID_ANGLE_UNIT ( ) );
#7 = CIRCLE ( 'NONE', #30, 0.06249999999999997918 ) ;
#8 = ORIENTED_EDGE ( 'NONE', *, *, #143, .T. ) ;
#9 = CARTESIAN_POINT ( 'NONE',  ( 8.829551755123623592E-67, -1.328875596519374998E-34, 0.000000000000000000 ) ) ;
#10 = CIRCLE ( 'NONE', #113, 0.06249999999999974326 ) ;
#11 = COLOUR_RGB ( '',1.000000000000000000, 0.000000000000000000, 0.000000000000000000 ) ;
#12 = LENGTH_MEASURE_WITH_UNIT ( LENGTH_MEASURE( 0.02539999999999999897 ), #174 );
#13 = CARTESIAN_POINT ( 'NONE',  ( 0.000000000000000000, 0.000000000000000000, 0.000000000000000000 ) ) ;
#14 = CARTESIAN_POINT ( 'NONE',  ( 2.374688160355991503E-16, 0.03566173432503416674, 0.000000000000000000 ) ) ;
#15 = DIRECTION ( 'NONE',  ( -1.203522985155330889E-16, 1.000000000000000000, -0.000000000000000000 ) ) ;
#16 = STYLED_ITEM ( 'NONE', ( #231 ), #225 ) ;
#17 = SURFACE_SIDE_STYLE ('',( #64 ) ) ;
#18 = CONICAL_SURFACE ( 'NONE', #302, 0.02000000000000000042, 0.8726646259971666542 ) ;
#19 = VERTEX_POINT ( 'NONE', #221 ) ;
#20 = VERTEX_POINT ( 'NONE', #96 ) ;
#21 = PLANE ( 'NONE',  #60 ) ;
#22 = EDGE_CURVE ( 'NONE', #19, #136, #7, .T. ) ;
#23 = DIMENSIONAL_EXPONENTS ( 1.000000000000000000, 0.000000000000000000, 0.000000000000000000, 0.000000000000000000, 0.000000000000000000, 0.000000000000000000, 0.000000000000000000 ) ;
#24 = PRESENTATION_STYLE_ASSIGNMENT (( #169 ) ) ;
#25 = FACE_OUTER_BOUND ( 'NONE', #131, .T. ) ;
#26 = UNCERTAINTY_MEASURE_WITH_UNIT (LENGTH_MEASURE( 1.000000000000000082E-05 ), #53, 'distance_accuracy_value', 'NONE');
#27 = CARTESIAN_POINT ( 'NONE',  ( 6.123233995736763571E-17, 1.500000000000000222, 0.000000000000000000 ) ) ;
#28 = EDGE_CURVE ( 'NONE', #112, #286, #217, .T. ) ;
#29 = PLANE ( 'NONE',  #65 ) ;
#30 = AXIS2_PLACEMENT_3D ( 'NONE', #115, #121, #51 ) ;
#31 = PRESENTATION_LAYER_ASSIGNMENT (  '', '', ( #168 ) ) ;
#32 = PRESENTATION_STYLE_ASSIGNMENT (( #177 ) ) ;
#33 = COLOUR_RGB ( '',1.000000000000000000, 0.000000000000000000, 0.000000000000000000 ) ;
#34 = CARTESIAN_POINT ( 'NONE',  ( 2.374688160355991503E-16, 0.03566173432503416674, 0.000000000000000000 ) ) ;
#35 = SURFACE_STYLE_USAGE ( .BOTH. , #17 ) ;
#36 = CIRCLE ( 'NONE', #257, 0.06249999999999991673 ) ;
#37 = ORIENTED_EDGE ( 'NONE', *, *, #57, .T. ) ;
#38 = FACE_OUTER_BOUND ( 'NONE', #296, .T. ) ;
#39 = EDGE_LOOP ( 'NONE', ( #37, #196 ) ) ;
#40 = SURFACE_STYLE_USAGE ( .BOTH. , #152 ) ;
#41 = MECHANICAL_DESIGN_GEOMETRIC_PRESENTATION_REPRESENTATION (  '', ( #16 ), #119 ) ;
#42 = FILL_AREA_STYLE ('',( #309 ) ) ;
#43 = EDGE_LOOP ( 'NONE', ( #270, #84, #290, #62 ) ) ;
#44 = SURFACE_SIDE_STYLE ('',( #161 ) ) ;
#45 = CARTESIAN_POINT ( 'NONE',  ( -2.369500423704768160E-34, 0.03566173432503425694, 0.000000000000000000 ) ) ;
#46 = DIRECTION ( 'NONE',  ( -6.644377982596874735E-33, 1.000000000000000000, 0.000000000000000000 ) ) ;
#47 = CIRCLE ( 'NONE', #98, 0.06249999999999974326 ) ;
#48 = UNCERTAINTY_MEASURE_WITH_UNIT (LENGTH_MEASURE( 1.000000000000000082E-05 ), #111, 'distance_accuracy_value', 'NONE');
#49 = EDGE_CURVE ( 'NONE', #136, #19, #66, .T. ) ;
#50 = DIRECTION ( 'NONE',  ( 1.000000000000000000, 6.644377982596874735E-33, 0.000000000000000000 ) ) ;
#51 = DIRECTION ( 'NONE',  ( 1.000000000000000000, 0.000000000000000000, 0.000000000000000000 ) ) ;
#52 = PRESENTATION_LAYER_ASSIGNMENT (  '', '', ( #16 ) ) ;
#53 =( CONVERSION_BASED_UNIT ( 'INCH', #274 ) LENGTH_UNIT ( ) NAMED_UNIT ( #237 ) );
#54 =( GEOMETRIC_REPRESENTATION_CONTEXT ( 3 ) GLOBAL_UNCERTAINTY_ASSIGNED_CONTEXT ( ( #124 ) ) GLOBAL_UNIT_ASSIGNED_CONTEXT ( ( #226, #101, #254 ) ) REPRESENTATION_CONTEXT ( 'NONE', 'WORKASPACE' ) );
#55 =( NAMED_UNIT ( * ) SI_UNIT ( $, .STERADIAN. ) SOLID_ANGLE_UNIT ( ) );
#56 = DIRECTION ( 'NONE',  ( -1.203522985155330889E-16, 1.000000000000000000, -0.000000000000000000 ) ) ;
#57 = EDGE_CURVE ( 'NONE', #160, #209, #36, .T. ) ;
#58 = DIRECTION ( 'NONE',  ( -6.644377982596874735E-33, 1.000000000000000000, 0.000000000000000000 ) ) ;
#59 = VECTOR ( 'NONE', #148, 39.37007874015748143 ) ;
#60 = AXIS2_PLACEMENT_3D ( 'NONE', #281, #125, #304 ) ;
#61 = DIRECTION ( 'NONE',  ( 0.7660444431189792347, 0.6427876096865379196, 9.381338752702745572E-17 ) ) ;
#62 = ORIENTED_EDGE ( 'NONE', *, *, #22, .T. ) ;
#63 = DIMENSIONAL_EXPONENTS ( 1.000000000000000000, 0.000000000000000000, 0.000000000000000000, 0.000000000000000000, 0.000000000000000000, 0.000000000000000000, 0.000000000000000000 ) ;
#64 = SURFACE_STYLE_FILL_AREA ( #42 ) ;
#65 = AXIS2_PLACEMENT_3D ( 'NONE', #219, #295, #118 ) ;
#66 = CIRCLE ( 'NONE', #123, 0.06249999999999997918 ) ;
#67 = EDGE_LOOP ( 'NONE', ( #89, #8, #259, #207 ) ) ;
#68 = FILL_AREA_STYLE ('',( #137 ) ) ;
#69 = DIRECTION ( 'NONE',  ( 6.644377982596874735E-33, -1.000000000000000000, -0.000000000000000000 ) ) ;
#70 = COLOUR_RGB ( '',0.7921568627450980005, 0.8196078431372548767, 0.9333333333333333481 ) ;
#71 = MECHANICAL_DESIGN_GEOMETRIC_PRESENTATION_REPRESENTATION (  '', ( #248 ), #150 ) ;
#72 = DIRECTION ( 'NONE',  ( 6.644377982596874735E-33, -1.000000000000000000, -0.000000000000000000 ) ) ;
#73 = PRODUCT_DEFINITION_CONTEXT ( 'detailed design', #5, 'design' ) ;
#74 = APPLICATION_PROTOCOL_DEFINITION ( 'draft international standard', 'automotive_design', 1998, #5 ) ;
#75 = FACE_OUTER_BOUND ( 'NONE', #67, .T. ) ;
#76 = PRODUCT_CONTEXT ( 'NONE', #129, 'mechanical' ) ;
#77 = FILL_AREA_STYLE ('',( #81 ) ) ;
#78 = PRESENTATION_STYLE_ASSIGNMENT (( #176 ) ) ;
#79 = ADVANCED_FACE ( 'NONE', ( #75 ), #218, .T. ) ;
#80 = VECTOR ( 'NONE', #15, 39.37007874015748143 ) ;
#81 = FILL_AREA_STYLE_COLOUR ( '', #70 ) ;
#82 = EDGE_CURVE ( 'NONE', #286, #112, #247, .T. ) ;
#83 = LINE ( 'NONE', #179, #80 ) ;
#84 = ORIENTED_EDGE ( 'NONE', *, *, #28, .F. ) ;
#85 =( NAMED_UNIT ( * ) PLANE_ANGLE_UNIT ( ) SI_UNIT ( $, .RADIAN. ) );
#86 = AXIS2_PLACEMENT_3D ( 'NONE', #13, #145, #250 ) ;
#87 = ORIENTED_EDGE ( 'NONE', *, *, #154, .T. ) ;
#88 = LINE ( 'NONE', #187, #146 ) ;
#89 = ORIENTED_EDGE ( 'NONE', *, *, #154, .F. ) ;
#90 = FILL_AREA_STYLE_COLOUR ( '', #33 ) ;
#91 = AXIS2_PLACEMENT_3D ( 'NONE', #104, #58, #308 ) ;
#92 =( NAMED_UNIT ( * ) SI_UNIT ( $, .STERADIAN. ) SOLID_ANGLE_UNIT ( ) );
#93 = ORIENTED_EDGE ( 'NONE', *, *, #49, .F. ) ;
#94 = DIRECTION ( 'NONE',  ( -1.000000000000000000, 0.000000000000000000, 0.000000000000000000 ) ) ;
#95 = CARTESIAN_POINT ( 'NONE',  ( 0.02000000000000000042, 0.000000000000000000, 5.051668046482830809E-18 ) ) ;
#96 = CARTESIAN_POINT ( 'NONE',  ( 0.06249999999999999306, 0.03566173432503417368, 7.654042494670943678E-18 ) ) ;
#97 = CARTESIAN_POINT ( 'NONE',  ( -2.369500423704768160E-34, 0.03566173432503425000, 0.000000000000000000 ) ) ;
#98 = AXIS2_PLACEMENT_3D ( 'NONE', #14, #200, #103 ) ;
#99 =( GEOMETRIC_REPRESENTATION_CONTEXT ( 3 ) GLOBAL_UNCERTAINTY_ASSIGNED_CONTEXT ( ( #194 ) ) GLOBAL_UNIT_ASSIGNED_CONTEXT ( ( #193, #285, #1 ) ) REPRESENTATION_CONTEXT ( 'NONE', 'WORKASPACE' ) );
#100 = CYLINDRICAL_SURFACE ( 'NONE', #199, 0.06249999999999982653 ) ;
#101 =( NAMED_UNIT ( * ) PLANE_ANGLE_UNIT ( ) SI_UNIT ( $, .RADIAN. ) );
#102 = AXIS2_PLACEMENT_3D ( 'NONE', #144, #245, #120 ) ;
#103 = DIRECTION ( 'NONE',  ( -1.000000000000000000, -1.365923996832137279E-16, 0.000000000000000000 ) ) ;
#104 = CARTESIAN_POINT ( 'NONE',  ( 8.829551755123623592E-67, -1.328875596519374998E-34, 0.000000000000000000 ) ) ;
#105 =( CONVERSION_BASED_UNIT ( 'INCH', #260 ) LENGTH_UNIT ( ) NAMED_UNIT ( #267 ) );
#106 = ORIENTED_EDGE ( 'NONE', *, *, #28, .T. ) ;
#107 = PRESENTATION_LAYER_ASSIGNMENT (  '', '', ( #181 ) ) ;
#108 = PRODUCT_RELATED_PRODUCT_CATEGORY ( 'part', '', ( #178 ) ) ;
#109 = CARTESIAN_POINT ( 'NONE',  ( -0.06249999999999950734, 0.03566173432503415980, 0.000000000000000000 ) ) ;
#110 =( NAMED_UNIT ( * ) PLANE_ANGLE_UNIT ( ) SI_UNIT ( $, .RADIAN. ) );
#111 =( CONVERSION_BASED_UNIT ( 'INCH', #114 ) LENGTH_UNIT ( ) NAMED_UNIT ( #63 ) );
#112 = VERTEX_POINT ( 'NONE', #171 ) ;
#113 = AXIS2_PLACEMENT_3D ( 'NONE', #34, #204, #147 ) ;
#114 = LENGTH_MEASURE_WITH_UNIT ( LENGTH_MEASURE( 0.02539999999999999897 ), #188 );
#115 = CARTESIAN_POINT ( 'NONE',  ( -2.369500423704768160E-34, 0.03566173432503425000, 0.000000000000000000 ) ) ;
#116 = DIRECTION ( 'NONE',  ( -1.203522985155330889E-16, 1.000000000000000000, -0.000000000000000000 ) ) ;
#117 =( CONVERSION_BASED_UNIT ( 'INCH', #243 ) LENGTH_UNIT ( ) NAMED_UNIT ( #23 ) );
#118 = DIRECTION ( 'NONE',  ( 1.000000000000000000, 1.203522985155330889E-16, 0.000000000000000000 ) ) ;
#119 =( GEOMETRIC_REPRESENTATION_CONTEXT ( 3 ) GLOBAL_UNCERTAINTY_ASSIGNED_CONTEXT ( ( #223 ) ) GLOBAL_UNIT_ASSIGNED_CONTEXT ( ( #258, #85, #127 ) ) REPRESENTATION_CONTEXT ( 'NONE', 'WORKASPACE' ) );
#120 = DIRECTION ( 'NONE',  ( -1.000000000000000000, 0.000000000000000000, 0.000000000000000000 ) ) ;
#121 = DIRECTION ( 'NONE',  ( 6.644377982596874735E-33, -1.000000000000000000, -0.000000000000000000 ) ) ;
#122 = CARTESIAN_POINT ( 'NONE',  ( 0.06249999999999988898, 1.500000000000000222, 7.654042494670935974E-18 ) ) ;
#123 = AXIS2_PLACEMENT_3D ( 'NONE', #97, #72, #139 ) ;
#124 = UNCERTAINTY_MEASURE_WITH_UNIT (LENGTH_MEASURE( 1.000000000000000082E-05 ), #226, 'distance_accuracy_value', 'NONE');
#125 = DIRECTION ( 'NONE',  ( -1.203522985155330889E-16, 1.000000000000000000, 0.000000000000000000 ) ) ;
#126 = ORIENTED_EDGE ( 'NONE', *, *, #143, .F. ) ;
#127 =( NAMED_UNIT ( * ) SI_UNIT ( $, .STERADIAN. ) SOLID_ANGLE_UNIT ( ) );
#128 = ADVANCED_FACE ( 'NONE', ( #266 ), #29, .F. ) ;
#129 = APPLICATION_CONTEXT ( 'automotive_design' ) ;
#130 =( LENGTH_UNIT ( ) NAMED_UNIT ( * ) SI_UNIT ( $, .METRE. ) );
#131 = EDGE_LOOP ( 'NONE', ( #232, #93 ) ) ;
#132 = CARTESIAN_POINT ( 'NONE',  ( 8.829551755123623592E-67, -1.328875596519374998E-34, 0.000000000000000000 ) ) ;
#133 = SURFACE_SIDE_STYLE ('',( #262 ) ) ;
#134 = DIMENSIONAL_EXPONENTS ( 1.000000000000000000, 0.000000000000000000, 0.000000000000000000, 0.000000000000000000, 0.000000000000000000, 0.000000000000000000, 0.000000000000000000 ) ;
#135 =( LENGTH_UNIT ( ) NAMED_UNIT ( * ) SI_UNIT ( $, .METRE. ) );
#136 = VERTEX_POINT ( 'NONE', #294 ) ;
#137 = FILL_AREA_STYLE_COLOUR ( '', #298 ) ;
#138 = EDGE_CURVE ( 'NONE', #209, #160, #246, .T. ) ;
#139 = DIRECTION ( 'NONE',  ( 1.000000000000000000, 0.000000000000000000, 0.000000000000000000 ) ) ;
#140 = CONICAL_SURFACE ( 'NONE', #91, 0.02000000000000000042, 0.8726646259971666542 ) ;
#141 =( LENGTH_UNIT ( ) NAMED_UNIT ( * ) SI_UNIT ( $, .METRE. ) );
#142 = DIRECTION ( 'NONE',  ( 1.000000000000000000, 6.644377982596874735E-33, 0.000000000000000000 ) ) ;
#143 = EDGE_CURVE ( 'NONE', #20, #264, #10, .T. ) ;
#144 = CARTESIAN_POINT ( 'NONE',  ( 6.123233995736763571E-17, 1.500000000000000222, 0.000000000000000000 ) ) ;
#145 = DIRECTION ( 'NONE',  ( 0.000000000000000000, 0.000000000000000000, 1.000000000000000000 ) ) ;
#146 = VECTOR ( 'NONE', #61, 39.37007874015748143 ) ;
#147 = DIRECTION ( 'NONE',  ( -1.000000000000000000, -1.365923996832137279E-16, 0.000000000000000000 ) ) ;
#148 = DIRECTION ( 'NONE',  ( -1.203522985155330889E-16, 1.000000000000000000, -0.000000000000000000 ) ) ;
#149 = SURFACE_STYLE_FILL_AREA ( #77 ) ;
#150 =( GEOMETRIC_REPRESENTATION_CONTEXT ( 3 ) GLOBAL_UNCERTAINTY_ASSIGNED_CONTEXT ( ( #26 ) ) GLOBAL_UNIT_ASSIGNED_CONTEXT ( ( #53, #202, #55 ) ) REPRESENTATION_CONTEXT ( 'NONE', 'WORKASPACE' ) );
#151 = DIRECTION ( 'NONE',  ( -1.000000000000000000, 0.000000000000000000, 0.000000000000000000 ) ) ;
#152 = SURFACE_SIDE_STYLE ('',( #233 ) ) ;
#153 = MECHANICAL_DESIGN_GEOMETRIC_PRESENTATION_REPRESENTATION (  '', ( #195 ), #99 ) ;
#154 = EDGE_CURVE ( 'NONE', #20, #209, #175, .T. ) ;
#155 = PRESENTATION_STYLE_ASSIGNMENT (( #35 ) ) ;
#156 = EDGE_LOOP ( 'NONE', ( #106, #186 ) ) ;
#157 = COLOUR_RGB ( '',1.000000000000000000, 0.000000000000000000, 0.000000000000000000 ) ;
#158 = EDGE_CURVE ( 'NONE', #264, #20, #47, .T. ) ;
#159 = DIRECTION ( 'NONE',  ( 6.644377982596874735E-33, -1.000000000000000000, -0.000000000000000000 ) ) ;
#160 = VERTEX_POINT ( 'NONE', #227 ) ;
#161 = SURFACE_STYLE_FILL_AREA ( #68 ) ;
#162 = DIMENSIONAL_EXPONENTS ( 1.000000000000000000, 0.000000000000000000, 0.000000000000000000, 0.000000000000000000, 0.000000000000000000, 0.000000000000000000, 0.000000000000000000 ) ;
#163 =( NAMED_UNIT ( * ) PLANE_ANGLE_UNIT ( ) SI_UNIT ( $, .RADIAN. ) );
#164 = DIRECTION ( 'NONE',  ( -1.000000000000000000, 0.000000000000000000, 0.000000000000000000 ) ) ;
#165 = FILL_AREA_STYLE_COLOUR ( '', #11 ) ;
#166 = DIRECTION ( 'NONE',  ( 1.000000000000000000, 6.644377982596874735E-33, 0.000000000000000000 ) ) ;
#167 = MANIFOLD_SOLID_BREP ( 'Revolve - Cutting Edge', #301 ) ;
#168 = STYLED_ITEM ( 'NONE', ( #24 ), #284 ) ;
#169 = SURFACE_STYLE_USAGE ( .BOTH. , #133 ) ;
#170 = MANIFOLD_SOLID_BREP ( 'Revolve - Tool Body (Tipped Off)', #173 ) ;
#171 = CARTESIAN_POINT ( 'NONE',  ( -0.02000000000000000042, -2.657751193038749997E-34, 0.000000000000000000 ) ) ;
#172 = FACE_OUTER_BOUND ( 'NONE', #43, .T. ) ;
#173 = CLOSED_SHELL ( 'NONE', ( #206, #253, #79, #128 ) ) ;
#174 =( LENGTH_UNIT ( ) NAMED_UNIT ( * ) SI_UNIT ( $, .METRE. ) );
#175 = LINE ( 'NONE', #122, #59 ) ;
#176 = SURFACE_STYLE_USAGE ( .BOTH. , #201 ) ;
#177 = SURFACE_STYLE_USAGE ( .BOTH. , #252 ) ;
#178 = PRODUCT ( '84597', '84597', '', ( #76 ) ) ;
#179 = CARTESIAN_POINT ( 'NONE',  ( -0.06249999999999977102, 1.500000000000000222, 0.000000000000000000 ) ) ;
#180 = DIRECTION ( 'NONE',  ( -6.644377982596874735E-33, 1.000000000000000000, 0.000000000000000000 ) ) ;
#181 = STYLED_ITEM ( 'NONE', ( #32 ), #167 ) ;
#182 = EDGE_LOOP ( 'NONE', ( #283, #189, #212, #191 ) ) ;
#183 = MECHANICAL_DESIGN_GEOMETRIC_PRESENTATION_REPRESENTATION (  '', ( #168 ), #224 ) ;
#184 = PRODUCT_DEFINITION_FORMATION_WITH_SPECIFIED_SOURCE ( 'ANY', '', #178, .NOT_KNOWN. ) ;
#185 = LENGTH_MEASURE_WITH_UNIT ( LENGTH_MEASURE( 0.02539999999999999897 ), #135 );
#186 = ORIENTED_EDGE ( 'NONE', *, *, #82, .T. ) ;
#187 = CARTESIAN_POINT ( 'NONE',  ( 0.02000000000000000042, 0.000000000000000000, 2.449293598294706769E-18 ) ) ;
#188 =( LENGTH_UNIT ( ) NAMED_UNIT ( * ) SI_UNIT ( $, .METRE. ) );
#189 = ORIENTED_EDGE ( 'NONE', *, *, #240, .T. ) ;
#190 = MECHANICAL_DESIGN_GEOMETRIC_PRESENTATION_REPRESENTATION (  '', ( #3 ), #228 ) ;
#191 = ORIENTED_EDGE ( 'NONE', *, *, #256, .F. ) ;
#192 = CARTESIAN_POINT ( 'NONE',  ( 4.414775877561811796E-67, -6.644377982596874991E-35, 0.000000000000000000 ) ) ;
#193 =( CONVERSION_BASED_UNIT ( 'INCH', #288 ) LENGTH_UNIT ( ) NAMED_UNIT ( #282 ) );
#194 = UNCERTAINTY_MEASURE_WITH_UNIT (LENGTH_MEASURE( 1.000000000000000082E-05 ), #193, 'distance_accuracy_value', 'NONE');
#195 = STYLED_ITEM ( 'NONE', ( #305 ), #276 ) ;
#196 = ORIENTED_EDGE ( 'NONE', *, *, #138, .T. ) ;
#197 = CARTESIAN_POINT ( 'NONE',  ( 6.123233995736763571E-17, 1.500000000000000222, 0.000000000000000000 ) ) ;
#198 = ADVANCED_BREP_SHAPE_REPRESENTATION ( '84597', ( #167, #170, #86 ), #211 ) ;
#199 = AXIS2_PLACEMENT_3D ( 'NONE', #277, #56, #151 ) ;
#200 = DIRECTION ( 'NONE',  ( -1.203522985155330889E-16, 1.000000000000000000, -0.000000000000000000 ) ) ;
#201 = SURFACE_SIDE_STYLE ('',( #300 ) ) ;
#202 =( NAMED_UNIT ( * ) PLANE_ANGLE_UNIT ( ) SI_UNIT ( $, .RADIAN. ) );
#203 = PRODUCT_DEFINITION_SHAPE ( 'NONE', 'NONE',  #230 ) ;
#204 = DIRECTION ( 'NONE',  ( -1.203522985155330889E-16, 1.000000000000000000, -0.000000000000000000 ) ) ;
#205 = AXIS2_PLACEMENT_3D ( 'NONE', #9, #69, #166 ) ;
#206 = ADVANCED_FACE ( 'NONE', ( #299 ), #100, .T. ) ;
#207 = ORIENTED_EDGE ( 'NONE', *, *, #138, .F. ) ;
#208 = DIRECTION ( 'NONE',  ( -1.000000000000000000, -6.644377982596874735E-33, 0.000000000000000000 ) ) ;
#209 = VERTEX_POINT ( 'NONE', #303 ) ;
#210 =( LENGTH_UNIT ( ) NAMED_UNIT ( * ) SI_UNIT ( $, .METRE. ) );
#211 =( GEOMETRIC_REPRESENTATION_CONTEXT ( 3 ) GLOBAL_UNCERTAINTY_ASSIGNED_CONTEXT ( ( #48 ) ) GLOBAL_UNIT_ASSIGNED_CONTEXT ( ( #111, #163, #92 ) ) REPRESENTATION_CONTEXT ( 'NONE', 'WORKASPACE' ) );
#212 = ORIENTED_EDGE ( 'NONE', *, *, #49, .T. ) ;
#213 =( NAMED_UNIT ( * ) SI_UNIT ( $, .STERADIAN. ) SOLID_ANGLE_UNIT ( ) );
#214 = LINE ( 'NONE', #234, #293 ) ;
#215 = UNCERTAINTY_MEASURE_WITH_UNIT (LENGTH_MEASURE( 1.000000000000000082E-05 ), #117, 'distance_accuracy_value', 'NONE');
#216 = ORIENTED_EDGE ( 'NONE', *, *, #158, .T. ) ;
#217 = CIRCLE ( 'NONE', #205, 0.02000000000000000042 ) ;
#218 = CYLINDRICAL_SURFACE ( 'NONE', #297, 0.06249999999999982653 ) ;
#219 = CARTESIAN_POINT ( 'NONE',  ( 0.06249999999999997224, 1.500000000000000222, 0.000000000000000000 ) ) ;
#220 = PRESENTATION_LAYER_ASSIGNMENT (  '', '', ( #248 ) ) ;
#221 = CARTESIAN_POINT ( 'NONE',  ( -0.06249999999999997918, 0.03566173432503425000, 0.000000000000000000 ) ) ;
#222 = EDGE_CURVE ( 'NONE', #264, #160, #83, .T. ) ;
#223 = UNCERTAINTY_MEASURE_WITH_UNIT (LENGTH_MEASURE( 1.000000000000000082E-05 ), #258, 'distance_accuracy_value', 'NONE');
#224 =( GEOMETRIC_REPRESENTATION_CONTEXT ( 3 ) GLOBAL_UNCERTAINTY_ASSIGNED_CONTEXT ( ( #215 ) ) GLOBAL_UNIT_ASSIGNED_CONTEXT ( ( #117, #110, #6 ) ) REPRESENTATION_CONTEXT ( 'NONE', 'WORKASPACE' ) );
#225 = ADVANCED_FACE ( 'NONE', ( #172 ), #18, .T. ) ;
#226 =( CONVERSION_BASED_UNIT ( 'INCH', #12 ) LENGTH_UNIT ( ) NAMED_UNIT ( #134 ) );
#227 = CARTESIAN_POINT ( 'NONE',  ( -0.06249999999999985428, 1.500000000000000222, 0.000000000000000000 ) ) ;
#228 =( GEOMETRIC_REPRESENTATION_CONTEXT ( 3 ) GLOBAL_UNCERTAINTY_ASSIGNED_CONTEXT ( ( #271 ) ) GLOBAL_UNIT_ASSIGNED_CONTEXT ( ( #105, #229, #213 ) ) REPRESENTATION_CONTEXT ( 'NONE', 'WORKASPACE' ) );
#229 =( NAMED_UNIT ( * ) PLANE_ANGLE_UNIT ( ) SI_UNIT ( $, .RADIAN. ) );
#230 = PRODUCT_DEFINITION ( 'UNKNOWN', '', #184, #73 ) ;
#231 = PRESENTATION_STYLE_ASSIGNMENT (( #40 ) ) ;
#232 = ORIENTED_EDGE ( 'NONE', *, *, #22, .F. ) ;
#233 = SURFACE_STYLE_FILL_AREA ( #278 ) ;
#234 = CARTESIAN_POINT ( 'NONE',  ( -0.02000000000000000042, -2.657751193038749997E-34, 0.000000000000000000 ) ) ;
#235 = PRESENTATION_LAYER_ASSIGNMENT (  '', '', ( #195 ) ) ;
#236 = ORIENTED_EDGE ( 'NONE', *, *, #57, .F. ) ;
#237 = DIMENSIONAL_EXPONENTS ( 1.000000000000000000, 0.000000000000000000, 0.000000000000000000, 0.000000000000000000, 0.000000000000000000, 0.000000000000000000, 0.000000000000000000 ) ;
#238 = FILL_AREA_STYLE ('',( #165 ) ) ;
#239 = PLANE ( 'NONE',  #280 ) ;
#240 = EDGE_CURVE ( 'NONE', #286, #136, #88, .T. ) ;
#241 = DIRECTION ( 'NONE',  ( -1.000000000000000000, -6.644377982596874735E-33, 0.000000000000000000 ) ) ;
#242 = DIRECTION ( 'NONE',  ( -1.203522985155330889E-16, 1.000000000000000000, -0.000000000000000000 ) ) ;
#243 = LENGTH_MEASURE_WITH_UNIT ( LENGTH_MEASURE( 0.02539999999999999897 ), #141 );
#244 = DIRECTION ( 'NONE',  ( 6.644377982596874735E-33, -1.000000000000000000, -0.000000000000000000 ) ) ;
#245 = DIRECTION ( 'NONE',  ( -1.203522985155330889E-16, 1.000000000000000000, -0.000000000000000000 ) ) ;
#246 = CIRCLE ( 'NONE', #102, 0.06249999999999991673 ) ;
#247 = CIRCLE ( 'NONE', #279, 0.02000000000000000042 ) ;
#248 = STYLED_ITEM ( 'NONE', ( #78 ), #170 ) ;
#249 = SHAPE_DEFINITION_REPRESENTATION ( #203, #198 ) ;
#250 = DIRECTION ( 'NONE',  ( 1.000000000000000000, 0.000000000000000000, 0.000000000000000000 ) ) ;
#251 =( LENGTH_UNIT ( ) NAMED_UNIT ( * ) SI_UNIT ( $, .METRE. ) );
#252 = SURFACE_SIDE_STYLE ('',( #149 ) ) ;
#253 = ADVANCED_FACE ( 'NONE', ( #38 ), #21, .F. ) ;
#254 =( NAMED_UNIT ( * ) SI_UNIT ( $, .STERADIAN. ) SOLID_ANGLE_UNIT ( ) );
#255 = FILL_AREA_STYLE ('',( #272 ) ) ;
#256 = EDGE_CURVE ( 'NONE', #112, #19, #214, .T. ) ;
#257 = AXIS2_PLACEMENT_3D ( 'NONE', #197, #242, #94 ) ;
#258 =( CONVERSION_BASED_UNIT ( 'INCH', #185 ) LENGTH_UNIT ( ) NAMED_UNIT ( #162 ) );
#259 = ORIENTED_EDGE ( 'NONE', *, *, #222, .T. ) ;
#260 = LENGTH_MEASURE_WITH_UNIT ( LENGTH_MEASURE( 0.02539999999999999897 ), #210 );
#261 = FACE_OUTER_BOUND ( 'NONE', #156, .T. ) ;
#262 = SURFACE_STYLE_FILL_AREA ( #238 ) ;
#263 = ORIENTED_EDGE ( 'NONE', *, *, #158, .F. ) ;
#264 = VERTEX_POINT ( 'NONE', #109 ) ;
#265 = SURFACE_STYLE_USAGE ( .BOTH. , #44 ) ;
#266 = FACE_OUTER_BOUND ( 'NONE', #39, .T. ) ;
#267 = DIMENSIONAL_EXPONENTS ( 1.000000000000000000, 0.000000000000000000, 0.000000000000000000, 0.000000000000000000, 0.000000000000000000, 0.000000000000000000, 0.000000000000000000 ) ;
#268 = PLANE ( 'NONE',  #306 ) ;
#269 = COLOUR_RGB ( '',0.7921568627450980005, 0.8196078431372548767, 0.9333333333333333481 ) ;
#270 = ORIENTED_EDGE ( 'NONE', *, *, #240, .F. ) ;
#271 = UNCERTAINTY_MEASURE_WITH_UNIT (LENGTH_MEASURE( 1.000000000000000082E-05 ), #105, 'distance_accuracy_value', 'NONE');
#272 = FILL_AREA_STYLE_COLOUR ( '', #269 ) ;
#273 = ADVANCED_FACE ( 'NONE', ( #2 ), #140, .T. ) ;
#274 = LENGTH_MEASURE_WITH_UNIT ( LENGTH_MEASURE( 0.02539999999999999897 ), #251 );
#275 = PRESENTATION_LAYER_ASSIGNMENT (  '', '', ( #3 ) ) ;
#276 = ADVANCED_FACE ( 'NONE', ( #261 ), #239, .T. ) ;
#277 = CARTESIAN_POINT ( 'NONE',  ( 6.123233995736763571E-17, 1.500000000000000222, 0.000000000000000000 ) ) ;
#278 = FILL_AREA_STYLE ('',( #90 ) ) ;
#279 = AXIS2_PLACEMENT_3D ( 'NONE', #292, #244, #142 ) ;
#280 = AXIS2_PLACEMENT_3D ( 'NONE', #192, #159, #50 ) ;
#281 = CARTESIAN_POINT ( 'NONE',  ( 2.374688160355991010E-16, 0.03566173432503425000, 0.000000000000000000 ) ) ;
#282 = DIMENSIONAL_EXPONENTS ( 1.000000000000000000, 0.000000000000000000, 0.000000000000000000, 0.000000000000000000, 0.000000000000000000, 0.000000000000000000, 0.000000000000000000 ) ;
#283 = ORIENTED_EDGE ( 'NONE', *, *, #82, .F. ) ;
#284 = ADVANCED_FACE ( 'NONE', ( #25 ), #268, .T. ) ;
#285 =( NAMED_UNIT ( * ) PLANE_ANGLE_UNIT ( ) SI_UNIT ( $, .RADIAN. ) );
#286 = VERTEX_POINT ( 'NONE', #95 ) ;
#287 = DIRECTION ( 'NONE',  ( -0.7660444431189792347, 0.6427876096865379196, 0.000000000000000000 ) ) ;
#288 = LENGTH_MEASURE_WITH_UNIT ( LENGTH_MEASURE( 0.02539999999999999897 ), #130 );
#289 = MECHANICAL_DESIGN_GEOMETRIC_PRESENTATION_REPRESENTATION (  '', ( #181 ), #54 ) ;
#290 = ORIENTED_EDGE ( 'NONE', *, *, #256, .T. ) ;
#291 = APPLICATION_PROTOCOL_DEFINITION ( 'draft international standard', 'automotive_design', 1998, #129 ) ;
#292 = CARTESIAN_POINT ( 'NONE',  ( 8.829551755123623592E-67, -1.328875596519374998E-34, 0.000000000000000000 ) ) ;
#293 = VECTOR ( 'NONE', #287, 39.37007874015748143 ) ;
#294 = CARTESIAN_POINT ( 'NONE',  ( 0.06249999999999997918, 0.03566173432503425000, 7.654042494670956004E-18 ) ) ;
#295 = DIRECTION ( 'NONE',  ( 1.203522985155330889E-16, -1.000000000000000000, 0.000000000000000000 ) ) ;
#296 = EDGE_LOOP ( 'NONE', ( #263, #126 ) ) ;
#297 = AXIS2_PLACEMENT_3D ( 'NONE', #27, #116, #164 ) ;
#298 = COLOUR_RGB ( '',1.000000000000000000, 0.000000000000000000, 0.000000000000000000 ) ;
#299 = FACE_OUTER_BOUND ( 'NONE', #4, .T. ) ;
#300 = SURFACE_STYLE_FILL_AREA ( #255 ) ;
#301 = CLOSED_SHELL ( 'NONE', ( #273, #284, #225, #276 ) ) ;
#302 = AXIS2_PLACEMENT_3D ( 'NONE', #132, #180, #208 ) ;
#303 = CARTESIAN_POINT ( 'NONE',  ( 0.06249999999999997224, 1.500000000000000222, 7.654042494670942137E-18 ) ) ;
#304 = DIRECTION ( 'NONE',  ( -1.000000000000000000, -1.203522985155330889E-16, 0.000000000000000000 ) ) ;
#305 = PRESENTATION_STYLE_ASSIGNMENT (( #265 ) ) ;
#306 = AXIS2_PLACEMENT_3D ( 'NONE', #45, #46, #241 ) ;
#307 = ORIENTED_EDGE ( 'NONE', *, *, #222, .F. ) ;
#308 = DIRECTION ( 'NONE',  ( -1.000000000000000000, -6.644377982596874735E-33, 0.000000000000000000 ) ) ;
#309 = FILL_AREA_STYLE_COLOUR ( '', #157 ) ;
ENDSEC;
END-ISO-10303-21;
