ISO-10303-21;
HEADER;
FILE_DESCRIPTION (( 'STEP AP214' ),
    '1' );
FILE_NAME ('82520.STEP',
    '2023-06-23T05:57:48',
    ( '' ),
    ( '' ),
    'SwSTEP 2.0',
    'SolidWorks 2023',
    '' );
FILE_SCHEMA (( 'AUTOMOTIVE_DESIGN' ));
ENDSEC;

DATA;
#1 = DIRECTION ( 'NONE',  ( 0.000000000000000000, 0.000000000000000000, -1.000000000000000000 ) ) ;
#2 = SURFACE_STYLE_FILL_AREA ( #116 ) ;
#3 =( LENGTH_UNIT ( ) NAMED_UNIT ( * ) SI_UNIT ( $, .METRE. ) );
#4 = DIRECTION ( 'NONE',  ( 0.000000000000000000, 0.000000000000000000, 1.000000000000000000 ) ) ;
#5 = FILL_AREA_STYLE_COLOUR ( '', #90 ) ;
#6 = EDGE_CURVE ( 'NONE', #149, #298, #7, .T. ) ;
#7 = CIRCLE ( 'NONE', #66, 0.1562500000000000000 ) ;
#8 = EDGE_CURVE ( 'NONE', #81, #36, #148, .T. ) ;
#9 = VERTEX_POINT ( 'NONE', #23 ) ;
#10 = CLOSED_SHELL ( 'NONE', ( #147, #177, #183, #32 ) ) ;
#11 = CARTESIAN_POINT ( 'NONE',  ( 0.000000000000000000, 1.562500000000000000, 0.000000000000000000 ) ) ;
#12 = ORIENTED_EDGE ( 'NONE', *, *, #122, .F. ) ;
#13 = CARTESIAN_POINT ( 'NONE',  ( 0.000000000000000000, 1.562500000000000000, 0.000000000000000000 ) ) ;
#14 = ORIENTED_EDGE ( 'NONE', *, *, #58, .F. ) ;
#15 = CYLINDRICAL_SURFACE ( 'NONE', #277, 0.1562500000000000833 ) ;
#16 = FILL_AREA_STYLE_COLOUR ( '', #233 ) ;
#17 = PRESENTATION_STYLE_ASSIGNMENT (( #178 ) ) ;
#18 = COLOUR_RGB ( '',1.000000000000000000, 0.000000000000000000, 0.000000000000000000 ) ;
#19 =( GEOMETRIC_REPRESENTATION_CONTEXT ( 3 ) GLOBAL_UNCERTAINTY_ASSIGNED_CONTEXT ( ( #113 ) ) GLOBAL_UNIT_ASSIGNED_CONTEXT ( ( #190, #264, #115 ) ) REPRESENTATION_CONTEXT ( 'NONE', 'WORKASPACE' ) );
#20 = CARTESIAN_POINT ( 'NONE',  ( -1.224646799147352714E-16, 4.000000000000000000, 0.000000000000000000 ) ) ;
#21 = DIMENSIONAL_EXPONENTS ( 1.000000000000000000, 0.000000000000000000, 0.000000000000000000, 0.000000000000000000, 0.000000000000000000, 0.000000000000000000, 0.000000000000000000 ) ;
#22 = DIRECTION ( 'NONE',  ( 0.000000000000000000, 0.000000000000000000, -1.000000000000000000 ) ) ;
#23 = CARTESIAN_POINT ( 'NONE',  ( 0.000000000000000000, 0.000000000000000000, -0.1562500000000000000 ) ) ;
#24 = DIRECTION ( 'NONE',  ( 0.000000000000000000, 1.000000000000000000, 0.000000000000000000 ) ) ;
#25 = DIRECTION ( 'NONE',  ( 0.000000000000000000, -1.000000000000000000, -0.000000000000000000 ) ) ;
#26 = CARTESIAN_POINT ( 'NONE',  ( 0.000000000000000000, 0.000000000000000000, 0.000000000000000000 ) ) ;
#27 = DIRECTION ( 'NONE',  ( 5.024191996501958731E-17, -1.000000000000000000, 0.000000000000000000 ) ) ;
#28 = SURFACE_SIDE_STYLE ('',( #289 ) ) ;
#29 = UNCERTAINTY_MEASURE_WITH_UNIT (LENGTH_MEASURE( 1.000000000000000082E-05 ), #127, 'distance_accuracy_value', 'NONE');
#30 = PRESENTATION_STYLE_ASSIGNMENT (( #245 ) ) ;
#31 = PRODUCT_DEFINITION_FORMATION_WITH_SPECIFIED_SOURCE ( 'ANY', '', #209, .NOT_KNOWN. ) ;
#32 = ADVANCED_FACE ( 'NONE', ( #214 ), #206, .T. ) ;
#33 = CIRCLE ( 'NONE', #211, 0.1562500000000000000 ) ;
#34 =( LENGTH_UNIT ( ) NAMED_UNIT ( * ) SI_UNIT ( $, .METRE. ) );
#35 = AXIS2_PLACEMENT_3D ( 'NONE', #75, #4, #294 ) ;
#36 = VERTEX_POINT ( 'NONE', #152 ) ;
#37 = SURFACE_STYLE_FILL_AREA ( #231 ) ;
#38 = EDGE_CURVE ( 'NONE', #180, #304, #215, .T. ) ;
#39 = DIRECTION ( 'NONE',  ( 0.000000000000000000, -0.000000000000000000, 1.000000000000000000 ) ) ;
#40 = ORIENTED_EDGE ( 'NONE', *, *, #204, .T. ) ;
#41 = ORIENTED_EDGE ( 'NONE', *, *, #64, .T. ) ;
#42 = CYLINDRICAL_SURFACE ( 'NONE', #119, 0.1562500000000000000 ) ;
#43 = CARTESIAN_POINT ( 'NONE',  ( -1.224646799147352714E-16, 4.000000000000000000, 0.000000000000000000 ) ) ;
#44 = UNCERTAINTY_MEASURE_WITH_UNIT (LENGTH_MEASURE( 1.000000000000000082E-05 ), #240, 'distance_accuracy_value', 'NONE');
#45 = MECHANICAL_DESIGN_GEOMETRIC_PRESENTATION_REPRESENTATION (  '', ( #235 ), #19 ) ;
#46 = DIRECTION ( 'NONE',  ( -0.000000000000000000, -1.000000000000000000, -0.000000000000000000 ) ) ;
#47 = DIRECTION ( 'NONE',  ( 1.000000000000000000, 5.024191996501958731E-17, 0.000000000000000000 ) ) ;
#48 = CARTESIAN_POINT ( 'NONE',  ( 0.000000000000000000, 0.000000000000000000, -0.1562500000000000000 ) ) ;
#49 = PRESENTATION_STYLE_ASSIGNMENT (( #196 ) ) ;
#50 = AXIS2_PLACEMENT_3D ( 'NONE', #84, #285, #61 ) ;
#51 =( NAMED_UNIT ( * ) SI_UNIT ( $, .STERADIAN. ) SOLID_ANGLE_UNIT ( ) );
#52 = CARTESIAN_POINT ( 'NONE',  ( 1.913510623667739463E-17, 0.000000000000000000, 0.1562500000000000000 ) ) ;
#53 = ORIENTED_EDGE ( 'NONE', *, *, #8, .T. ) ;
#54 = MECHANICAL_DESIGN_GEOMETRIC_PRESENTATION_REPRESENTATION (  '', ( #192 ), #89 ) ;
#55 = ORIENTED_EDGE ( 'NONE', *, *, #6, .F. ) ;
#56 = LENGTH_MEASURE_WITH_UNIT ( LENGTH_MEASURE( 0.02539999999999999897 ), #96 );
#57 = EDGE_LOOP ( 'NONE', ( #104, #102 ) ) ;
#58 = EDGE_CURVE ( 'NONE', #234, #9, #74, .T. ) ;
#59 = EDGE_LOOP ( 'NONE', ( #53, #185 ) ) ;
#60 = STYLED_ITEM ( 'NONE', ( #287 ), #147 ) ;
#61 = DIRECTION ( 'NONE',  ( 0.000000000000000000, 0.000000000000000000, -1.000000000000000000 ) ) ;
#62 = AXIS2_PLACEMENT_3D ( 'NONE', #162, #27, #47 ) ;
#63 = SURFACE_SIDE_STYLE ('',( #252 ) ) ;
#64 = EDGE_CURVE ( 'NONE', #298, #149, #33, .T. ) ;
#65 = DIRECTION ( 'NONE',  ( -5.024191996501959347E-17, 1.000000000000000000, -0.000000000000000000 ) ) ;
#66 = AXIS2_PLACEMENT_3D ( 'NONE', #280, #263, #130 ) ;
#67 = SURFACE_STYLE_FILL_AREA ( #87 ) ;
#68 = STYLED_ITEM ( 'NONE', ( #49 ), #177 ) ;
#69 =( LENGTH_UNIT ( ) NAMED_UNIT ( * ) SI_UNIT ( $, .METRE. ) );
#70 = FILL_AREA_STYLE ('',( #5 ) ) ;
#71 = AXIS2_PLACEMENT_3D ( 'NONE', #270, #248, #207 ) ;
#72 = LINE ( 'NONE', #169, #288 ) ;
#73 =( NAMED_UNIT ( * ) PLANE_ANGLE_UNIT ( ) SI_UNIT ( $, .RADIAN. ) );
#74 = LINE ( 'NONE', #48, #164 ) ;
#75 = CARTESIAN_POINT ( 'NONE',  ( 0.000000000000000000, 0.000000000000000000, 0.000000000000000000 ) ) ;
#76 = ADVANCED_BREP_SHAPE_REPRESENTATION ( '82520', ( #150, #128, #35 ), #156 ) ;
#77 = AXIS2_PLACEMENT_3D ( 'NONE', #251, #25, #228 ) ;
#78 =( NAMED_UNIT ( * ) PLANE_ANGLE_UNIT ( ) SI_UNIT ( $, .RADIAN. ) );
#79 = DIRECTION ( 'NONE',  ( -0.000000000000000000, -1.000000000000000000, -0.000000000000000000 ) ) ;
#80 = UNCERTAINTY_MEASURE_WITH_UNIT (LENGTH_MEASURE( 1.000000000000000082E-05 ), #225, 'distance_accuracy_value', 'NONE');
#81 = VERTEX_POINT ( 'NONE', #168 ) ;
#82 = DIRECTION ( 'NONE',  ( 0.000000000000000000, 0.000000000000000000, -1.000000000000000000 ) ) ;
#83 = SURFACE_SIDE_STYLE ('',( #67 ) ) ;
#84 = CARTESIAN_POINT ( 'NONE',  ( 0.000000000000000000, 0.000000000000000000, 0.000000000000000000 ) ) ;
#85 = LENGTH_MEASURE_WITH_UNIT ( LENGTH_MEASURE( 0.02539999999999999897 ), #213 );
#86 = FILL_AREA_STYLE ('',( #306 ) ) ;
#87 = FILL_AREA_STYLE ('',( #303 ) ) ;
#88 = PLANE ( 'NONE',  #62 ) ;
#89 =( GEOMETRIC_REPRESENTATION_CONTEXT ( 3 ) GLOBAL_UNCERTAINTY_ASSIGNED_CONTEXT ( ( #161 ) ) GLOBAL_UNIT_ASSIGNED_CONTEXT ( ( #290, #78, #51 ) ) REPRESENTATION_CONTEXT ( 'NONE', 'WORKASPACE' ) );
#90 = COLOUR_RGB ( '',1.000000000000000000, 0.000000000000000000, 0.000000000000000000 ) ;
#91 = SURFACE_SIDE_STYLE ('',( #2 ) ) ;
#92 = DIRECTION ( 'NONE',  ( -5.024191996501958731E-17, 1.000000000000000000, -0.000000000000000000 ) ) ;
#93 = APPLICATION_CONTEXT ( 'automotive_design' ) ;
#94 =( GEOMETRIC_REPRESENTATION_CONTEXT ( 3 ) GLOBAL_UNCERTAINTY_ASSIGNED_CONTEXT ( ( #267 ) ) GLOBAL_UNIT_ASSIGNED_CONTEXT ( ( #309, #272, #271 ) ) REPRESENTATION_CONTEXT ( 'NONE', 'WORKASPACE' ) );
#95 = ORIENTED_EDGE ( 'NONE', *, *, #122, .T. ) ;
#96 =( LENGTH_UNIT ( ) NAMED_UNIT ( * ) SI_UNIT ( $, .METRE. ) );
#97 = ORIENTED_EDGE ( 'NONE', *, *, #114, .F. ) ;
#98 = LINE ( 'NONE', #297, #154 ) ;
#99 = ORIENTED_EDGE ( 'NONE', *, *, #114, .T. ) ;
#100 =( GEOMETRIC_REPRESENTATION_CONTEXT ( 3 ) GLOBAL_UNCERTAINTY_ASSIGNED_CONTEXT ( ( #44 ) ) GLOBAL_UNIT_ASSIGNED_CONTEXT ( ( #240, #260, #237 ) ) REPRESENTATION_CONTEXT ( 'NONE', 'WORKASPACE' ) );
#101 = DIMENSIONAL_EXPONENTS ( 1.000000000000000000, 0.000000000000000000, 0.000000000000000000, 0.000000000000000000, 0.000000000000000000, 0.000000000000000000, 0.000000000000000000 ) ;
#102 = ORIENTED_EDGE ( 'NONE', *, *, #258, .F. ) ;
#103 = DIRECTION ( 'NONE',  ( -5.024191996501959347E-17, 1.000000000000000000, -0.000000000000000000 ) ) ;
#104 = ORIENTED_EDGE ( 'NONE', *, *, #142, .F. ) ;
#105 = EDGE_LOOP ( 'NONE', ( #55, #283 ) ) ;
#106 = DIRECTION ( 'NONE',  ( -0.000000000000000000, -1.000000000000000000, -0.000000000000000000 ) ) ;
#107 = SURFACE_STYLE_FILL_AREA ( #184 ) ;
#108 = COLOUR_RGB ( '',1.000000000000000000, 0.000000000000000000, 0.000000000000000000 ) ;
#109 = ORIENTED_EDGE ( 'NONE', *, *, #6, .T. ) ;
#110 = EDGE_CURVE ( 'NONE', #36, #81, #262, .T. ) ;
#111 = ORIENTED_EDGE ( 'NONE', *, *, #58, .T. ) ;
#112 = CARTESIAN_POINT ( 'NONE',  ( 0.1562500000000000000, 1.562500000000000000, 1.913510623667740388E-17 ) ) ;
#113 = UNCERTAINTY_MEASURE_WITH_UNIT (LENGTH_MEASURE( 1.000000000000000082E-05 ), #190, 'distance_accuracy_value', 'NONE');
#114 = EDGE_CURVE ( 'NONE', #304, #9, #246, .T. ) ;
#115 =( NAMED_UNIT ( * ) SI_UNIT ( $, .STERADIAN. ) SOLID_ANGLE_UNIT ( ) );
#116 = FILL_AREA_STYLE ('',( #144 ) ) ;
#117 = LENGTH_MEASURE_WITH_UNIT ( LENGTH_MEASURE( 0.02539999999999999897 ), #3 );
#118 =( NAMED_UNIT ( * ) PLANE_ANGLE_UNIT ( ) SI_UNIT ( $, .RADIAN. ) );
#119 = AXIS2_PLACEMENT_3D ( 'NONE', #26, #140, #1 ) ;
#120 =( CONVERSION_BASED_UNIT ( 'INCH', #85 ) LENGTH_UNIT ( ) NAMED_UNIT ( #126 ) );
#121 = DIRECTION ( 'NONE',  ( -1.000000000000000000, 0.000000000000000000, 0.000000000000000000 ) ) ;
#122 = EDGE_CURVE ( 'NONE', #298, #36, #72, .T. ) ;
#123 = APPLICATION_PROTOCOL_DEFINITION ( 'draft international standard', 'automotive_design', 1998, #167 ) ;
#124 = PRODUCT_DEFINITION ( 'UNKNOWN', '', #31, #179 ) ;
#125 = EDGE_LOOP ( 'NONE', ( #40, #99 ) ) ;
#126 = DIMENSIONAL_EXPONENTS ( 1.000000000000000000, 0.000000000000000000, 0.000000000000000000, 0.000000000000000000, 0.000000000000000000, 0.000000000000000000, 0.000000000000000000 ) ;
#127 =( CONVERSION_BASED_UNIT ( 'INCH', #129 ) LENGTH_UNIT ( ) NAMED_UNIT ( #181 ) );
#128 = MANIFOLD_SOLID_BREP ( 'Revolve - Tool Body (Straight Shanked)', #254 ) ;
#129 = LENGTH_MEASURE_WITH_UNIT ( LENGTH_MEASURE( 0.02539999999999999897 ), #34 );
#130 = DIRECTION ( 'NONE',  ( -1.000000000000000000, 0.000000000000000000, 0.000000000000000000 ) ) ;
#131 = DIMENSIONAL_EXPONENTS ( 1.000000000000000000, 0.000000000000000000, 0.000000000000000000, 0.000000000000000000, 0.000000000000000000, 0.000000000000000000, 0.000000000000000000 ) ;
#132 = AXIS2_PLACEMENT_3D ( 'NONE', #11, #212, #22 ) ;
#133 = SURFACE_STYLE_USAGE ( .BOTH. , #261 ) ;
#134 = CIRCLE ( 'NONE', #227, 0.1562500000000000000 ) ;
#135 = DIRECTION ( 'NONE',  ( -5.024191996501959347E-17, 1.000000000000000000, -0.000000000000000000 ) ) ;
#136 = EDGE_CURVE ( 'NONE', #149, #81, #98, .T. ) ;
#137 = FACE_OUTER_BOUND ( 'NONE', #200, .T. ) ;
#138 = CYLINDRICAL_SURFACE ( 'NONE', #50, 0.1562500000000000000 ) ;
#139 = ORIENTED_EDGE ( 'NONE', *, *, #38, .T. ) ;
#140 = DIRECTION ( 'NONE',  ( -0.000000000000000000, -1.000000000000000000, -0.000000000000000000 ) ) ;
#141 = MECHANICAL_DESIGN_GEOMETRIC_PRESENTATION_REPRESENTATION (  '', ( #60 ), #100 ) ;
#142 = EDGE_CURVE ( 'NONE', #234, #180, #242, .T. ) ;
#143 = DIRECTION ( 'NONE',  ( 0.000000000000000000, 0.000000000000000000, -1.000000000000000000 ) ) ;
#144 = FILL_AREA_STYLE_COLOUR ( '', #108 ) ;
#145 = SURFACE_SIDE_STYLE ('',( #37 ) ) ;
#146 = VECTOR ( 'NONE', #79, 39.37007874015748143 ) ;
#147 = ADVANCED_FACE ( 'NONE', ( #137 ), #138, .T. ) ;
#148 = CIRCLE ( 'NONE', #276, 0.1562500000000001388 ) ;
#149 = VERTEX_POINT ( 'NONE', #157 ) ;
#150 = MANIFOLD_SOLID_BREP ( 'Revolve - Cutting Edge', #10 ) ;
#151 = PRESENTATION_LAYER_ASSIGNMENT (  '', '', ( #235 ) ) ;
#152 = CARTESIAN_POINT ( 'NONE',  ( 0.1562500000000000000, 4.000000000000000000, 1.913510623667740388E-17 ) ) ;
#153 = ORIENTED_EDGE ( 'NONE', *, *, #38, .F. ) ;
#154 = VECTOR ( 'NONE', #232, 39.37007874015748143 ) ;
#155 = ADVANCED_FACE ( 'NONE', ( #221 ), #259, .F. ) ;
#156 =( GEOMETRIC_REPRESENTATION_CONTEXT ( 3 ) GLOBAL_UNCERTAINTY_ASSIGNED_CONTEXT ( ( #80 ) ) GLOBAL_UNIT_ASSIGNED_CONTEXT ( ( #225, #118, #224 ) ) REPRESENTATION_CONTEXT ( 'NONE', 'WORKASPACE' ) );
#157 = CARTESIAN_POINT ( 'NONE',  ( -0.1562500000000000000, 1.562500000000000000, 0.000000000000000000 ) ) ;
#158 = EDGE_LOOP ( 'NONE', ( #109, #95, #278, #255 ) ) ;
#159 = CARTESIAN_POINT ( 'NONE',  ( 1.913510623667739463E-17, 1.562500000000000000, 0.1562500000000000000 ) ) ;
#160 = PRESENTATION_LAYER_ASSIGNMENT (  '', '', ( #60 ) ) ;
#161 = UNCERTAINTY_MEASURE_WITH_UNIT (LENGTH_MEASURE( 1.000000000000000082E-05 ), #290, 'distance_accuracy_value', 'NONE');
#162 = CARTESIAN_POINT ( 'NONE',  ( 0.1562500000000000000, 4.000000000000000000, 0.000000000000000000 ) ) ;
#163 =( LENGTH_UNIT ( ) NAMED_UNIT ( * ) SI_UNIT ( $, .METRE. ) );
#164 = VECTOR ( 'NONE', #198, 39.37007874015748143 ) ;
#165 = PRESENTATION_STYLE_ASSIGNMENT (( #269 ) ) ;
#166 = DIRECTION ( 'NONE',  ( -1.000000000000000000, -5.024191996501958731E-17, 0.000000000000000000 ) ) ;
#167 = APPLICATION_CONTEXT ( 'automotive_design' ) ;
#168 = CARTESIAN_POINT ( 'NONE',  ( -0.1562500000000002776, 4.000000000000000000, 0.000000000000000000 ) ) ;
#169 = CARTESIAN_POINT ( 'NONE',  ( 0.1562499999999999445, 4.000000000000000000, 1.913510623667740080E-17 ) ) ;
#170 =( GEOMETRIC_REPRESENTATION_CONTEXT ( 3 ) GLOBAL_UNCERTAINTY_ASSIGNED_CONTEXT ( ( #29 ) ) GLOBAL_UNIT_ASSIGNED_CONTEXT ( ( #127, #300, #186 ) ) REPRESENTATION_CONTEXT ( 'NONE', 'WORKASPACE' ) );
#171 = PRODUCT_CONTEXT ( 'NONE', #93, 'mechanical' ) ;
#172 = ADVANCED_FACE ( 'NONE', ( #218 ), #88, .F. ) ;
#173 = PRESENTATION_LAYER_ASSIGNMENT (  '', '', ( #219 ) ) ;
#174 = CARTESIAN_POINT ( 'NONE',  ( 1.913510623667739463E-17, 0.000000000000000000, 0.1562500000000000000 ) ) ;
#175 = CARTESIAN_POINT ( 'NONE',  ( 0.000000000000000000, 1.562500000000000000, 0.000000000000000000 ) ) ;
#176 = DIRECTION ( 'NONE',  ( 0.000000000000000000, 0.000000000000000000, -1.000000000000000000 ) ) ;
#177 = ADVANCED_FACE ( 'NONE', ( #191 ), #194, .T. ) ;
#178 = SURFACE_STYLE_USAGE ( .BOTH. , #63 ) ;
#179 = PRODUCT_DEFINITION_CONTEXT ( 'detailed design', #167, 'design' ) ;
#180 = VERTEX_POINT ( 'NONE', #159 ) ;
#181 = DIMENSIONAL_EXPONENTS ( 1.000000000000000000, 0.000000000000000000, 0.000000000000000000, 0.000000000000000000, 0.000000000000000000, 0.000000000000000000, 0.000000000000000000 ) ;
#182 = DIRECTION ( 'NONE',  ( -5.024191996501959347E-17, 1.000000000000000000, -0.000000000000000000 ) ) ;
#183 = ADVANCED_FACE ( 'NONE', ( #307 ), #42, .T. ) ;
#184 = FILL_AREA_STYLE ('',( #16 ) ) ;
#185 = ORIENTED_EDGE ( 'NONE', *, *, #110, .T. ) ;
#186 =( NAMED_UNIT ( * ) SI_UNIT ( $, .STERADIAN. ) SOLID_ANGLE_UNIT ( ) );
#187 = STYLED_ITEM ( 'NONE', ( #238 ), #150 ) ;
#188 = SURFACE_STYLE_USAGE ( .BOTH. , #83 ) ;
#189 = AXIS2_PLACEMENT_3D ( 'NONE', #236, #65, #257 ) ;
#190 =( CONVERSION_BASED_UNIT ( 'INCH', #197 ) LENGTH_UNIT ( ) NAMED_UNIT ( #21 ) );
#191 = FACE_OUTER_BOUND ( 'NONE', #57, .T. ) ;
#192 = STYLED_ITEM ( 'NONE', ( #30 ), #128 ) ;
#193 = FACE_OUTER_BOUND ( 'NONE', #158, .T. ) ;
#194 = PLANE ( 'NONE',  #268 ) ;
#195 = AXIS2_PLACEMENT_3D ( 'NONE', #266, #46, #143 ) ;
#196 = SURFACE_STYLE_USAGE ( .BOTH. , #91 ) ;
#197 = LENGTH_MEASURE_WITH_UNIT ( LENGTH_MEASURE( 0.02539999999999999897 ), #222 );
#198 = DIRECTION ( 'NONE',  ( -0.000000000000000000, -1.000000000000000000, -0.000000000000000000 ) ) ;
#199 = COLOUR_RGB ( '',1.000000000000000000, 0.000000000000000000, 0.000000000000000000 ) ;
#200 = EDGE_LOOP ( 'NONE', ( #282, #139, #275, #14 ) ) ;
#201 = AXIS2_PLACEMENT_3D ( 'NONE', #265, #243, #166 ) ;
#202 = FACE_OUTER_BOUND ( 'NONE', #302, .T. ) ;
#203 = MECHANICAL_DESIGN_GEOMETRIC_PRESENTATION_REPRESENTATION (  '', ( #68 ), #170 ) ;
#204 = EDGE_CURVE ( 'NONE', #9, #304, #244, .T. ) ;
#205 = CARTESIAN_POINT ( 'NONE',  ( 0.000000000000000000, 0.000000000000000000, 0.000000000000000000 ) ) ;
#206 = PLANE ( 'NONE',  #77 ) ;
#207 = DIRECTION ( 'NONE',  ( -1.000000000000000000, 0.000000000000000000, 0.000000000000000000 ) ) ;
#208 = ORIENTED_EDGE ( 'NONE', *, *, #136, .T. ) ;
#209 = PRODUCT ( '82520', '82520', '', ( #171 ) ) ;
#210 = CARTESIAN_POINT ( 'NONE',  ( 0.000000000000000000, 1.562500000000000000, -0.1562500000000000000 ) ) ;
#211 = AXIS2_PLACEMENT_3D ( 'NONE', #175, #103, #121 ) ;
#212 = DIRECTION ( 'NONE',  ( -0.000000000000000000, -1.000000000000000000, -0.000000000000000000 ) ) ;
#213 =( LENGTH_UNIT ( ) NAMED_UNIT ( * ) SI_UNIT ( $, .METRE. ) );
#214 = FACE_OUTER_BOUND ( 'NONE', #125, .T. ) ;
#215 = LINE ( 'NONE', #52, #146 ) ;
#216 = ADVANCED_FACE ( 'NONE', ( #193 ), #220, .T. ) ;
#217 = LENGTH_MEASURE_WITH_UNIT ( LENGTH_MEASURE( 0.02539999999999999897 ), #163 );
#218 = FACE_OUTER_BOUND ( 'NONE', #59, .T. ) ;
#219 = STYLED_ITEM ( 'NONE', ( #17 ), #32 ) ;
#220 = CYLINDRICAL_SURFACE ( 'NONE', #189, 0.1562500000000000833 ) ;
#221 = FACE_OUTER_BOUND ( 'NONE', #105, .T. ) ;
#222 =( LENGTH_UNIT ( ) NAMED_UNIT ( * ) SI_UNIT ( $, .METRE. ) );
#223 = EDGE_LOOP ( 'NONE', ( #153, #229, #111, #97 ) ) ;
#224 =( NAMED_UNIT ( * ) SI_UNIT ( $, .STERADIAN. ) SOLID_ANGLE_UNIT ( ) );
#225 =( CONVERSION_BASED_UNIT ( 'INCH', #56 ) LENGTH_UNIT ( ) NAMED_UNIT ( #101 ) );
#226 = MECHANICAL_DESIGN_GEOMETRIC_PRESENTATION_REPRESENTATION (  '', ( #219 ), #94 ) ;
#227 = AXIS2_PLACEMENT_3D ( 'NONE', #13, #106, #82 ) ;
#228 = DIRECTION ( 'NONE',  ( 0.000000000000000000, 0.000000000000000000, -1.000000000000000000 ) ) ;
#229 = ORIENTED_EDGE ( 'NONE', *, *, #258, .T. ) ;
#230 = ORIENTED_EDGE ( 'NONE', *, *, #110, .F. ) ;
#231 = FILL_AREA_STYLE ('',( #279 ) ) ;
#232 = DIRECTION ( 'NONE',  ( -5.024191996501958731E-17, 1.000000000000000000, -0.000000000000000000 ) ) ;
#233 = COLOUR_RGB ( '',0.7921568627450980005, 0.8196078431372548767, 0.9333333333333333481 ) ;
#234 = VERTEX_POINT ( 'NONE', #210 ) ;
#235 = STYLED_ITEM ( 'NONE', ( #165 ), #183 ) ;
#236 = CARTESIAN_POINT ( 'NONE',  ( -1.224646799147352714E-16, 4.000000000000000000, 0.000000000000000000 ) ) ;
#237 =( NAMED_UNIT ( * ) SI_UNIT ( $, .STERADIAN. ) SOLID_ANGLE_UNIT ( ) );
#238 = PRESENTATION_STYLE_ASSIGNMENT (( #133 ) ) ;
#239 = DIRECTION ( 'NONE',  ( -1.000000000000000000, 0.000000000000000000, 0.000000000000000000 ) ) ;
#240 =( CONVERSION_BASED_UNIT ( 'INCH', #281 ) LENGTH_UNIT ( ) NAMED_UNIT ( #301 ) );
#241 = ADVANCED_FACE ( 'NONE', ( #202 ), #15, .T. ) ;
#242 = CIRCLE ( 'NONE', #132, 0.1562500000000000000 ) ;
#243 = DIRECTION ( 'NONE',  ( -5.024191996501958731E-17, 1.000000000000000000, 0.000000000000000000 ) ) ;
#244 = CIRCLE ( 'NONE', #195, 0.1562500000000000000 ) ;
#245 = SURFACE_STYLE_USAGE ( .BOTH. , #145 ) ;
#246 = CIRCLE ( 'NONE', #250, 0.1562500000000000000 ) ;
#247 =( GEOMETRIC_REPRESENTATION_CONTEXT ( 3 ) GLOBAL_UNCERTAINTY_ASSIGNED_CONTEXT ( ( #308 ) ) GLOBAL_UNIT_ASSIGNED_CONTEXT ( ( #120, #73, #292 ) ) REPRESENTATION_CONTEXT ( 'NONE', 'WORKASPACE' ) );
#248 = DIRECTION ( 'NONE',  ( -5.024191996501959347E-17, 1.000000000000000000, -0.000000000000000000 ) ) ;
#249 = PRODUCT_DEFINITION_SHAPE ( 'NONE', 'NONE',  #124 ) ;
#250 = AXIS2_PLACEMENT_3D ( 'NONE', #205, #253, #176 ) ;
#251 = CARTESIAN_POINT ( 'NONE',  ( 0.000000000000000000, 0.000000000000000000, 0.000000000000000000 ) ) ;
#252 = SURFACE_STYLE_FILL_AREA ( #86 ) ;
#253 = DIRECTION ( 'NONE',  ( -0.000000000000000000, -1.000000000000000000, -0.000000000000000000 ) ) ;
#254 = CLOSED_SHELL ( 'NONE', ( #216, #155, #241, #172 ) ) ;
#255 = ORIENTED_EDGE ( 'NONE', *, *, #136, .F. ) ;
#256 = PRESENTATION_LAYER_ASSIGNMENT (  '', '', ( #68 ) ) ;
#257 = DIRECTION ( 'NONE',  ( -1.000000000000000000, 0.000000000000000000, 0.000000000000000000 ) ) ;
#258 = EDGE_CURVE ( 'NONE', #180, #234, #134, .T. ) ;
#259 = PLANE ( 'NONE',  #201 ) ;
#260 =( NAMED_UNIT ( * ) PLANE_ANGLE_UNIT ( ) SI_UNIT ( $, .RADIAN. ) );
#261 = SURFACE_SIDE_STYLE ('',( #107 ) ) ;
#262 = CIRCLE ( 'NONE', #71, 0.1562500000000001388 ) ;
#263 = DIRECTION ( 'NONE',  ( -5.024191996501959347E-17, 1.000000000000000000, -0.000000000000000000 ) ) ;
#264 =( NAMED_UNIT ( * ) PLANE_ANGLE_UNIT ( ) SI_UNIT ( $, .RADIAN. ) );
#265 = CARTESIAN_POINT ( 'NONE',  ( 1.972070720133933243E-34, 1.562500000000000000, 0.000000000000000000 ) ) ;
#266 = CARTESIAN_POINT ( 'NONE',  ( 0.000000000000000000, 0.000000000000000000, 0.000000000000000000 ) ) ;
#267 = UNCERTAINTY_MEASURE_WITH_UNIT (LENGTH_MEASURE( 1.000000000000000082E-05 ), #309, 'distance_accuracy_value', 'NONE');
#268 = AXIS2_PLACEMENT_3D ( 'NONE', #284, #24, #39 ) ;
#269 = SURFACE_STYLE_USAGE ( .BOTH. , #28 ) ;
#270 = CARTESIAN_POINT ( 'NONE',  ( -1.224646799147352714E-16, 4.000000000000000000, 0.000000000000000000 ) ) ;
#271 =( NAMED_UNIT ( * ) SI_UNIT ( $, .STERADIAN. ) SOLID_ANGLE_UNIT ( ) );
#272 =( NAMED_UNIT ( * ) PLANE_ANGLE_UNIT ( ) SI_UNIT ( $, .RADIAN. ) );
#273 = PRESENTATION_LAYER_ASSIGNMENT (  '', '', ( #187 ) ) ;
#274 = SHAPE_DEFINITION_REPRESENTATION ( #249, #76 ) ;
#275 = ORIENTED_EDGE ( 'NONE', *, *, #204, .F. ) ;
#276 = AXIS2_PLACEMENT_3D ( 'NONE', #43, #135, #239 ) ;
#277 = AXIS2_PLACEMENT_3D ( 'NONE', #20, #182, #299 ) ;
#278 = ORIENTED_EDGE ( 'NONE', *, *, #8, .F. ) ;
#279 = FILL_AREA_STYLE_COLOUR ( '', #295 ) ;
#280 = CARTESIAN_POINT ( 'NONE',  ( 0.000000000000000000, 1.562500000000000000, 0.000000000000000000 ) ) ;
#281 = LENGTH_MEASURE_WITH_UNIT ( LENGTH_MEASURE( 0.02539999999999999897 ), #69 );
#282 = ORIENTED_EDGE ( 'NONE', *, *, #142, .T. ) ;
#283 = ORIENTED_EDGE ( 'NONE', *, *, #64, .F. ) ;
#284 = CARTESIAN_POINT ( 'NONE',  ( 0.000000000000000000, 1.562500000000000000, 0.000000000000000000 ) ) ;
#285 = DIRECTION ( 'NONE',  ( -0.000000000000000000, -1.000000000000000000, -0.000000000000000000 ) ) ;
#286 = MECHANICAL_DESIGN_GEOMETRIC_PRESENTATION_REPRESENTATION (  '', ( #187 ), #247 ) ;
#287 = PRESENTATION_STYLE_ASSIGNMENT (( #188 ) ) ;
#288 = VECTOR ( 'NONE', #92, 39.37007874015748143 ) ;
#289 = SURFACE_STYLE_FILL_AREA ( #70 ) ;
#290 =( CONVERSION_BASED_UNIT ( 'INCH', #117 ) LENGTH_UNIT ( ) NAMED_UNIT ( #305 ) );
#291 = APPLICATION_PROTOCOL_DEFINITION ( 'draft international standard', 'automotive_design', 1998, #93 ) ;
#292 =( NAMED_UNIT ( * ) SI_UNIT ( $, .STERADIAN. ) SOLID_ANGLE_UNIT ( ) );
#293 = PRODUCT_RELATED_PRODUCT_CATEGORY ( 'part', '', ( #209 ) ) ;
#294 = DIRECTION ( 'NONE',  ( 1.000000000000000000, 0.000000000000000000, 0.000000000000000000 ) ) ;
#295 = COLOUR_RGB ( '',0.7921568627450980005, 0.8196078431372548767, 0.9333333333333333481 ) ;
#296 = PRESENTATION_LAYER_ASSIGNMENT (  '', '', ( #192 ) ) ;
#297 = CARTESIAN_POINT ( 'NONE',  ( -0.1562500000000002220, 4.000000000000000000, 0.000000000000000000 ) ) ;
#298 = VERTEX_POINT ( 'NONE', #112 ) ;
#299 = DIRECTION ( 'NONE',  ( -1.000000000000000000, 0.000000000000000000, 0.000000000000000000 ) ) ;
#300 =( NAMED_UNIT ( * ) PLANE_ANGLE_UNIT ( ) SI_UNIT ( $, .RADIAN. ) );
#301 = DIMENSIONAL_EXPONENTS ( 1.000000000000000000, 0.000000000000000000, 0.000000000000000000, 0.000000000000000000, 0.000000000000000000, 0.000000000000000000, 0.000000000000000000 ) ;
#302 = EDGE_LOOP ( 'NONE', ( #12, #41, #208, #230 ) ) ;
#303 = FILL_AREA_STYLE_COLOUR ( '', #199 ) ;
#304 = VERTEX_POINT ( 'NONE', #174 ) ;
#305 = DIMENSIONAL_EXPONENTS ( 1.000000000000000000, 0.000000000000000000, 0.000000000000000000, 0.000000000000000000, 0.000000000000000000, 0.000000000000000000, 0.000000000000000000 ) ;
#306 = FILL_AREA_STYLE_COLOUR ( '', #18 ) ;
#307 = FACE_OUTER_BOUND ( 'NONE', #223, .T. ) ;
#308 = UNCERTAINTY_MEASURE_WITH_UNIT (LENGTH_MEASURE( 1.000000000000000082E-05 ), #120, 'distance_accuracy_value', 'NONE');
#309 =( CONVERSION_BASED_UNIT ( 'INCH', #217 ) LENGTH_UNIT ( ) NAMED_UNIT ( #131 ) );
ENDSEC;
END-ISO-10303-21;
