ISO-10303-21;
HEADER;
FILE_DESCRIPTION (( 'STEP AP214' ),
    '1' );
FILE_NAME ('Micro_RME-016-2X.STEP',
    '2021-09-01T22:37:02',
    ( '' ),
    ( '' ),
    'SwSTEP 2.0',
    'SolidWorks 2020',
    '' );
FILE_SCHEMA (( 'AUTOMOTIVE_DESIGN' ));
ENDSEC;

DATA;
#1 = VERTEX_POINT ( 'NONE', #30 ) ;
#2 = CIRCLE ( 'NONE', #170, 0.007992000000000002574 ) ;
#3 = VERTEX_POINT ( 'NONE', #288 ) ;
#4 = ORIENTED_EDGE ( 'NONE', *, *, #151, .T. ) ;
#5 = CARTESIAN_POINT ( 'NONE',  ( -0.007992000000000002574, 0.0000000000000000000, 1.957475443757130431E-18 ) ) ;
#6 = SURFACE_SIDE_STYLE ('',( #119 ) ) ;
#7 = PRESENTATION_LAYER_ASSIGNMENT (  '', '', ( #17 ) ) ;
#8 = DIRECTION ( 'NONE',  ( -1.224646799147353454E-16, -0.0000000000000000000, -1.000000000000000000 ) ) ;
#9 = FACE_OUTER_BOUND ( 'NONE', #90, .T. ) ;
#10 = DIRECTION ( 'NONE',  ( 0.0000000000000000000, 0.0000000000000000000, -1.000000000000000000 ) ) ;
#11 = DIRECTION ( 'NONE',  ( -1.224646799147353454E-16, -0.0000000000000000000, -1.000000000000000000 ) ) ;
#12 = CIRCLE ( 'NONE', #20, 0.04750000000000064587 ) ;
#13 = CARTESIAN_POINT ( 'NONE',  ( 0.0000000000000000000, 0.0000000000000000000, 1.500000000000000222 ) ) ;
#14 = PRODUCT ( 'Micro_RME-016-2X', 'Micro_RME-016-2X', '', ( #87 ) ) ;
#15 = DIRECTION ( 'NONE',  ( -1.000000000000000000, 0.0000000000000000000, 0.0000000000000000000 ) ) ;
#16 = ADVANCED_FACE ( 'NONE', ( #9 ), #210, .F. ) ;
#17 = STYLED_ITEM ( 'NONE', ( #140 ), #117 ) ;
#18 = CARTESIAN_POINT ( 'NONE',  ( -0.007991999999999995635, 9.787377218785648302E-19, 0.04800000000000000100 ) ) ;
#19 = ORIENTED_EDGE ( 'NONE', *, *, #282, .F. ) ;
#20 = AXIS2_PLACEMENT_3D ( 'NONE', #262, #260, #84 ) ;
#21 = VERTEX_POINT ( 'NONE', #35 ) ;
#22 = EDGE_CURVE ( 'NONE', #1, #49, #122, .T. ) ;
#23 = ORIENTED_EDGE ( 'NONE', *, *, #177, .T. ) ;
#24 = ORIENTED_EDGE ( 'NONE', *, *, #191, .F. ) ;
#25 = APPLICATION_CONTEXT ( 'automotive_design' ) ;
#26 = CIRCLE ( 'NONE', #67, 0.06250000000000002776 ) ;
#27 = ADVANCED_FACE ( 'NONE', ( #185 ), #230, .T. ) ;
#28 = DIRECTION ( 'NONE',  ( 0.7071067811865462405, 8.659560562354916834E-17, -0.7071067811865486830 ) ) ;
#29 = DIRECTION ( 'NONE',  ( -1.000000000000000000, 0.0000000000000000000, 1.224646799147353454E-16 ) ) ;
#30 = CARTESIAN_POINT ( 'NONE',  ( -0.06250000000000002776, 0.0000000000000000000, 1.485000000000000764 ) ) ;
#31 = PRODUCT_DEFINITION_SHAPE ( 'NONE', 'NONE',  #85 ) ;
#32 = LINE ( 'NONE', #76, #103 ) ;
#33 = EDGE_CURVE ( 'NONE', #176, #229, #163, .T. ) ;
#34 = FACE_OUTER_BOUND ( 'NONE', #200, .T. ) ;
#35 = CARTESIAN_POINT ( 'NONE',  ( -0.04750000000000064587, 0.0000000000000000000, 1.500000000000000222 ) ) ;
#36 = AXIS2_PLACEMENT_3D ( 'NONE', #218, #239, #106 ) ;
#37 = CARTESIAN_POINT ( 'NONE',  ( 5.878304635907297015E-18, 0.0000000000000000000, 0.04800000000000000100 ) ) ;
#38 = EDGE_CURVE ( 'NONE', #3, #227, #123, .T. ) ;
#39 = ADVANCED_FACE ( 'NONE', ( #206 ), #164, .T. ) ;
#40 = CARTESIAN_POINT ( 'NONE',  ( 4.373583923425194285E-17, 0.0000000000000000000, 0.3571302294237206354 ) ) ;
#41 =( GEOMETRIC_REPRESENTATION_CONTEXT ( 3 ) GLOBAL_UNCERTAINTY_ASSIGNED_CONTEXT ( ( #42 ) ) GLOBAL_UNIT_ASSIGNED_CONTEXT ( ( #298, #91, #272 ) ) REPRESENTATION_CONTEXT ( 'NONE', 'WORKASPACE' ) );
#42 = UNCERTAINTY_MEASURE_WITH_UNIT (LENGTH_MEASURE( 1.000000000000000082E-05 ), #298, 'distance_accuracy_value', 'NONE');
#43 = FILL_AREA_STYLE_COLOUR ( '', #203 ) ;
#44 = ORIENTED_EDGE ( 'NONE', *, *, #131, .F. ) ;
#45 = AXIS2_PLACEMENT_3D ( 'NONE', #186, #146, #290 ) ;
#46 = CIRCLE ( 'NONE', #295, 0.007992000000000002574 ) ;
#47 = ORIENTED_EDGE ( 'NONE', *, *, #22, .T. ) ;
#48 = ADVANCED_FACE ( 'NONE', ( #59 ), #56, .T. ) ;
#49 = VERTEX_POINT ( 'NONE', #54 ) ;
#50 = ORIENTED_EDGE ( 'NONE', *, *, #128, .T. ) ;
#51 = EDGE_LOOP ( 'NONE', ( #136, #116 ) ) ;
#52 = MECHANICAL_DESIGN_GEOMETRIC_PRESENTATION_REPRESENTATION (  '', ( #17 ), #88 ) ;
#53 = CARTESIAN_POINT ( 'NONE',  ( -0.06250000000000002776, 0.0000000000000000000, 1.500000000000000222 ) ) ;
#54 = CARTESIAN_POINT ( 'NONE',  ( -0.06249999999999997918, 0.0000000000000000000, 0.3571302294237206354 ) ) ;
#55 = DIRECTION ( 'NONE',  ( 1.224646799147353454E-16, 0.0000000000000000000, 1.000000000000000000 ) ) ;
#56 = CONICAL_SURFACE ( 'NONE', #82, 0.04750000000000064587, 0.7853981633974466137 ) ;
#57 = AXIS2_PLACEMENT_3D ( 'NONE', #183, #219, #173 ) ;
#58 = PLANE ( 'NONE',  #141 ) ;
#59 = FACE_OUTER_BOUND ( 'NONE', #249, .T. ) ;
#60 = EDGE_CURVE ( 'NONE', #1, #227, #245, .T. ) ;
#61 =( CONVERSION_BASED_UNIT ( 'INCH', #175 ) LENGTH_UNIT ( ) NAMED_UNIT ( #211 ) );
#62 = CONICAL_SURFACE ( 'NONE', #251, 0.04750000000000064587, 0.7853981633974466137 ) ;
#63 = ORIENTED_EDGE ( 'NONE', *, *, #33, .F. ) ;
#64 = SHAPE_DEFINITION_REPRESENTATION ( #31, #264 ) ;
#65 = DIRECTION ( 'NONE',  ( -0.0000000000000000000, -0.0000000000000000000, -1.000000000000000000 ) ) ;
#66 = EDGE_LOOP ( 'NONE', ( #63, #4, #110, #247 ) ) ;
#67 = AXIS2_PLACEMENT_3D ( 'NONE', #40, #292, #194 ) ;
#68 = ORIENTED_EDGE ( 'NONE', *, *, #265, .T. ) ;
#69 = ORIENTED_EDGE ( 'NONE', *, *, #282, .T. ) ;
#70 = FILL_AREA_STYLE ('',( #280 ) ) ;
#71 = CARTESIAN_POINT ( 'NONE',  ( 5.878304635907297015E-18, 0.0000000000000000000, 0.04800000000000000100 ) ) ;
#72 = DIRECTION ( 'NONE',  ( 0.0000000000000000000, 0.0000000000000000000, 1.000000000000000000 ) ) ;
#73 = CARTESIAN_POINT ( 'NONE',  ( 0.04750000000000064587, 5.817072295950006528E-18, 1.500000000000000222 ) ) ;
#74 = ADVANCED_FACE ( 'NONE', ( #34 ), #150, .T. ) ;
#75 = CARTESIAN_POINT ( 'NONE',  ( 0.0000000000000000000, 0.0000000000000000000, 1.500000000000000222 ) ) ;
#76 = CARTESIAN_POINT ( 'NONE',  ( -0.007992000000000002574, 0.0000000000000000000, 9.787377218785652154E-19 ) ) ;
#77 = ADVANCED_FACE ( 'NONE', ( #165 ), #142, .T. ) ;
#78 = EDGE_CURVE ( 'NONE', #297, #271, #32, .T. ) ;
#79 = CARTESIAN_POINT ( 'NONE',  ( -0.007991999999999995635, 4.316390108274762921E-18, 0.04800000000000000100 ) ) ;
#80 = CARTESIAN_POINT ( 'NONE',  ( 0.06250000000000002776, 7.654042494670959086E-18, 1.485000000000000764 ) ) ;
#81 = CARTESIAN_POINT ( 'NONE',  ( 0.06250000000000006939, 7.654042494670963708E-18, 0.3571302294237206354 ) ) ;
#82 = AXIS2_PLACEMENT_3D ( 'NONE', #75, #162, #234 ) ;
#83 = ADVANCED_FACE ( 'NONE', ( #253 ), #58, .T. ) ;
#84 = DIRECTION ( 'NONE',  ( 1.000000000000000000, 0.0000000000000000000, 0.0000000000000000000 ) ) ;
#85 = PRODUCT_DEFINITION ( 'UNKNOWN', '', #99, #221 ) ;
#86 = ORIENTED_EDGE ( 'NONE', *, *, #78, .F. ) ;
#87 = PRODUCT_CONTEXT ( 'NONE', #25, 'mechanical' ) ;
#88 =( GEOMETRIC_REPRESENTATION_CONTEXT ( 3 ) GLOBAL_UNCERTAINTY_ASSIGNED_CONTEXT ( ( #153 ) ) GLOBAL_UNIT_ASSIGNED_CONTEXT ( ( #132, #293, #222 ) ) REPRESENTATION_CONTEXT ( 'NONE', 'WORKASPACE' ) );
#89 = ORIENTED_EDGE ( 'NONE', *, *, #22, .F. ) ;
#90 = EDGE_LOOP ( 'NONE', ( #299, #268 ) ) ;
#91 =( NAMED_UNIT ( * ) PLANE_ANGLE_UNIT ( ) SI_UNIT ( $, .RADIAN. ) );
#92 = DIRECTION ( 'NONE',  ( 0.0000000000000000000, 0.0000000000000000000, -1.000000000000000000 ) ) ;
#93 = DIRECTION ( 'NONE',  ( -1.224646799147353454E-16, -0.0000000000000000000, -1.000000000000000000 ) ) ;
#94 = CARTESIAN_POINT ( 'NONE',  ( 0.007992000000000002574, 9.787377218785648302E-19, -9.787377218785652154E-19 ) ) ;
#95 = DIRECTION ( 'NONE',  ( 1.000000000000000000, 0.0000000000000000000, 0.0000000000000000000 ) ) ;
#96 = CARTESIAN_POINT ( 'NONE',  ( 0.0000000000000000000, 0.0000000000000000000, 0.0000000000000000000 ) ) ;
#97 = DIRECTION ( 'NONE',  ( -0.0000000000000000000, -0.0000000000000000000, -1.000000000000000000 ) ) ;
#98 = COLOUR_RGB ( '',0.7921568627450980005, 0.8196078431372548767, 0.9333333333333333481 ) ;
#99 = PRODUCT_DEFINITION_FORMATION_WITH_SPECIFIED_SOURCE ( 'ANY', '', #14, .NOT_KNOWN. ) ;
#100 = DIRECTION ( 'NONE',  ( -1.000000000000000000, 0.0000000000000000000, 1.224646799147353454E-16 ) ) ;
#101 = CARTESIAN_POINT ( 'NONE',  ( 0.0000000000000000000, 0.0000000000000000000, 1.500000000000000222 ) ) ;
#102 = VECTOR ( 'NONE', #188, 39.37007874015748143 ) ;
#103 = VECTOR ( 'NONE', #167, 39.37007874015748143 ) ;
#104 = VECTOR ( 'NONE', #145, 39.37007874015748854 ) ;
#105 = ADVANCED_FACE ( 'NONE', ( #212 ), #62, .T. ) ;
#106 = DIRECTION ( 'NONE',  ( 1.000000000000000000, 0.0000000000000000000, 0.0000000000000000000 ) ) ;
#107 = DIRECTION ( 'NONE',  ( -1.224646799147353454E-16, -0.0000000000000000000, -1.000000000000000000 ) ) ;
#108 = DIRECTION ( 'NONE',  ( 1.000000000000000000, 0.0000000000000000000, 0.0000000000000000000 ) ) ;
#109 = ORIENTED_EDGE ( 'NONE', *, *, #38, .T. ) ;
#110 = ORIENTED_EDGE ( 'NONE', *, *, #78, .T. ) ;
#111 = UNCERTAINTY_MEASURE_WITH_UNIT (LENGTH_MEASURE( 1.000000000000000082E-05 ), #61, 'distance_accuracy_value', 'NONE');
#112 = APPLICATION_PROTOCOL_DEFINITION ( 'draft international standard', 'automotive_design', 1998, #25 ) ;
#113 = ORIENTED_EDGE ( 'NONE', *, *, #128, .F. ) ;
#114 =( LENGTH_UNIT ( ) NAMED_UNIT ( * ) SI_UNIT ( $, .METRE. ) );
#115 = AXIS2_PLACEMENT_3D ( 'NONE', #266, #8, #197 ) ;
#116 = ORIENTED_EDGE ( 'NONE', *, *, #131, .T. ) ;
#117 = MANIFOLD_SOLID_BREP ( 'Cut-Revolve1', #287 ) ;
#118 = VERTEX_POINT ( 'NONE', #81 ) ;
#119 = SURFACE_STYLE_FILL_AREA ( #70 ) ;
#120 = LENGTH_MEASURE_WITH_UNIT ( LENGTH_MEASURE( 0.02539999999999999897 ), #114 );
#121 = AXIS2_PLACEMENT_3D ( 'NONE', #124, #92, #125 ) ;
#122 = LINE ( 'NONE', #53, #102 ) ;
#123 = LINE ( 'NONE', #73, #207 ) ;
#124 = CARTESIAN_POINT ( 'NONE',  ( 0.0000000000000000000, 0.0000000000000000000, 1.485000000000000764 ) ) ;
#125 = DIRECTION ( 'NONE',  ( 1.000000000000000000, 0.0000000000000000000, 0.0000000000000000000 ) ) ;
#126 = MECHANICAL_DESIGN_GEOMETRIC_PRESENTATION_REPRESENTATION (  '', ( #225 ), #289 ) ;
#127 = CARTESIAN_POINT ( 'NONE',  ( 5.878304635907297015E-18, 0.0000000000000000000, 0.04800000000000000100 ) ) ;
#128 = EDGE_CURVE ( 'NONE', #227, #1, #257, .T. ) ;
#129 = CARTESIAN_POINT ( 'NONE',  ( 1.198608018303357353E-34, 0.0000000000000000000, 9.787377218785652154E-19 ) ) ;
#130 = AXIS2_PLACEMENT_3D ( 'NONE', #101, #240, #155 ) ;
#131 = EDGE_CURVE ( 'NONE', #3, #21, #12, .T. ) ;
#132 =( CONVERSION_BASED_UNIT ( 'INCH', #270 ) LENGTH_UNIT ( ) NAMED_UNIT ( #284 ) );
#133 = ORIENTED_EDGE ( 'NONE', *, *, #265, .F. ) ;
#134 = EDGE_LOOP ( 'NONE', ( #244, #50, #47, #204 ) ) ;
#135 = ORIENTED_EDGE ( 'NONE', *, *, #192, .T. ) ;
#136 = ORIENTED_EDGE ( 'NONE', *, *, #161, .T. ) ;
#137 = CARTESIAN_POINT ( 'NONE',  ( -0.04750000000000064587, 0.0000000000000000000, 1.500000000000000222 ) ) ;
#138 = EDGE_CURVE ( 'NONE', #227, #118, #267, .T. ) ;
#139 = CARTESIAN_POINT ( 'NONE',  ( 0.0000000000000000000, 0.0000000000000000000, 1.500000000000000222 ) ) ;
#140 = PRESENTATION_STYLE_ASSIGNMENT (( #184 ) ) ;
#141 = AXIS2_PLACEMENT_3D ( 'NONE', #139, #216, #259 ) ;
#142 = CYLINDRICAL_SURFACE ( 'NONE', #215, 0.007992000000000002574 ) ;
#143 = AXIS2_PLACEMENT_3D ( 'NONE', #261, #152, #108 ) ;
#144 = DIRECTION ( 'NONE',  ( -1.000000000000000000, 0.0000000000000000000, 0.0000000000000000000 ) ) ;
#145 = DIRECTION ( 'NONE',  ( -0.7071067811865462405, 0.0000000000000000000, -0.7071067811865486830 ) ) ;
#146 = DIRECTION ( 'NONE',  ( -0.0000000000000000000, -0.0000000000000000000, -1.000000000000000000 ) ) ;
#147 = CARTESIAN_POINT ( 'NONE',  ( 0.007992000000000002574, 9.787377218785648302E-19, 0.0000000000000000000 ) ) ;
#148 =( NAMED_UNIT ( * ) PLANE_ANGLE_UNIT ( ) SI_UNIT ( $, .RADIAN. ) );
#149 = CARTESIAN_POINT ( 'NONE',  ( 0.007992000000000007778, 0.0000000000000000000, 0.04800000000000000100 ) ) ;
#150 = CONICAL_SURFACE ( 'NONE', #231, 0.007992000000000002574, 0.1745329251994338637 ) ;
#151 = EDGE_CURVE ( 'NONE', #176, #297, #2, .T. ) ;
#152 = DIRECTION ( 'NONE',  ( -1.224646799147353454E-16, -0.0000000000000000000, -1.000000000000000000 ) ) ;
#153 = UNCERTAINTY_MEASURE_WITH_UNIT (LENGTH_MEASURE( 1.000000000000000082E-05 ), #132, 'distance_accuracy_value', 'NONE');
#154 =( LENGTH_UNIT ( ) NAMED_UNIT ( * ) SI_UNIT ( $, .METRE. ) );
#155 = DIRECTION ( 'NONE',  ( 1.000000000000000000, 0.0000000000000000000, 0.0000000000000000000 ) ) ;
#156 = ORIENTED_EDGE ( 'NONE', *, *, #161, .F. ) ;
#157 = LINE ( 'NONE', #18, #171 ) ;
#158 = EDGE_LOOP ( 'NONE', ( #179, #156, #202, #113 ) ) ;
#159 = EDGE_LOOP ( 'NONE', ( #226, #201, #19, #89 ) ) ;
#160 = DIRECTION ( 'NONE',  ( -1.000000000000000000, 0.0000000000000000000, 0.0000000000000000000 ) ) ;
#161 = EDGE_CURVE ( 'NONE', #21, #3, #196, .T. ) ;
#162 = DIRECTION ( 'NONE',  ( 0.0000000000000000000, 0.0000000000000000000, -1.000000000000000000 ) ) ;
#163 = LINE ( 'NONE', #94, #178 ) ;
#164 = CYLINDRICAL_SURFACE ( 'NONE', #198, 0.06250000000000002776 ) ;
#165 = FACE_OUTER_BOUND ( 'NONE', #242, .T. ) ;
#166 = CIRCLE ( 'NONE', #238, 0.007992000000000002574 ) ;
#167 = DIRECTION ( 'NONE',  ( -1.224646799147353454E-16, -0.0000000000000000000, -1.000000000000000000 ) ) ;
#168 = SURFACE_STYLE_FILL_AREA ( #269 ) ;
#169 = CARTESIAN_POINT ( 'NONE',  ( 1.198608018303357353E-34, 0.0000000000000000000, 9.787377218785652154E-19 ) ) ;
#170 = AXIS2_PLACEMENT_3D ( 'NONE', #127, #172, #15 ) ;
#171 = VECTOR ( 'NONE', #199, 39.37007874015747433 ) ;
#172 = DIRECTION ( 'NONE',  ( -1.224646799147353454E-16, -0.0000000000000000000, -1.000000000000000000 ) ) ;
#173 = DIRECTION ( 'NONE',  ( 1.000000000000000000, 0.0000000000000000000, 0.0000000000000000000 ) ) ;
#174 = ORIENTED_EDGE ( 'NONE', *, *, #33, .T. ) ;
#175 = LENGTH_MEASURE_WITH_UNIT ( LENGTH_MEASURE( 0.02539999999999999897 ), #154 );
#176 = VERTEX_POINT ( 'NONE', #149 ) ;
#177 = EDGE_CURVE ( 'NONE', #297, #49, #157, .T. ) ;
#178 = VECTOR ( 'NONE', #11, 39.37007874015748143 ) ;
#179 = ORIENTED_EDGE ( 'NONE', *, *, #38, .F. ) ;
#180 = ORIENTED_EDGE ( 'NONE', *, *, #286, .F. ) ;
#181 = AXIS2_PLACEMENT_3D ( 'NONE', #96, #72, #285 ) ;
#182 = EDGE_CURVE ( 'NONE', #271, #229, #46, .T. ) ;
#183 = CARTESIAN_POINT ( 'NONE',  ( 0.0000000000000000000, 0.0000000000000000000, 1.485000000000000764 ) ) ;
#184 = SURFACE_STYLE_USAGE ( .BOTH. , #6 ) ;
#185 = FACE_OUTER_BOUND ( 'NONE', #159, .T. ) ;
#186 = CARTESIAN_POINT ( 'NONE',  ( 0.0000000000000000000, 0.0000000000000000000, 1.500000000000000222 ) ) ;
#187 = DIRECTION ( 'NONE',  ( -1.224646799147353454E-16, -0.0000000000000000000, -1.000000000000000000 ) ) ;
#188 = DIRECTION ( 'NONE',  ( -0.0000000000000000000, -0.0000000000000000000, -1.000000000000000000 ) ) ;
#189 = CONICAL_SURFACE ( 'NONE', #281, 0.007992000000000002574, 0.1745329251994338637 ) ;
#190 = DIRECTION ( 'NONE',  ( 0.1736481776669313581, 0.0000000000000000000, 0.9848077530122077983 ) ) ;
#191 = EDGE_CURVE ( 'NONE', #176, #118, #195, .T. ) ;
#192 = EDGE_CURVE ( 'NONE', #118, #49, #26, .T. ) ;
#193 = SURFACE_SIDE_STYLE ('',( #168 ) ) ;
#194 = DIRECTION ( 'NONE',  ( 1.000000000000000000, 0.0000000000000000000, 0.0000000000000000000 ) ) ;
#195 = LINE ( 'NONE', #237, #275 ) ;
#196 = CIRCLE ( 'NONE', #130, 0.04750000000000064587 ) ;
#197 = DIRECTION ( 'NONE',  ( -1.000000000000000000, 0.0000000000000000000, 1.224646799147353454E-16 ) ) ;
#198 = AXIS2_PLACEMENT_3D ( 'NONE', #255, #97, #233 ) ;
#199 = DIRECTION ( 'NONE',  ( -0.1736481776669311639, 2.126576849575783008E-17, 0.9848077530122080203 ) ) ;
#200 = EDGE_LOOP ( 'NONE', ( #279, #223, #274, #135 ) ) ;
#201 = ORIENTED_EDGE ( 'NONE', *, *, #138, .T. ) ;
#202 = ORIENTED_EDGE ( 'NONE', *, *, #286, .T. ) ;
#203 = COLOUR_RGB ( '',0.7921568627450980005, 0.8196078431372548767, 0.9333333333333333481 ) ;
#204 = ORIENTED_EDGE ( 'NONE', *, *, #192, .F. ) ;
#205 = EDGE_LOOP ( 'NONE', ( #133, #23, #69, #24 ) ) ;
#206 = FACE_OUTER_BOUND ( 'NONE', #134, .T. ) ;
#207 = VECTOR ( 'NONE', #28, 39.37007874015748854 ) ;
#208 = FACE_OUTER_BOUND ( 'NONE', #66, .T. ) ;
#209 = CIRCLE ( 'NONE', #217, 0.007992000000000002574 ) ;
#210 = PLANE ( 'NONE',  #181 ) ;
#211 = DIMENSIONAL_EXPONENTS ( 1.000000000000000000, 0.0000000000000000000, 0.0000000000000000000, 0.0000000000000000000, 0.0000000000000000000, 0.0000000000000000000, 0.0000000000000000000 ) ;
#212 = FACE_OUTER_BOUND ( 'NONE', #158, .T. ) ;
#213 = CYLINDRICAL_SURFACE ( 'NONE', #115, 0.007992000000000002574 ) ;
#214 = CARTESIAN_POINT ( 'NONE',  ( 0.0000000000000000000, 0.0000000000000000000, 0.0000000000000000000 ) ) ;
#215 = AXIS2_PLACEMENT_3D ( 'NONE', #214, #258, #232 ) ;
#216 = DIRECTION ( 'NONE',  ( 0.0000000000000000000, 0.0000000000000000000, 1.000000000000000000 ) ) ;
#217 = AXIS2_PLACEMENT_3D ( 'NONE', #71, #93, #160 ) ;
#218 = CARTESIAN_POINT ( 'NONE',  ( 0.0000000000000000000, 0.0000000000000000000, 0.0000000000000000000 ) ) ;
#219 = DIRECTION ( 'NONE',  ( 0.0000000000000000000, 0.0000000000000000000, -1.000000000000000000 ) ) ;
#220 = DIRECTION ( 'NONE',  ( 1.224646799147353454E-16, 0.0000000000000000000, 1.000000000000000000 ) ) ;
#221 = PRODUCT_DEFINITION_CONTEXT ( 'detailed design', #291, 'design' ) ;
#222 =( NAMED_UNIT ( * ) SI_UNIT ( $, .STERADIAN. ) SOLID_ANGLE_UNIT ( ) );
#223 = ORIENTED_EDGE ( 'NONE', *, *, #151, .F. ) ;
#224 = SURFACE_STYLE_USAGE ( .BOTH. , #193 ) ;
#225 = STYLED_ITEM ( 'NONE', ( #276 ), #264 ) ;
#226 = ORIENTED_EDGE ( 'NONE', *, *, #60, .T. ) ;
#227 = VERTEX_POINT ( 'NONE', #80 ) ;
#228 = PRESENTATION_LAYER_ASSIGNMENT (  '', '', ( #225 ) ) ;
#229 = VERTEX_POINT ( 'NONE', #147 ) ;
#230 = CYLINDRICAL_SURFACE ( 'NONE', #45, 0.06250000000000002776 ) ;
#231 = AXIS2_PLACEMENT_3D ( 'NONE', #256, #55, #283 ) ;
#232 = DIRECTION ( 'NONE',  ( -1.000000000000000000, 0.0000000000000000000, 1.224646799147353454E-16 ) ) ;
#233 = DIRECTION ( 'NONE',  ( -1.000000000000000000, 0.0000000000000000000, 0.0000000000000000000 ) ) ;
#234 = DIRECTION ( 'NONE',  ( -1.000000000000000000, 0.0000000000000000000, 0.0000000000000000000 ) ) ;
#235 = ADVANCED_FACE ( 'NONE', ( #236 ), #189, .T. ) ;
#236 = FACE_OUTER_BOUND ( 'NONE', #205, .T. ) ;
#237 = CARTESIAN_POINT ( 'NONE',  ( 0.007992000000000007778, 0.0000000000000000000, 0.04800000000000000100 ) ) ;
#238 = AXIS2_PLACEMENT_3D ( 'NONE', #129, #187, #29 ) ;
#239 = DIRECTION ( 'NONE',  ( 0.0000000000000000000, 0.0000000000000000000, 1.000000000000000000 ) ) ;
#240 = DIRECTION ( 'NONE',  ( 0.0000000000000000000, 0.0000000000000000000, 1.000000000000000000 ) ) ;
#241 = PRODUCT_RELATED_PRODUCT_CATEGORY ( 'part', '', ( #14 ) ) ;
#242 = EDGE_LOOP ( 'NONE', ( #68, #174, #277, #86 ) ) ;
#243 = EDGE_CURVE ( 'NONE', #229, #271, #166, .T. ) ;
#244 = ORIENTED_EDGE ( 'NONE', *, *, #138, .F. ) ;
#245 = CIRCLE ( 'NONE', #121, 0.06250000000000002776 ) ;
#246 =( NAMED_UNIT ( * ) SI_UNIT ( $, .STERADIAN. ) SOLID_ANGLE_UNIT ( ) );
#247 = ORIENTED_EDGE ( 'NONE', *, *, #243, .F. ) ;
#248 = APPLICATION_PROTOCOL_DEFINITION ( 'draft international standard', 'automotive_design', 1998, #291 ) ;
#249 = EDGE_LOOP ( 'NONE', ( #44, #109, #250, #180 ) ) ;
#250 = ORIENTED_EDGE ( 'NONE', *, *, #60, .F. ) ;
#251 = AXIS2_PLACEMENT_3D ( 'NONE', #13, #10, #144 ) ;
#252 = VECTOR ( 'NONE', #65, 39.37007874015748143 ) ;
#253 = FACE_OUTER_BOUND ( 'NONE', #51, .T. ) ;
#254 = ADVANCED_FACE ( 'NONE', ( #208 ), #213, .T. ) ;
#255 = CARTESIAN_POINT ( 'NONE',  ( 0.0000000000000000000, 0.0000000000000000000, 1.500000000000000222 ) ) ;
#256 = CARTESIAN_POINT ( 'NONE',  ( 5.878304635907297015E-18, 0.0000000000000000000, 0.04800000000000000100 ) ) ;
#257 = CIRCLE ( 'NONE', #57, 0.06250000000000002776 ) ;
#258 = DIRECTION ( 'NONE',  ( -1.224646799147353454E-16, -0.0000000000000000000, -1.000000000000000000 ) ) ;
#259 = DIRECTION ( 'NONE',  ( 1.000000000000000000, 0.0000000000000000000, -0.0000000000000000000 ) ) ;
#260 = DIRECTION ( 'NONE',  ( 0.0000000000000000000, 0.0000000000000000000, 1.000000000000000000 ) ) ;
#261 = CARTESIAN_POINT ( 'NONE',  ( 4.373583923425194285E-17, 0.0000000000000000000, 0.3571302294237206354 ) ) ;
#262 = CARTESIAN_POINT ( 'NONE',  ( 0.0000000000000000000, 0.0000000000000000000, 1.500000000000000222 ) ) ;
#263 = CIRCLE ( 'NONE', #143, 0.06250000000000002776 ) ;
#264 = ADVANCED_BREP_SHAPE_REPRESENTATION ( 'Micro_RME-016-2X', ( #117, #36 ), #41 ) ;
#265 = EDGE_CURVE ( 'NONE', #297, #176, #209, .T. ) ;
#266 = CARTESIAN_POINT ( 'NONE',  ( 0.0000000000000000000, 0.0000000000000000000, 0.0000000000000000000 ) ) ;
#267 = LINE ( 'NONE', #294, #252 ) ;
#268 = ORIENTED_EDGE ( 'NONE', *, *, #243, .T. ) ;
#269 = FILL_AREA_STYLE ('',( #43 ) ) ;
#270 = LENGTH_MEASURE_WITH_UNIT ( LENGTH_MEASURE( 0.02539999999999999897 ), #296 );
#271 = VERTEX_POINT ( 'NONE', #5 ) ;
#272 =( NAMED_UNIT ( * ) SI_UNIT ( $, .STERADIAN. ) SOLID_ANGLE_UNIT ( ) );
#273 = LINE ( 'NONE', #137, #104 ) ;
#274 = ORIENTED_EDGE ( 'NONE', *, *, #191, .T. ) ;
#275 = VECTOR ( 'NONE', #190, 39.37007874015748143 ) ;
#276 = PRESENTATION_STYLE_ASSIGNMENT (( #224 ) ) ;
#277 = ORIENTED_EDGE ( 'NONE', *, *, #182, .F. ) ;
#278 = DIMENSIONAL_EXPONENTS ( 1.000000000000000000, 0.0000000000000000000, 0.0000000000000000000, 0.0000000000000000000, 0.0000000000000000000, 0.0000000000000000000, 0.0000000000000000000 ) ;
#279 = ORIENTED_EDGE ( 'NONE', *, *, #177, .F. ) ;
#280 = FILL_AREA_STYLE_COLOUR ( '', #98 ) ;
#281 = AXIS2_PLACEMENT_3D ( 'NONE', #37, #220, #95 ) ;
#282 = EDGE_CURVE ( 'NONE', #49, #118, #263, .T. ) ;
#283 = DIRECTION ( 'NONE',  ( 1.000000000000000000, 0.0000000000000000000, 0.0000000000000000000 ) ) ;
#284 = DIMENSIONAL_EXPONENTS ( 1.000000000000000000, 0.0000000000000000000, 0.0000000000000000000, 0.0000000000000000000, 0.0000000000000000000, 0.0000000000000000000, 0.0000000000000000000 ) ;
#285 = DIRECTION ( 'NONE',  ( 1.000000000000000000, 0.0000000000000000000, -0.0000000000000000000 ) ) ;
#286 = EDGE_CURVE ( 'NONE', #21, #1, #273, .T. ) ;
#287 = CLOSED_SHELL ( 'NONE', ( #77, #235, #48, #27, #39, #83, #105, #74, #254, #16 ) ) ;
#288 = CARTESIAN_POINT ( 'NONE',  ( 0.04750000000000064587, 6.735557395310483192E-18, 1.500000000000000222 ) ) ;
#289 =( GEOMETRIC_REPRESENTATION_CONTEXT ( 3 ) GLOBAL_UNCERTAINTY_ASSIGNED_CONTEXT ( ( #111 ) ) GLOBAL_UNIT_ASSIGNED_CONTEXT ( ( #61, #148, #246 ) ) REPRESENTATION_CONTEXT ( 'NONE', 'WORKASPACE' ) );
#290 = DIRECTION ( 'NONE',  ( -1.000000000000000000, 0.0000000000000000000, 0.0000000000000000000 ) ) ;
#291 = APPLICATION_CONTEXT ( 'automotive_design' ) ;
#292 = DIRECTION ( 'NONE',  ( -1.224646799147353454E-16, -0.0000000000000000000, -1.000000000000000000 ) ) ;
#293 =( NAMED_UNIT ( * ) PLANE_ANGLE_UNIT ( ) SI_UNIT ( $, .RADIAN. ) );
#294 = CARTESIAN_POINT ( 'NONE',  ( 0.06250000000000002776, 7.654042494670959086E-18, 1.500000000000000222 ) ) ;
#295 = AXIS2_PLACEMENT_3D ( 'NONE', #169, #107, #100 ) ;
#296 =( LENGTH_UNIT ( ) NAMED_UNIT ( * ) SI_UNIT ( $, .METRE. ) );
#297 = VERTEX_POINT ( 'NONE', #79 ) ;
#298 =( CONVERSION_BASED_UNIT ( 'INCH', #120 ) LENGTH_UNIT ( ) NAMED_UNIT ( #278 ) );
#299 = ORIENTED_EDGE ( 'NONE', *, *, #182, .T. ) ;
ENDSEC;
END-ISO-10303-21;
