ISO-10303-21;
HEADER;
FILE_DESCRIPTION (( 'STEP AP214' ),
    '1' );
FILE_NAME ('Micro_SBMM-060-218X.STEP',
    '2021-09-02T17:12:03',
    ( '' ),
    ( '' ),
    'SwSTEP 2.0',
    'SolidWorks 2020',
    '' );
FILE_SCHEMA (( 'AUTOMOTIVE_DESIGN' ));
ENDSEC;

DATA;
#1 = FACE_OUTER_BOUND ( 'NONE', #236, .T. ) ;
#2 = DIRECTION ( 'NONE',  ( 1.000000000000000000, 0.0000000000000000000, 0.0000000000000000000 ) ) ;
#3 = EDGE_LOOP ( 'NONE', ( #185, #112, #260, #87 ) ) ;
#4 = EDGE_CURVE ( 'NONE', #296, #6, #134, .T. ) ;
#5 = DIRECTION ( 'NONE',  ( -0.0000000000000000000, -0.0000000000000000000, -1.000000000000000000 ) ) ;
#6 = VERTEX_POINT ( 'NONE', #310 ) ;
#7 = EDGE_CURVE ( 'NONE', #76, #289, #8, .T. ) ;
#8 = CIRCLE ( 'NONE', #280, 0.1031099999999991745 ) ;
#9 = VECTOR ( 'NONE', #150, 39.37007874015748143 ) ;
#10 = CARTESIAN_POINT ( 'NONE',  ( 0.0000000000000000000, 0.0000000000000000000, 0.1181100000000000066 ) ) ;
#11 = LENGTH_MEASURE_WITH_UNIT ( LENGTH_MEASURE( 0.02539999999999999897 ), #61 );
#12 = EDGE_CURVE ( 'NONE', #6, #158, #138, .T. ) ;
#13 = UNCERTAINTY_MEASURE_WITH_UNIT (LENGTH_MEASURE( 1.000000000000000082E-05 ), #167, 'distance_accuracy_value', 'NONE');
#14 = AXIS2_PLACEMENT_3D ( 'NONE', #94, #275, #246 ) ;
#15 = SPHERICAL_SURFACE ( 'NONE', #215, 0.1181099999999999928 ) ;
#16 = CARTESIAN_POINT ( 'NONE',  ( 0.0000000000000000000, 0.0000000000000000000, 0.1181100000000000066 ) ) ;
#17 = LINE ( 'NONE', #272, #262 ) ;
#18 = AXIS2_PLACEMENT_3D ( 'NONE', #63, #191, #166 ) ;
#19 = AXIS2_PLACEMENT_3D ( 'NONE', #295, #214, #88 ) ;
#20 = DIRECTION ( 'NONE',  ( 1.000000000000000000, 1.224646799147353207E-16, -0.0000000000000000000 ) ) ;
#21 = DIRECTION ( 'NONE',  ( 0.0000000000000000000, 0.0000000000000000000, -1.000000000000000000 ) ) ;
#22 = DIMENSIONAL_EXPONENTS ( 1.000000000000000000, 0.0000000000000000000, 0.0000000000000000000, 0.0000000000000000000, 0.0000000000000000000, 0.0000000000000000000, 0.0000000000000000000 ) ;
#23 = CARTESIAN_POINT ( 'NONE',  ( 0.0000000000000000000, 0.0000000000000000000, 0.2061439962741667686 ) ) ;
#24 = EDGE_CURVE ( 'NONE', #296, #177, #162, .T. ) ;
#25 = AXIS2_PLACEMENT_3D ( 'NONE', #228, #341, #179 ) ;
#26 = VECTOR ( 'NONE', #326, 39.37007874015748854 ) ;
#27 = ORIENTED_EDGE ( 'NONE', *, *, #7, .T. ) ;
#28 = ORIENTED_EDGE ( 'NONE', *, *, #119, .T. ) ;
#29 = EDGE_LOOP ( 'NONE', ( #106, #37, #53, #229 ) ) ;
#30 = AXIS2_PLACEMENT_3D ( 'NONE', #203, #233, #261 ) ;
#31 = CIRCLE ( 'NONE', #231, 0.1181099999999999789 ) ;
#32 = EDGE_LOOP ( 'NONE', ( #131, #178, #291, #182 ) ) ;
#33 = CARTESIAN_POINT ( 'NONE',  ( 0.0000000000000000000, 0.0000000000000000000, 0.2061439962741667686 ) ) ;
#34 = ORIENTED_EDGE ( 'NONE', *, *, #80, .T. ) ;
#35 = EDGE_CURVE ( 'NONE', #158, #6, #200, .T. ) ;
#36 = DIRECTION ( 'NONE',  ( -1.000000000000000000, 0.0000000000000000000, 0.0000000000000000000 ) ) ;
#37 = ORIENTED_EDGE ( 'NONE', *, *, #324, .T. ) ;
#38 = DIRECTION ( 'NONE',  ( 0.0000000000000000000, 0.0000000000000000000, -1.000000000000000000 ) ) ;
#39 = CARTESIAN_POINT ( 'NONE',  ( 0.0000000000000000000, 0.0000000000000000000, 1.271653299999996767 ) ) ;
#40 = CARTESIAN_POINT ( 'NONE',  ( 0.1031099999999991745, 1.354581824536882559E-17, 2.952755999999999936 ) ) ;
#41 = ADVANCED_FACE ( 'NONE', ( #183 ), #154, .T. ) ;
#42 = ADVANCED_FACE ( 'NONE', ( #1 ), #15, .T. ) ;
#43 = FILL_AREA_STYLE ('',( #334 ) ) ;
#44 = CARTESIAN_POINT ( 'NONE',  ( 0.07873999999999996280, 9.642868896486255427E-18, 0.2061439962741667686 ) ) ;
#45 = DIMENSIONAL_EXPONENTS ( 1.000000000000000000, 0.0000000000000000000, 0.0000000000000000000, 0.0000000000000000000, 0.0000000000000000000, 0.0000000000000000000, 0.0000000000000000000 ) ;
#46 = CARTESIAN_POINT ( 'NONE',  ( -0.07873999999999992117, 1.205358612060782005E-17, 0.7086609999999999854 ) ) ;
#47 = CARTESIAN_POINT ( 'NONE',  ( 0.0000000000000000000, 0.0000000000000000000, 0.2061439962741667686 ) ) ;
#48 = CONICAL_SURFACE ( 'NONE', #127, 0.1299209999999997589, 0.09065967900408447577 ) ;
#49 = DIRECTION ( 'NONE',  ( 1.000000000000000000, 0.0000000000000000000, 0.0000000000000000000 ) ) ;
#50 = ORIENTED_EDGE ( 'NONE', *, *, #97, .F. ) ;
#51 = ORIENTED_EDGE ( 'NONE', *, *, #219, .F. ) ;
#52 = CARTESIAN_POINT ( 'NONE',  ( 0.0000000000000000000, 0.0000000000000000000, 2.952755999999999936 ) ) ;
#53 = ORIENTED_EDGE ( 'NONE', *, *, #243, .F. ) ;
#54 = APPLICATION_CONTEXT ( 'automotive_design' ) ;
#55 = FACE_OUTER_BOUND ( 'NONE', #342, .T. ) ;
#56 = ORIENTED_EDGE ( 'NONE', *, *, #62, .T. ) ;
#57 = ORIENTED_EDGE ( 'NONE', *, *, #124, .F. ) ;
#58 = CARTESIAN_POINT ( 'NONE',  ( 9.642868896486255427E-18, -0.07873999999999996280, 0.2061439962741667686 ) ) ;
#59 = AXIS2_PLACEMENT_3D ( 'NONE', #10, #140, #115 ) ;
#60 = ADVANCED_FACE ( 'NONE', ( #93 ), #126, .T. ) ;
#61 =( LENGTH_UNIT ( ) NAMED_UNIT ( * ) SI_UNIT ( $, .METRE. ) );
#62 = EDGE_CURVE ( 'NONE', #177, #158, #305, .T. ) ;
#63 = CARTESIAN_POINT ( 'NONE',  ( 0.0000000000000000000, 0.0000000000000000000, 1.271653299999996767 ) ) ;
#64 = COLOUR_RGB ( '',0.7921568627450980005, 0.8196078431372548767, 0.9333333333333333481 ) ;
#65 =( CONVERSION_BASED_UNIT ( 'INCH', #147 ) LENGTH_UNIT ( ) NAMED_UNIT ( #67 ) );
#66 = DIRECTION ( 'NONE',  ( -1.000000000000000000, 0.0000000000000000000, 0.0000000000000000000 ) ) ;
#67 = DIMENSIONAL_EXPONENTS ( 1.000000000000000000, 0.0000000000000000000, 0.0000000000000000000, 0.0000000000000000000, 0.0000000000000000000, 0.0000000000000000000, 0.0000000000000000000 ) ;
#68 = EDGE_CURVE ( 'NONE', #114, #6, #17, .T. ) ;
#69 =( NAMED_UNIT ( * ) PLANE_ANGLE_UNIT ( ) SI_UNIT ( $, .RADIAN. ) );
#70 = AXIS2_PLACEMENT_3D ( 'NONE', #23, #176, #283 ) ;
#71 = ADVANCED_BREP_SHAPE_REPRESENTATION ( 'Micro_SBMM-060-218X', ( #208, #14 ), #118 ) ;
#72 = DIRECTION ( 'NONE',  ( -1.000000000000000000, 0.0000000000000000000, 0.0000000000000000000 ) ) ;
#73 = CARTESIAN_POINT ( 'NONE',  ( 0.0000000000000000000, 0.0000000000000000000, 2.952755999999999936 ) ) ;
#74 = CLOSED_SHELL ( 'NONE', ( #235, #77, #102, #60, #251, #42, #239, #284, #41, #164, #104 ) ) ;
#75 = ORIENTED_EDGE ( 'NONE', *, *, #68, .F. ) ;
#76 = VERTEX_POINT ( 'NONE', #40 ) ;
#77 = ADVANCED_FACE ( 'NONE', ( #146 ), #143, .T. ) ;
#78 = DIRECTION ( 'NONE',  ( 0.0000000000000000000, 0.0000000000000000000, 1.000000000000000000 ) ) ;
#79 = ORIENTED_EDGE ( 'NONE', *, *, #324, .F. ) ;
#80 = EDGE_CURVE ( 'NONE', #114, #340, #107, .T. ) ;
#81 = ORIENTED_EDGE ( 'NONE', *, *, #345, .F. ) ;
#82 = CARTESIAN_POINT ( 'NONE',  ( 0.07873999999999992117, 0.0000000000000000000, 0.7086609999999999854 ) ) ;
#83 = ORIENTED_EDGE ( 'NONE', *, *, #345, .T. ) ;
#84 = MECHANICAL_DESIGN_GEOMETRIC_PRESENTATION_REPRESENTATION (  '', ( #333 ), #170 ) ;
#85 = FACE_OUTER_BOUND ( 'NONE', #3, .T. ) ;
#86 = EDGE_CURVE ( 'NONE', #177, #296, #308, .T. ) ;
#87 = ORIENTED_EDGE ( 'NONE', *, *, #35, .F. ) ;
#88 = DIRECTION ( 'NONE',  ( -1.000000000000000000, 0.0000000000000000000, 0.0000000000000000000 ) ) ;
#89 = CARTESIAN_POINT ( 'NONE',  ( -0.07873999999999994892, 0.0000000000000000000, 0.0000000000000000000 ) ) ;
#90 = APPLICATION_CONTEXT ( 'automotive_design' ) ;
#91 = UNCERTAINTY_MEASURE_WITH_UNIT (LENGTH_MEASURE( 1.000000000000000082E-05 ), #234, 'distance_accuracy_value', 'NONE');
#92 = SURFACE_SIDE_STYLE ('',( #244 ) ) ;
#93 = FACE_OUTER_BOUND ( 'NONE', #313, .T. ) ;
#94 = CARTESIAN_POINT ( 'NONE',  ( 0.0000000000000000000, 0.0000000000000000000, 0.0000000000000000000 ) ) ;
#95 = VECTOR ( 'NONE', #343, 39.37007874015748143 ) ;
#96 = AXIS2_PLACEMENT_3D ( 'NONE', #212, #242, #213 ) ;
#97 = EDGE_CURVE ( 'NONE', #180, #263, #192, .T. ) ;
#98 =( NAMED_UNIT ( * ) PLANE_ANGLE_UNIT ( ) SI_UNIT ( $, .RADIAN. ) );
#99 = DIRECTION ( 'NONE',  ( 0.0000000000000000000, 0.0000000000000000000, 1.000000000000000000 ) ) ;
#100 = PRODUCT_DEFINITION_FORMATION_WITH_SPECIFIED_SOURCE ( 'ANY', '', #306, .NOT_KNOWN. ) ;
#101 = DIRECTION ( 'NONE',  ( -1.000000000000000000, 0.0000000000000000000, 0.0000000000000000000 ) ) ;
#102 = ADVANCED_FACE ( 'NONE', ( #253 ), #128, .T. ) ;
#103 = DIRECTION ( 'NONE',  ( -1.000000000000000000, 0.0000000000000000000, 0.0000000000000000000 ) ) ;
#104 = ADVANCED_FACE ( 'NONE', ( #312 ), #293, .T. ) ;
#105 = FACE_OUTER_BOUND ( 'NONE', #265, .T. ) ;
#106 = ORIENTED_EDGE ( 'NONE', *, *, #7, .F. ) ;
#107 = CIRCLE ( 'NONE', #298, 0.1181100000000000344 ) ;
#108 = EDGE_LOOP ( 'NONE', ( #75, #34, #28, #317 ) ) ;
#109 = COLOUR_RGB ( '',0.7921568627450980005, 0.8196078431372548767, 0.9333333333333333481 ) ;
#110 = SPHERICAL_SURFACE ( 'NONE', #59, 0.1181099999999999928 ) ;
#111 = ORIENTED_EDGE ( 'NONE', *, *, #273, .F. ) ;
#112 = ORIENTED_EDGE ( 'NONE', *, *, #24, .F. ) ;
#113 = SURFACE_STYLE_USAGE ( .BOTH. , #266 ) ;
#114 = VERTEX_POINT ( 'NONE', #335 ) ;
#115 = DIRECTION ( 'NONE',  ( 0.0000000000000000000, 1.000000000000000000, 0.0000000000000000000 ) ) ;
#116 = LINE ( 'NONE', #135, #226 ) ;
#117 = PRESENTATION_STYLE_ASSIGNMENT (( #113 ) ) ;
#118 =( GEOMETRIC_REPRESENTATION_CONTEXT ( 3 ) GLOBAL_UNCERTAINTY_ASSIGNED_CONTEXT ( ( #13 ) ) GLOBAL_UNIT_ASSIGNED_CONTEXT ( ( #167, #69, #165 ) ) REPRESENTATION_CONTEXT ( 'NONE', 'WORKASPACE' ) );
#119 = EDGE_CURVE ( 'NONE', #340, #158, #307, .T. ) ;
#120 = DIRECTION ( 'NONE',  ( -0.09053553870087663324, 1.108740576791098970E-17, 0.9958932253169222593 ) ) ;
#121 = AXIS2_PLACEMENT_3D ( 'NONE', #271, #299, #270 ) ;
#122 = CARTESIAN_POINT ( 'NONE',  ( -0.1181100000000000344, 0.0000000000000000000, 2.937755999999999368 ) ) ;
#123 = PLANE ( 'NONE',  #321 ) ;
#124 = EDGE_CURVE ( 'NONE', #289, #76, #221, .T. ) ;
#125 = CARTESIAN_POINT ( 'NONE',  ( 0.0000000000000000000, 0.0000000000000000000, 2.952755999999999936 ) ) ;
#126 = CONICAL_SURFACE ( 'NONE', #18, 0.1299209999999997589, 0.09065967900408447577 ) ;
#127 = AXIS2_PLACEMENT_3D ( 'NONE', #39, #186, #2 ) ;
#128 = CYLINDRICAL_SURFACE ( 'NONE', #286, 0.07873999999999994892 ) ;
#129 = ORIENTED_EDGE ( 'NONE', *, *, #174, .T. ) ;
#130 = AXIS2_PLACEMENT_3D ( 'NONE', #204, #206, #49 ) ;
#131 = ORIENTED_EDGE ( 'NONE', *, *, #243, .T. ) ;
#132 = STYLED_ITEM ( 'NONE', ( #328 ), #71 ) ;
#133 = ORIENTED_EDGE ( 'NONE', *, *, #86, .F. ) ;
#134 = LINE ( 'NONE', #316, #95 ) ;
#135 = CARTESIAN_POINT ( 'NONE',  ( 0.07873999999999994892, 9.642868896486252346E-18, 0.0000000000000000000 ) ) ;
#136 = ORIENTED_EDGE ( 'NONE', *, *, #12, .F. ) ;
#137 = CARTESIAN_POINT ( 'NONE',  ( 0.0000000000000000000, 7.232151672364693882E-18, 1.707404996040164512E-17 ) ) ;
#138 = CIRCLE ( 'NONE', #130, 0.1181100000000000344 ) ;
#139 = FILL_AREA_STYLE ('',( #320 ) ) ;
#140 = DIRECTION ( 'NONE',  ( 1.000000000000000000, 0.0000000000000000000, 0.0000000000000000000 ) ) ;
#141 = EDGE_CURVE ( 'NONE', #289, #340, #223, .T. ) ;
#142 =( LENGTH_UNIT ( ) NAMED_UNIT ( * ) SI_UNIT ( $, .METRE. ) );
#143 = CYLINDRICAL_SURFACE ( 'NONE', #209, 0.1181100000000000344 ) ;
#144 = PRESENTATION_LAYER_ASSIGNMENT (  '', '', ( #132 ) ) ;
#145 =( NAMED_UNIT ( * ) SI_UNIT ( $, .STERADIAN. ) SOLID_ANGLE_UNIT ( ) );
#146 = FACE_OUTER_BOUND ( 'NONE', #32, .T. ) ;
#147 = LENGTH_MEASURE_WITH_UNIT ( LENGTH_MEASURE( 0.02539999999999999897 ), #142 );
#148 = AXIS2_PLACEMENT_3D ( 'NONE', #47, #256, #101 ) ;
#149 = CIRCLE ( 'NONE', #121, 0.07873999999999996280 ) ;
#150 = DIRECTION ( 'NONE',  ( -0.0000000000000000000, -0.0000000000000000000, -1.000000000000000000 ) ) ;
#151 = ORIENTED_EDGE ( 'NONE', *, *, #80, .F. ) ;
#152 = ORIENTED_EDGE ( 'NONE', *, *, #24, .T. ) ;
#153 = ORIENTED_EDGE ( 'NONE', *, *, #337, .T. ) ;
#154 = CYLINDRICAL_SURFACE ( 'NONE', #30, 0.1181100000000000344 ) ;
#155 = ORIENTED_EDGE ( 'NONE', *, *, #174, .F. ) ;
#156 =( GEOMETRIC_REPRESENTATION_CONTEXT ( 3 ) GLOBAL_UNCERTAINTY_ASSIGNED_CONTEXT ( ( #171 ) ) GLOBAL_UNIT_ASSIGNED_CONTEXT ( ( #65, #98, #145 ) ) REPRESENTATION_CONTEXT ( 'NONE', 'WORKASPACE' ) );
#157 = CYLINDRICAL_SURFACE ( 'NONE', #96, 0.07873999999999994892 ) ;
#158 = VERTEX_POINT ( 'NONE', #254 ) ;
#159 = CARTESIAN_POINT ( 'NONE',  ( 0.0000000000000000000, 0.07873999999999996280, 0.2061439962741667686 ) ) ;
#160 = ORIENTED_EDGE ( 'NONE', *, *, #311, .T. ) ;
#161 = SURFACE_STYLE_FILL_AREA ( #139 ) ;
#162 = CIRCLE ( 'NONE', #172, 0.07873999999999992117 ) ;
#163 = CONICAL_SURFACE ( 'NONE', #19, 0.1031099999999991745, 0.7853981633974500554 ) ;
#164 = ADVANCED_FACE ( 'NONE', ( #105 ), #123, .T. ) ;
#165 =( NAMED_UNIT ( * ) SI_UNIT ( $, .STERADIAN. ) SOLID_ANGLE_UNIT ( ) );
#166 = DIRECTION ( 'NONE',  ( 1.000000000000000000, 0.0000000000000000000, 0.0000000000000000000 ) ) ;
#167 =( CONVERSION_BASED_UNIT ( 'INCH', #222 ) LENGTH_UNIT ( ) NAMED_UNIT ( #45 ) );
#168 = VECTOR ( 'NONE', #120, 39.37007874015748143 ) ;
#169 = DIRECTION ( 'NONE',  ( -0.0000000000000000000, -0.0000000000000000000, -1.000000000000000000 ) ) ;
#170 =( GEOMETRIC_REPRESENTATION_CONTEXT ( 3 ) GLOBAL_UNCERTAINTY_ASSIGNED_CONTEXT ( ( #91 ) ) GLOBAL_UNIT_ASSIGNED_CONTEXT ( ( #234, #189, #207 ) ) REPRESENTATION_CONTEXT ( 'NONE', 'WORKASPACE' ) );
#171 = UNCERTAINTY_MEASURE_WITH_UNIT (LENGTH_MEASURE( 1.000000000000000082E-05 ), #65, 'distance_accuracy_value', 'NONE');
#172 = AXIS2_PLACEMENT_3D ( 'NONE', #258, #5, #103 ) ;
#173 = CIRCLE ( 'NONE', #314, 0.07873999999999996280 ) ;
#174 = EDGE_CURVE ( 'NONE', #319, #259, #269, .T. ) ;
#175 = DIRECTION ( 'NONE',  ( 0.0000000000000000000, 0.0000000000000000000, 1.000000000000000000 ) ) ;
#176 = DIRECTION ( 'NONE',  ( -0.0000000000000000000, -0.0000000000000000000, -1.000000000000000000 ) ) ;
#177 = VERTEX_POINT ( 'NONE', #46 ) ;
#178 = ORIENTED_EDGE ( 'NONE', *, *, #68, .T. ) ;
#179 = DIRECTION ( 'NONE',  ( 1.000000000000000000, 0.0000000000000000000, 0.0000000000000000000 ) ) ;
#180 = VERTEX_POINT ( 'NONE', #44 ) ;
#181 = PRODUCT_DEFINITION ( 'UNKNOWN', '', #100, #249 ) ;
#182 = ORIENTED_EDGE ( 'NONE', *, *, #119, .F. ) ;
#183 = FACE_OUTER_BOUND ( 'NONE', #108, .T. ) ;
#184 = CARTESIAN_POINT ( 'NONE',  ( -0.07873999999999996280, 0.0000000000000000000, 0.2061439962741667686 ) ) ;
#185 = ORIENTED_EDGE ( 'NONE', *, *, #62, .F. ) ;
#186 = DIRECTION ( 'NONE',  ( 0.0000000000000000000, 0.0000000000000000000, 1.000000000000000000 ) ) ;
#187 = ORIENTED_EDGE ( 'NONE', *, *, #97, .T. ) ;
#188 = DIRECTION ( 'NONE',  ( -0.0000000000000000000, -0.0000000000000000000, -1.000000000000000000 ) ) ;
#189 =( NAMED_UNIT ( * ) PLANE_ANGLE_UNIT ( ) SI_UNIT ( $, .RADIAN. ) );
#190 = AXIS2_PLACEMENT_3D ( 'NONE', #264, #20, #331 ) ;
#191 = DIRECTION ( 'NONE',  ( 0.0000000000000000000, 0.0000000000000000000, 1.000000000000000000 ) ) ;
#192 = CIRCLE ( 'NONE', #148, 0.07873999999999996280 ) ;
#193 = APPLICATION_PROTOCOL_DEFINITION ( 'draft international standard', 'automotive_design', 1998, #90 ) ;
#194 = DIRECTION ( 'NONE',  ( -0.0000000000000000000, -0.0000000000000000000, -1.000000000000000000 ) ) ;
#195 = CARTESIAN_POINT ( 'NONE',  ( 0.0000000000000000000, 0.0000000000000000000, 0.1181100000000000066 ) ) ;
#196 = DIRECTION ( 'NONE',  ( -0.0000000000000000000, -0.0000000000000000000, -1.000000000000000000 ) ) ;
#197 = AXIS2_PLACEMENT_3D ( 'NONE', #268, #38, #292 ) ;
#198 = EDGE_LOOP ( 'NONE', ( #79, #57, #232, #151 ) ) ;
#199 = DIRECTION ( 'NONE',  ( -1.000000000000000000, 0.0000000000000000000, 0.0000000000000000000 ) ) ;
#200 = CIRCLE ( 'NONE', #25, 0.1181100000000000344 ) ;
#201 = EDGE_CURVE ( 'NONE', #259, #180, #173, .T. ) ;
#202 = ORIENTED_EDGE ( 'NONE', *, *, #219, .T. ) ;
#203 = CARTESIAN_POINT ( 'NONE',  ( 0.0000000000000000000, 0.0000000000000000000, 2.952755999999999936 ) ) ;
#204 = CARTESIAN_POINT ( 'NONE',  ( 0.0000000000000000000, 0.0000000000000000000, 1.141731999999999969 ) ) ;
#205 = DIRECTION ( 'NONE',  ( -0.0000000000000000000, -0.0000000000000000000, -1.000000000000000000 ) ) ;
#206 = DIRECTION ( 'NONE',  ( 0.0000000000000000000, 0.0000000000000000000, 1.000000000000000000 ) ) ;
#207 =( NAMED_UNIT ( * ) SI_UNIT ( $, .STERADIAN. ) SOLID_ANGLE_UNIT ( ) );
#208 = MANIFOLD_SOLID_BREP ( 'Cut-Revolve3', #74 ) ;
#209 = AXIS2_PLACEMENT_3D ( 'NONE', #277, #218, #330 ) ;
#210 = ORIENTED_EDGE ( 'NONE', *, *, #273, .T. ) ;
#211 = AXIS2_PLACEMENT_3D ( 'NONE', #252, #175, #250 ) ;
#212 = CARTESIAN_POINT ( 'NONE',  ( 0.0000000000000000000, 0.0000000000000000000, 0.0000000000000000000 ) ) ;
#213 = DIRECTION ( 'NONE',  ( -1.000000000000000000, 0.0000000000000000000, 0.0000000000000000000 ) ) ;
#214 = DIRECTION ( 'NONE',  ( 0.0000000000000000000, 0.0000000000000000000, -1.000000000000000000 ) ) ;
#215 = AXIS2_PLACEMENT_3D ( 'NONE', #195, #301, #217 ) ;
#216 = PRESENTATION_LAYER_ASSIGNMENT (  '', '', ( #333 ) ) ;
#217 = DIRECTION ( 'NONE',  ( 0.0000000000000000000, 1.000000000000000000, 0.0000000000000000000 ) ) ;
#218 = DIRECTION ( 'NONE',  ( -0.0000000000000000000, -0.0000000000000000000, -1.000000000000000000 ) ) ;
#219 = EDGE_CURVE ( 'NONE', #263, #319, #149, .T. ) ;
#220 = SHAPE_DEFINITION_REPRESENTATION ( #309, #71 ) ;
#221 = CIRCLE ( 'NONE', #211, 0.1031099999999991745 ) ;
#222 = LENGTH_MEASURE_WITH_UNIT ( LENGTH_MEASURE( 0.02539999999999999897 ), #300 );
#223 = LINE ( 'NONE', #339, #274 ) ;
#224 = DIRECTION ( 'NONE',  ( 1.000000000000000000, 0.0000000000000000000, -0.0000000000000000000 ) ) ;
#225 = CARTESIAN_POINT ( 'NONE',  ( 0.0000000000000000000, 0.0000000000000000000, 0.0000000000000000000 ) ) ;
#226 = VECTOR ( 'NONE', #188, 39.37007874015748143 ) ;
#227 = ORIENTED_EDGE ( 'NONE', *, *, #337, .F. ) ;
#228 = CARTESIAN_POINT ( 'NONE',  ( 0.0000000000000000000, 0.0000000000000000000, 1.141731999999999969 ) ) ;
#229 = ORIENTED_EDGE ( 'NONE', *, *, #141, .F. ) ;
#230 = VERTEX_POINT ( 'NONE', #137 ) ;
#231 = AXIS2_PLACEMENT_3D ( 'NONE', #16, #278, #247 ) ;
#232 = ORIENTED_EDGE ( 'NONE', *, *, #141, .T. ) ;
#233 = DIRECTION ( 'NONE',  ( -0.0000000000000000000, -0.0000000000000000000, -1.000000000000000000 ) ) ;
#234 =( CONVERSION_BASED_UNIT ( 'INCH', #11 ) LENGTH_UNIT ( ) NAMED_UNIT ( #22 ) );
#235 = ADVANCED_FACE ( 'NONE', ( #241 ), #163, .T. ) ;
#236 = EDGE_LOOP ( 'NONE', ( #227, #202, #129, #83 ) ) ;
#237 = LINE ( 'NONE', #89, #344 ) ;
#238 = EDGE_LOOP ( 'NONE', ( #111, #152, #160, #51, #50 ) ) ;
#239 = ADVANCED_FACE ( 'NONE', ( #85 ), #48, .T. ) ;
#240 = FACE_OUTER_BOUND ( 'NONE', #238, .T. ) ;
#241 = FACE_OUTER_BOUND ( 'NONE', #29, .T. ) ;
#242 = DIRECTION ( 'NONE',  ( -0.0000000000000000000, -0.0000000000000000000, -1.000000000000000000 ) ) ;
#243 = EDGE_CURVE ( 'NONE', #340, #114, #303, .T. ) ;
#244 = SURFACE_STYLE_FILL_AREA ( #43 ) ;
#245 = APPLICATION_PROTOCOL_DEFINITION ( 'draft international standard', 'automotive_design', 1998, #54 ) ;
#246 = DIRECTION ( 'NONE',  ( 1.000000000000000000, 0.0000000000000000000, 0.0000000000000000000 ) ) ;
#247 = DIRECTION ( 'NONE',  ( 0.0000000000000000000, 0.0000000000000000000, 1.000000000000000000 ) ) ;
#248 = CIRCLE ( 'NONE', #190, 0.1181099999999999928 ) ;
#249 = PRODUCT_DEFINITION_CONTEXT ( 'detailed design', #90, 'design' ) ;
#250 = DIRECTION ( 'NONE',  ( 1.000000000000000000, 0.0000000000000000000, 0.0000000000000000000 ) ) ;
#251 = ADVANCED_FACE ( 'NONE', ( #55 ), #110, .T. ) ;
#252 = CARTESIAN_POINT ( 'NONE',  ( 0.0000000000000000000, 0.0000000000000000000, 2.952755999999999936 ) ) ;
#253 = FACE_OUTER_BOUND ( 'NONE', #267, .T. ) ;
#254 = CARTESIAN_POINT ( 'NONE',  ( -0.1181100000000000344, 1.446430334472939084E-17, 1.141731999999999969 ) ) ;
#255 = AXIS2_PLACEMENT_3D ( 'NONE', #304, #194, #66 ) ;
#256 = DIRECTION ( 'NONE',  ( -0.0000000000000000000, -0.0000000000000000000, -1.000000000000000000 ) ) ;
#257 = PRODUCT_RELATED_PRODUCT_CATEGORY ( 'part', '', ( #306 ) ) ;
#258 = CARTESIAN_POINT ( 'NONE',  ( 0.0000000000000000000, 0.0000000000000000000, 0.7086609999999999854 ) ) ;
#259 = VERTEX_POINT ( 'NONE', #159 ) ;
#260 = ORIENTED_EDGE ( 'NONE', *, *, #4, .T. ) ;
#261 = DIRECTION ( 'NONE',  ( -1.000000000000000000, 0.0000000000000000000, 0.0000000000000000000 ) ) ;
#262 = VECTOR ( 'NONE', #169, 39.37007874015748143 ) ;
#263 = VERTEX_POINT ( 'NONE', #58 ) ;
#264 = CARTESIAN_POINT ( 'NONE',  ( 0.0000000000000000000, 0.0000000000000000000, 0.1181100000000000066 ) ) ;
#265 = EDGE_LOOP ( 'NONE', ( #315, #27 ) ) ;
#266 = SURFACE_SIDE_STYLE ('',( #161 ) ) ;
#267 = EDGE_LOOP ( 'NONE', ( #288, #210, #294, #155, #287 ) ) ;
#268 = CARTESIAN_POINT ( 'NONE',  ( 0.0000000000000000000, 0.0000000000000000000, 2.937755999999999368 ) ) ;
#269 = CIRCLE ( 'NONE', #70, 0.07873999999999996280 ) ;
#270 = DIRECTION ( 'NONE',  ( -1.000000000000000000, 0.0000000000000000000, 0.0000000000000000000 ) ) ;
#271 = CARTESIAN_POINT ( 'NONE',  ( 0.0000000000000000000, 0.0000000000000000000, 0.2061439962741667686 ) ) ;
#272 = CARTESIAN_POINT ( 'NONE',  ( 0.1181100000000000344, 1.446430334472939084E-17, 2.952755999999999936 ) ) ;
#273 = EDGE_CURVE ( 'NONE', #296, #180, #116, .T. ) ;
#274 = VECTOR ( 'NONE', #336, 39.37007874015748854 ) ;
#275 = DIRECTION ( 'NONE',  ( 0.0000000000000000000, 0.0000000000000000000, 1.000000000000000000 ) ) ;
#276 = DIRECTION ( 'NONE',  ( 0.0000000000000000000, 0.0000000000000000000, -1.000000000000000000 ) ) ;
#277 = CARTESIAN_POINT ( 'NONE',  ( 0.0000000000000000000, 0.0000000000000000000, 2.952755999999999936 ) ) ;
#278 = DIRECTION ( 'NONE',  ( -1.000000000000000000, 0.0000000000000000000, 0.0000000000000000000 ) ) ;
#279 = CARTESIAN_POINT ( 'NONE',  ( -0.1299209999999997589, 1.591073367920229727E-17, 1.271653299999996767 ) ) ;
#280 = AXIS2_PLACEMENT_3D ( 'NONE', #52, #78, #285 ) ;
#281 = SURFACE_STYLE_USAGE ( .BOTH. , #92 ) ;
#282 = CARTESIAN_POINT ( 'NONE',  ( -0.1181100000000000344, 0.0000000000000000000, 2.952755999999999936 ) ) ;
#283 = DIRECTION ( 'NONE',  ( -1.000000000000000000, 0.0000000000000000000, 0.0000000000000000000 ) ) ;
#284 = ADVANCED_FACE ( 'NONE', ( #240 ), #157, .T. ) ;
#285 = DIRECTION ( 'NONE',  ( 1.000000000000000000, 0.0000000000000000000, 0.0000000000000000000 ) ) ;
#286 = AXIS2_PLACEMENT_3D ( 'NONE', #225, #196, #199 ) ;
#287 = ORIENTED_EDGE ( 'NONE', *, *, #311, .F. ) ;
#288 = ORIENTED_EDGE ( 'NONE', *, *, #86, .T. ) ;
#289 = VERTEX_POINT ( 'NONE', #325 ) ;
#290 = ORIENTED_EDGE ( 'NONE', *, *, #4, .F. ) ;
#291 = ORIENTED_EDGE ( 'NONE', *, *, #12, .T. ) ;
#292 = DIRECTION ( 'NONE',  ( 1.000000000000000000, 0.0000000000000000000, 0.0000000000000000000 ) ) ;
#293 = CONICAL_SURFACE ( 'NONE', #327, 0.1031099999999991745, 0.7853981633974500554 ) ;
#294 = ORIENTED_EDGE ( 'NONE', *, *, #201, .F. ) ;
#295 = CARTESIAN_POINT ( 'NONE',  ( 0.0000000000000000000, 0.0000000000000000000, 2.952755999999999936 ) ) ;
#296 = VERTEX_POINT ( 'NONE', #82 ) ;
#297 = LINE ( 'NONE', #323, #26 ) ;
#298 = AXIS2_PLACEMENT_3D ( 'NONE', #302, #276, #332 ) ;
#299 = DIRECTION ( 'NONE',  ( -0.0000000000000000000, -0.0000000000000000000, -1.000000000000000000 ) ) ;
#300 =( LENGTH_UNIT ( ) NAMED_UNIT ( * ) SI_UNIT ( $, .METRE. ) );
#301 = DIRECTION ( 'NONE',  ( 1.000000000000000000, 0.0000000000000000000, 0.0000000000000000000 ) ) ;
#302 = CARTESIAN_POINT ( 'NONE',  ( 0.0000000000000000000, 0.0000000000000000000, 2.937755999999999368 ) ) ;
#303 = CIRCLE ( 'NONE', #197, 0.1181100000000000344 ) ;
#304 = CARTESIAN_POINT ( 'NONE',  ( 0.0000000000000000000, 0.0000000000000000000, 0.7086609999999999854 ) ) ;
#305 = LINE ( 'NONE', #279, #168 ) ;
#306 = PRODUCT ( 'Micro_SBMM-060-218X', 'Micro_SBMM-060-218X', '', ( #329 ) ) ;
#307 = LINE ( 'NONE', #282, #9 ) ;
#308 = CIRCLE ( 'NONE', #255, 0.07873999999999992117 ) ;
#309 = PRODUCT_DEFINITION_SHAPE ( 'NONE', 'NONE',  #181 ) ;
#310 = CARTESIAN_POINT ( 'NONE',  ( 0.1181100000000000344, 0.0000000000000000000, 1.141731999999999969 ) ) ;
#311 = EDGE_CURVE ( 'NONE', #177, #319, #237, .T. ) ;
#312 = FACE_OUTER_BOUND ( 'NONE', #198, .T. ) ;
#313 = EDGE_LOOP ( 'NONE', ( #133, #56, #136, #290 ) ) ;
#314 = AXIS2_PLACEMENT_3D ( 'NONE', #33, #318, #36 ) ;
#315 = ORIENTED_EDGE ( 'NONE', *, *, #124, .T. ) ;
#316 = CARTESIAN_POINT ( 'NONE',  ( 0.1299209999999997589, 0.0000000000000000000, 1.271653299999996767 ) ) ;
#317 = ORIENTED_EDGE ( 'NONE', *, *, #35, .T. ) ;
#318 = DIRECTION ( 'NONE',  ( -0.0000000000000000000, -0.0000000000000000000, -1.000000000000000000 ) ) ;
#319 = VERTEX_POINT ( 'NONE', #184 ) ;
#320 = FILL_AREA_STYLE_COLOUR ( '', #109 ) ;
#321 = AXIS2_PLACEMENT_3D ( 'NONE', #73, #99, #224 ) ;
#322 = ORIENTED_EDGE ( 'NONE', *, *, #201, .T. ) ;
#323 = CARTESIAN_POINT ( 'NONE',  ( 0.1031099999999991745, 1.262733314600825725E-17, 2.952755999999999936 ) ) ;
#324 = EDGE_CURVE ( 'NONE', #76, #114, #297, .T. ) ;
#325 = CARTESIAN_POINT ( 'NONE',  ( -0.1031099999999991745, 0.0000000000000000000, 2.952755999999999936 ) ) ;
#326 = DIRECTION ( 'NONE',  ( 0.7071067811865486830, 8.659560562354947649E-17, -0.7071067811865462405 ) ) ;
#327 = AXIS2_PLACEMENT_3D ( 'NONE', #125, #21, #72 ) ;
#328 = PRESENTATION_STYLE_ASSIGNMENT (( #281 ) ) ;
#329 = PRODUCT_CONTEXT ( 'NONE', #54, 'mechanical' ) ;
#330 = DIRECTION ( 'NONE',  ( -1.000000000000000000, 0.0000000000000000000, 0.0000000000000000000 ) ) ;
#331 = DIRECTION ( 'NONE',  ( -1.224646799147353207E-16, 1.000000000000000000, 0.0000000000000000000 ) ) ;
#332 = DIRECTION ( 'NONE',  ( 1.000000000000000000, 0.0000000000000000000, 0.0000000000000000000 ) ) ;
#333 = STYLED_ITEM ( 'NONE', ( #117 ), #208 ) ;
#334 = FILL_AREA_STYLE_COLOUR ( '', #64 ) ;
#335 = CARTESIAN_POINT ( 'NONE',  ( 0.1181100000000000344, 1.446430334472939084E-17, 2.937755999999999368 ) ) ;
#336 = DIRECTION ( 'NONE',  ( -0.7071067811865486830, 0.0000000000000000000, -0.7071067811865462405 ) ) ;
#337 = EDGE_CURVE ( 'NONE', #263, #230, #248, .T. ) ;
#338 = MECHANICAL_DESIGN_GEOMETRIC_PRESENTATION_REPRESENTATION (  '', ( #132 ), #156 ) ;
#339 = CARTESIAN_POINT ( 'NONE',  ( -0.1031099999999991745, 0.0000000000000000000, 2.952755999999999936 ) ) ;
#340 = VERTEX_POINT ( 'NONE', #122 ) ;
#341 = DIRECTION ( 'NONE',  ( 0.0000000000000000000, 0.0000000000000000000, 1.000000000000000000 ) ) ;
#342 = EDGE_LOOP ( 'NONE', ( #322, #187, #153, #81 ) ) ;
#343 = DIRECTION ( 'NONE',  ( 0.09053553870087663324, 0.0000000000000000000, 0.9958932253169222593 ) ) ;
#344 = VECTOR ( 'NONE', #205, 39.37007874015748143 ) ;
#345 = EDGE_CURVE ( 'NONE', #259, #230, #31, .T. ) ;
ENDSEC;
END-ISO-10303-21;
