ISO-10303-21;
HEADER;
FILE_DESCRIPTION (( 'STEP AP214' ),
    '1' );
FILE_NAME ('59534.STEP',
    '2023-07-24T15:48:34',
    ( '' ),
    ( '' ),
    'SwSTEP 2.0',
    'SolidWorks 2023',
    '' );
FILE_SCHEMA (( 'AUTOMOTIVE_DESIGN' ));
ENDSEC;

DATA;
#1 = PRESENTATION_LAYER_ASSIGNMENT (  '', '', ( #90 ) ) ;
#2 = PRODUCT_DEFINITION_SHAPE ( 'NONE', 'NONE',  #152 ) ;
#3 = CIRCLE ( 'NONE', #109, 3.000000000000000000 ) ;
#4 = CARTESIAN_POINT ( 'NONE',  ( -3.000000000000000000, 11.99999999999999645, 0.000000000000000000 ) ) ;
#5 = EDGE_CURVE ( 'NONE', #28, #161, #209, .T. ) ;
#6 = EDGE_LOOP ( 'NONE', ( #140, #274 ) ) ;
#7 = CIRCLE ( 'NONE', #60, 3.000000000000000000 ) ;
#8 = EDGE_CURVE ( 'NONE', #161, #28, #7, .T. ) ;
#9 = CARTESIAN_POINT ( 'NONE',  ( 0.000000000000000000, 0.000000000000000000, 0.000000000000000000 ) ) ;
#10 = ORIENTED_EDGE ( 'NONE', *, *, #264, .F. ) ;
#11 = DIRECTION ( 'NONE',  ( 0.000000000000000000, 0.000000000000000000, -1.000000000000000000 ) ) ;
#12 = FACE_OUTER_BOUND ( 'NONE', #113, .T. ) ;
#13 = PRESENTATION_STYLE_ASSIGNMENT (( #193 ) ) ;
#14 =( NAMED_UNIT ( * ) PLANE_ANGLE_UNIT ( ) SI_UNIT ( $, .RADIAN. ) );
#15 = DIRECTION ( 'NONE',  ( -0.000000000000000000, -1.000000000000000000, -0.000000000000000000 ) ) ;
#16 = MANIFOLD_SOLID_BREP ( 'Revolve - Tool Body (Straight Shanked)', #285 ) ;
#17 = EDGE_CURVE ( 'NONE', #228, #155, #95, .T. ) ;
#18 = DIRECTION ( 'NONE',  ( 0.000000000000000000, 0.000000000000000000, -1.000000000000000000 ) ) ;
#19 = SURFACE_STYLE_USAGE ( .BOTH. , #167 ) ;
#20 = EDGE_CURVE ( 'NONE', #218, #138, #87, .T. ) ;
#21 = LINE ( 'NONE', #199, #222 ) ;
#22 =( NAMED_UNIT ( * ) SI_UNIT ( $, .STERADIAN. ) SOLID_ANGLE_UNIT ( ) );
#23 = AXIS2_PLACEMENT_3D ( 'NONE', #106, #15, #18 ) ;
#24 = DIRECTION ( 'NONE',  ( 6.243297407417877041E-17, 1.000000000000000000, -0.000000000000000000 ) ) ;
#25 = AXIS2_PLACEMENT_3D ( 'NONE', #188, #276, #159 ) ;
#26 =( NAMED_UNIT ( * ) PLANE_ANGLE_UNIT ( ) SI_UNIT ( $, .RADIAN. ) );
#27 = DIRECTION ( 'NONE',  ( -1.000000000000000000, 0.000000000000000000, 0.000000000000000000 ) ) ;
#28 = VERTEX_POINT ( 'NONE', #269 ) ;
#29 = CARTESIAN_POINT ( 'NONE',  ( 3.184081677783117402E-15, 63.00000000000000000, 0.000000000000000000 ) ) ;
#30 = MECHANICAL_DESIGN_GEOMETRIC_PRESENTATION_REPRESENTATION (  '', ( #156 ), #230 ) ;
#31 = ADVANCED_FACE ( 'NONE', ( #67 ), #239, .T. ) ;
#32 = ORIENTED_EDGE ( 'NONE', *, *, #243, .T. ) ;
#33 = DIRECTION ( 'NONE',  ( -0.000000000000000000, -1.000000000000000000, -0.000000000000000000 ) ) ;
#34 = CARTESIAN_POINT ( 'NONE',  ( 3.000000000000000000, 63.00000000000000000, 3.673940397442058882E-16 ) ) ;
#35 = CYLINDRICAL_SURFACE ( 'NONE', #226, 2.999999999999998224 ) ;
#36 = FACE_OUTER_BOUND ( 'NONE', #235, .T. ) ;
#37 = CARTESIAN_POINT ( 'NONE',  ( 0.000000000000000000, 0.000000000000000000, 0.000000000000000000 ) ) ;
#38 = SURFACE_SIDE_STYLE ('',( #83 ) ) ;
#39 = EDGE_CURVE ( 'NONE', #77, #212, #3, .T. ) ;
#40 =( NAMED_UNIT ( * ) PLANE_ANGLE_UNIT ( ) SI_UNIT ( $, .RADIAN. ) );
#41 = AXIS2_PLACEMENT_3D ( 'NONE', #37, #166, #164 ) ;
#42 =( NAMED_UNIT ( * ) SI_UNIT ( $, .STERADIAN. ) SOLID_ANGLE_UNIT ( ) );
#43 = CIRCLE ( 'NONE', #41, 3.000000000000000000 ) ;
#44 = ORIENTED_EDGE ( 'NONE', *, *, #20, .F. ) ;
#45 = ORIENTED_EDGE ( 'NONE', *, *, #39, .T. ) ;
#46 = UNCERTAINTY_MEASURE_WITH_UNIT (LENGTH_MEASURE( 1.000000000000000082E-05 ), #210, 'distance_accuracy_value', 'NONE');
#47 = LINE ( 'NONE', #170, #141 ) ;
#48 = FILL_AREA_STYLE_COLOUR ( '', #237 ) ;
#49 = CARTESIAN_POINT ( 'NONE',  ( -2.999999999999993783, 63.00000000000000000, 0.000000000000000000 ) ) ;
#50 = PRESENTATION_STYLE_ASSIGNMENT (( #254 ) ) ;
#51 = FILL_AREA_STYLE ('',( #61 ) ) ;
#52 = ORIENTED_EDGE ( 'NONE', *, *, #55, .F. ) ;
#53 = PRESENTATION_LAYER_ASSIGNMENT (  '', '', ( #156 ) ) ;
#54 = PRESENTATION_STYLE_ASSIGNMENT (( #139 ) ) ;
#55 = EDGE_CURVE ( 'NONE', #138, #218, #43, .T. ) ;
#56 = PLANE ( 'NONE',  #258 ) ;
#57 = CYLINDRICAL_SURFACE ( 'NONE', #23, 3.000000000000000000 ) ;
#58 = CARTESIAN_POINT ( 'NONE',  ( 0.000000000000000000, 12.00000000000000000, 0.000000000000000000 ) ) ;
#59 =( NAMED_UNIT ( * ) SI_UNIT ( $, .STERADIAN. ) SOLID_ANGLE_UNIT ( ) );
#60 = AXIS2_PLACEMENT_3D ( 'NONE', #74, #24, #114 ) ;
#61 = FILL_AREA_STYLE_COLOUR ( '', #107 ) ;
#62 = AXIS2_PLACEMENT_3D ( 'NONE', #63, #108, #179 ) ;
#63 = CARTESIAN_POINT ( 'NONE',  ( 3.184081677783117402E-15, 63.00000000000000000, 0.000000000000000000 ) ) ;
#64 = STYLED_ITEM ( 'NONE', ( #54 ), #31 ) ;
#65 = AXIS2_PLACEMENT_3D ( 'NONE', #85, #110, #268 ) ;
#66 = ORIENTED_EDGE ( 'NONE', *, *, #206, .F. ) ;
#67 = FACE_OUTER_BOUND ( 'NONE', #215, .T. ) ;
#68 = UNCERTAINTY_MEASURE_WITH_UNIT (LENGTH_MEASURE( 1.000000000000000082E-05 ), #96, 'distance_accuracy_value', 'NONE');
#69 = COLOUR_RGB ( '',0.7921568627450980005, 0.8196078431372548767, 0.9333333333333333481 ) ;
#70 = DIRECTION ( 'NONE',  ( 6.243297407417877041E-17, 1.000000000000000000, -0.000000000000000000 ) ) ;
#71 = ORIENTED_EDGE ( 'NONE', *, *, #264, .T. ) ;
#72 = SURFACE_SIDE_STYLE ('',( #135 ) ) ;
#73 =( GEOMETRIC_REPRESENTATION_CONTEXT ( 3 ) GLOBAL_UNCERTAINTY_ASSIGNED_CONTEXT ( ( #185 ) ) GLOBAL_UNIT_ASSIGNED_CONTEXT ( ( #262, #265, #284 ) ) REPRESENTATION_CONTEXT ( 'NONE', 'WORKASPACE' ) );
#74 = CARTESIAN_POINT ( 'NONE',  ( 0.000000000000000000, 11.99999999999999645, 0.000000000000000000 ) ) ;
#75 = EDGE_LOOP ( 'NONE', ( #236, #232, #10, #117 ) ) ;
#76 = CARTESIAN_POINT ( 'NONE',  ( 3.673940397442059868E-16, 0.000000000000000000, 3.000000000000000000 ) ) ;
#77 = VERTEX_POINT ( 'NONE', #171 ) ;
#78 = DIRECTION ( 'NONE',  ( 0.000000000000000000, 0.000000000000000000, -1.000000000000000000 ) ) ;
#79 = MECHANICAL_DESIGN_GEOMETRIC_PRESENTATION_REPRESENTATION (  '', ( #177 ), #169 ) ;
#80 = SURFACE_STYLE_FILL_AREA ( #150 ) ;
#81 =( LENGTH_UNIT ( ) NAMED_UNIT ( * ) SI_UNIT ( .MILLI., .METRE. ) );
#82 = DIRECTION ( 'NONE',  ( -0.000000000000000000, -1.000000000000000000, -0.000000000000000000 ) ) ;
#83 = SURFACE_STYLE_FILL_AREA ( #174 ) ;
#84 = STYLED_ITEM ( 'NONE', ( #280 ), #125 ) ;
#85 = CARTESIAN_POINT ( 'NONE',  ( 0.000000000000000000, 12.00000000000000000, 0.000000000000000000 ) ) ;
#86 = DIRECTION ( 'NONE',  ( -6.243297407417877041E-17, -1.000000000000000000, 0.000000000000000000 ) ) ;
#87 = CIRCLE ( 'NONE', #176, 3.000000000000000000 ) ;
#88 = PRODUCT ( '59534', '59534', '', ( #129 ) ) ;
#89 = MECHANICAL_DESIGN_GEOMETRIC_PRESENTATION_REPRESENTATION (  '', ( #64 ), #122 ) ;
#90 = STYLED_ITEM ( 'NONE', ( #240 ), #216 ) ;
#91 = UNCERTAINTY_MEASURE_WITH_UNIT (LENGTH_MEASURE( 1.000000000000000082E-05 ), #149, 'distance_accuracy_value', 'NONE');
#92 = DIRECTION ( 'NONE',  ( -1.000000000000000000, 0.000000000000000000, 0.000000000000000000 ) ) ;
#93 = ORIENTED_EDGE ( 'NONE', *, *, #206, .T. ) ;
#94 = ADVANCED_BREP_SHAPE_REPRESENTATION ( '59534', ( #216, #16, #246 ), #182 ) ;
#95 = CIRCLE ( 'NONE', #221, 2.999999999999996891 ) ;
#96 =( LENGTH_UNIT ( ) NAMED_UNIT ( * ) SI_UNIT ( .MILLI., .METRE. ) );
#97 = ORIENTED_EDGE ( 'NONE', *, *, #120, .T. ) ;
#98 = DIRECTION ( 'NONE',  ( -0.000000000000000000, -1.000000000000000000, -0.000000000000000000 ) ) ;
#99 = PRODUCT_RELATED_PRODUCT_CATEGORY ( 'part', '', ( #88 ) ) ;
#100 = SURFACE_SIDE_STYLE ('',( #144 ) ) ;
#101 = FACE_OUTER_BOUND ( 'NONE', #6, .T. ) ;
#102 = PRODUCT_DEFINITION_FORMATION_WITH_SPECIFIED_SOURCE ( 'ANY', '', #88, .NOT_KNOWN. ) ;
#103 = SURFACE_STYLE_FILL_AREA ( #51 ) ;
#104 =( NAMED_UNIT ( * ) PLANE_ANGLE_UNIT ( ) SI_UNIT ( $, .RADIAN. ) );
#105 = EDGE_CURVE ( 'NONE', #77, #138, #257, .T. ) ;
#106 = CARTESIAN_POINT ( 'NONE',  ( 0.000000000000000000, 0.000000000000000000, 0.000000000000000000 ) ) ;
#107 = COLOUR_RGB ( '',1.000000000000000000, 0.000000000000000000, 0.000000000000000000 ) ;
#108 = DIRECTION ( 'NONE',  ( 6.243297407417877041E-17, 1.000000000000000000, -0.000000000000000000 ) ) ;
#109 = AXIS2_PLACEMENT_3D ( 'NONE', #58, #98, #78 ) ;
#110 = DIRECTION ( 'NONE',  ( 0.000000000000000000, 1.000000000000000000, 0.000000000000000000 ) ) ;
#111 = CARTESIAN_POINT ( 'NONE',  ( 3.000000000000000000, 63.00000000000000000, 0.000000000000000000 ) ) ;
#112 = UNCERTAINTY_MEASURE_WITH_UNIT (LENGTH_MEASURE( 1.000000000000000082E-05 ), #81, 'distance_accuracy_value', 'NONE');
#113 = EDGE_LOOP ( 'NONE', ( #191, #189 ) ) ;
#114 = DIRECTION ( 'NONE',  ( -1.000000000000000000, 0.000000000000000000, 0.000000000000000000 ) ) ;
#115 = PRESENTATION_LAYER_ASSIGNMENT (  '', '', ( #177 ) ) ;
#116 = ADVANCED_FACE ( 'NONE', ( #121 ), #35, .T. ) ;
#117 = ORIENTED_EDGE ( 'NONE', *, *, #243, .F. ) ;
#118 = DIRECTION ( 'NONE',  ( 0.000000000000000000, 0.000000000000000000, -1.000000000000000000 ) ) ;
#119 = STYLED_ITEM ( 'NONE', ( #13 ), #208 ) ;
#120 = EDGE_CURVE ( 'NONE', #212, #77, #168, .T. ) ;
#121 = FACE_OUTER_BOUND ( 'NONE', #250, .T. ) ;
#122 =( GEOMETRIC_REPRESENTATION_CONTEXT ( 3 ) GLOBAL_UNCERTAINTY_ASSIGNED_CONTEXT ( ( #112 ) ) GLOBAL_UNIT_ASSIGNED_CONTEXT ( ( #81, #223, #173 ) ) REPRESENTATION_CONTEXT ( 'NONE', 'WORKASPACE' ) );
#123 = CARTESIAN_POINT ( 'NONE',  ( 0.000000000000000000, 12.00000000000000000, 0.000000000000000000 ) ) ;
#124 =( LENGTH_UNIT ( ) NAMED_UNIT ( * ) SI_UNIT ( .MILLI., .METRE. ) );
#125 = ADVANCED_FACE ( 'NONE', ( #12 ), #56, .T. ) ;
#126 = CARTESIAN_POINT ( 'NONE',  ( 0.000000000000000000, 0.000000000000000000, -3.000000000000000000 ) ) ;
#127 = FILL_AREA_STYLE ('',( #224 ) ) ;
#128 =( LENGTH_UNIT ( ) NAMED_UNIT ( * ) SI_UNIT ( .MILLI., .METRE. ) );
#129 = PRODUCT_CONTEXT ( 'NONE', #219, 'mechanical' ) ;
#130 = FACE_OUTER_BOUND ( 'NONE', #190, .T. ) ;
#131 = PRESENTATION_LAYER_ASSIGNMENT (  '', '', ( #64 ) ) ;
#132 = PLANE ( 'NONE',  #286 ) ;
#133 = ORIENTED_EDGE ( 'NONE', *, *, #5, .T. ) ;
#134 = PRODUCT_DEFINITION_CONTEXT ( 'detailed design', #180, 'design' ) ;
#135 = SURFACE_STYLE_FILL_AREA ( #163 ) ;
#136 =( GEOMETRIC_REPRESENTATION_CONTEXT ( 3 ) GLOBAL_UNCERTAINTY_ASSIGNED_CONTEXT ( ( #68 ) ) GLOBAL_UNIT_ASSIGNED_CONTEXT ( ( #96, #14, #198 ) ) REPRESENTATION_CONTEXT ( 'NONE', 'WORKASPACE' ) );
#137 = AXIS2_PLACEMENT_3D ( 'NONE', #227, #205, #154 ) ;
#138 = VERTEX_POINT ( 'NONE', #76 ) ;
#139 = SURFACE_STYLE_USAGE ( .BOTH. , #148 ) ;
#140 = ORIENTED_EDGE ( 'NONE', *, *, #120, .F. ) ;
#141 = VECTOR ( 'NONE', #279, 1000.000000000000000 ) ;
#142 = MECHANICAL_DESIGN_GEOMETRIC_PRESENTATION_REPRESENTATION (  '', ( #90 ), #202 ) ;
#143 = CARTESIAN_POINT ( 'NONE',  ( 3.184081677783117402E-15, 63.00000000000000000, 0.000000000000000000 ) ) ;
#144 = SURFACE_STYLE_FILL_AREA ( #283 ) ;
#145 = FILL_AREA_STYLE_COLOUR ( '', #251 ) ;
#146 = DIRECTION ( 'NONE',  ( 6.243297407417877041E-17, 1.000000000000000000, -0.000000000000000000 ) ) ;
#147 = COLOUR_RGB ( '',1.000000000000000000, 0.000000000000000000, 0.000000000000000000 ) ;
#148 = SURFACE_SIDE_STYLE ('',( #103 ) ) ;
#149 =( LENGTH_UNIT ( ) NAMED_UNIT ( * ) SI_UNIT ( .MILLI., .METRE. ) );
#150 = FILL_AREA_STYLE ('',( #145 ) ) ;
#151 = ORIENTED_EDGE ( 'NONE', *, *, #184, .F. ) ;
#152 = PRODUCT_DEFINITION ( 'UNKNOWN', '', #102, #134 ) ;
#153 = MECHANICAL_DESIGN_GEOMETRIC_PRESENTATION_REPRESENTATION (  '', ( #84 ), #136 ) ;
#154 = DIRECTION ( 'NONE',  ( -1.000000000000000000, 6.243297407417877041E-17, 0.000000000000000000 ) ) ;
#155 = VERTEX_POINT ( 'NONE', #49 ) ;
#156 = STYLED_ITEM ( 'NONE', ( #50 ), #16 ) ;
#157 = DIRECTION ( 'NONE',  ( 0.000000000000000000, 0.000000000000000000, 1.000000000000000000 ) ) ;
#158 = CIRCLE ( 'NONE', #62, 2.999999999999996891 ) ;
#159 = DIRECTION ( 'NONE',  ( -1.000000000000000000, 0.000000000000000000, 0.000000000000000000 ) ) ;
#160 = CYLINDRICAL_SURFACE ( 'NONE', #245, 2.999999999999998224 ) ;
#161 = VERTEX_POINT ( 'NONE', #4 ) ;
#162 = MECHANICAL_DESIGN_GEOMETRIC_PRESENTATION_REPRESENTATION (  '', ( #119 ), #73 ) ;
#163 = FILL_AREA_STYLE ('',( #48 ) ) ;
#164 = DIRECTION ( 'NONE',  ( 0.000000000000000000, 0.000000000000000000, -1.000000000000000000 ) ) ;
#165 = ORIENTED_EDGE ( 'NONE', *, *, #17, .F. ) ;
#166 = DIRECTION ( 'NONE',  ( -0.000000000000000000, -1.000000000000000000, -0.000000000000000000 ) ) ;
#167 = SURFACE_SIDE_STYLE ('',( #195 ) ) ;
#168 = CIRCLE ( 'NONE', #270, 3.000000000000000000 ) ;
#169 =( GEOMETRIC_REPRESENTATION_CONTEXT ( 3 ) GLOBAL_UNCERTAINTY_ASSIGNED_CONTEXT ( ( #231 ) ) GLOBAL_UNIT_ASSIGNED_CONTEXT ( ( #124, #104, #22 ) ) REPRESENTATION_CONTEXT ( 'NONE', 'WORKASPACE' ) );
#170 = CARTESIAN_POINT ( 'NONE',  ( 0.000000000000000000, 0.000000000000000000, -3.000000000000000000 ) ) ;
#171 = CARTESIAN_POINT ( 'NONE',  ( 3.673940397442059868E-16, 12.00000000000000000, 3.000000000000000000 ) ) ;
#172 = SURFACE_SIDE_STYLE ('',( #80 ) ) ;
#173 =( NAMED_UNIT ( * ) SI_UNIT ( $, .STERADIAN. ) SOLID_ANGLE_UNIT ( ) );
#174 = FILL_AREA_STYLE ('',( #200 ) ) ;
#175 = DIRECTION ( 'NONE',  ( 6.243297407417877041E-17, 1.000000000000000000, -0.000000000000000000 ) ) ;
#176 = AXIS2_PLACEMENT_3D ( 'NONE', #252, #247, #118 ) ;
#177 = STYLED_ITEM ( 'NONE', ( #259 ), #256 ) ;
#178 = SURFACE_STYLE_USAGE ( .BOTH. , #38 ) ;
#179 = DIRECTION ( 'NONE',  ( -1.000000000000000000, 0.000000000000000000, 0.000000000000000000 ) ) ;
#180 = APPLICATION_CONTEXT ( 'automotive_design' ) ;
#181 = VECTOR ( 'NONE', #70, 1000.000000000000000 ) ;
#182 =( GEOMETRIC_REPRESENTATION_CONTEXT ( 3 ) GLOBAL_UNCERTAINTY_ASSIGNED_CONTEXT ( ( #272 ) ) GLOBAL_UNIT_ASSIGNED_CONTEXT ( ( #128, #287, #42 ) ) REPRESENTATION_CONTEXT ( 'NONE', 'WORKASPACE' ) );
#183 = CARTESIAN_POINT ( 'NONE',  ( 0.000000000000000000, 0.000000000000000000, 0.000000000000000000 ) ) ;
#184 = EDGE_CURVE ( 'NONE', #28, #228, #187, .T. ) ;
#185 = UNCERTAINTY_MEASURE_WITH_UNIT (LENGTH_MEASURE( 1.000000000000000082E-05 ), #262, 'distance_accuracy_value', 'NONE');
#186 = AXIS2_PLACEMENT_3D ( 'NONE', #278, #82, #11 ) ;
#187 = LINE ( 'NONE', #273, #181 ) ;
#188 = CARTESIAN_POINT ( 'NONE',  ( 0.000000000000000000, 11.99999999999999645, 0.000000000000000000 ) ) ;
#189 = ORIENTED_EDGE ( 'NONE', *, *, #55, .T. ) ;
#190 = EDGE_LOOP ( 'NONE', ( #71, #271 ) ) ;
#191 = ORIENTED_EDGE ( 'NONE', *, *, #20, .T. ) ;
#192 = DIRECTION ( 'NONE',  ( 0.000000000000000000, -1.000000000000000000, -0.000000000000000000 ) ) ;
#193 = SURFACE_STYLE_USAGE ( .BOTH. , #172 ) ;
#194 = SURFACE_STYLE_USAGE ( .BOTH. , #100 ) ;
#195 = SURFACE_STYLE_FILL_AREA ( #127 ) ;
#196 = COLOUR_RGB ( '',1.000000000000000000, 0.000000000000000000, 0.000000000000000000 ) ;
#197 = ADVANCED_FACE ( 'NONE', ( #233 ), #160, .T. ) ;
#198 =( NAMED_UNIT ( * ) SI_UNIT ( $, .STERADIAN. ) SOLID_ANGLE_UNIT ( ) );
#199 = CARTESIAN_POINT ( 'NONE',  ( -2.999999999999995115, 63.00000000000000000, 0.000000000000000000 ) ) ;
#200 = FILL_AREA_STYLE_COLOUR ( '', #69 ) ;
#201 = PRESENTATION_LAYER_ASSIGNMENT (  '', '', ( #84 ) ) ;
#202 =( GEOMETRIC_REPRESENTATION_CONTEXT ( 3 ) GLOBAL_UNCERTAINTY_ASSIGNED_CONTEXT ( ( #91 ) ) GLOBAL_UNIT_ASSIGNED_CONTEXT ( ( #149, #40, #59 ) ) REPRESENTATION_CONTEXT ( 'NONE', 'WORKASPACE' ) );
#203 = SHAPE_DEFINITION_REPRESENTATION ( #2, #94 ) ;
#204 = APPLICATION_PROTOCOL_DEFINITION ( 'draft international standard', 'automotive_design', 1998, #180 ) ;
#205 = DIRECTION ( 'NONE',  ( 6.243297407417877041E-17, 1.000000000000000000, -0.000000000000000000 ) ) ;
#206 = EDGE_CURVE ( 'NONE', #212, #218, #47, .T. ) ;
#207 = DIRECTION ( 'NONE',  ( 1.000000000000000000, 0.000000000000000000, 0.000000000000000000 ) ) ;
#208 = ADVANCED_FACE ( 'NONE', ( #36 ), #57, .T. ) ;
#209 = CIRCLE ( 'NONE', #25, 3.000000000000000000 ) ;
#210 =( LENGTH_UNIT ( ) NAMED_UNIT ( * ) SI_UNIT ( .MILLI., .METRE. ) );
#211 =( NAMED_UNIT ( * ) SI_UNIT ( $, .STERADIAN. ) SOLID_ANGLE_UNIT ( ) );
#212 = VERTEX_POINT ( 'NONE', #225 ) ;
#213 = DIRECTION ( 'NONE',  ( 6.243297407417877041E-17, 1.000000000000000000, -0.000000000000000000 ) ) ;
#214 = ORIENTED_EDGE ( 'NONE', *, *, #105, .T. ) ;
#215 = EDGE_LOOP ( 'NONE', ( #97, #214, #44, #66 ) ) ;
#216 = MANIFOLD_SOLID_BREP ( 'Revolve - Cutting Edge', #263 ) ;
#217 = DIRECTION ( 'NONE',  ( 6.243297407417877041E-17, 1.000000000000000000, -0.000000000000000000 ) ) ;
#218 = VERTEX_POINT ( 'NONE', #126 ) ;
#219 = APPLICATION_CONTEXT ( 'automotive_design' ) ;
#220 = DIRECTION ( 'NONE',  ( 0.000000000000000000, 0.000000000000000000, -1.000000000000000000 ) ) ;
#221 = AXIS2_PLACEMENT_3D ( 'NONE', #29, #217, #92 ) ;
#222 = VECTOR ( 'NONE', #146, 1000.000000000000000 ) ;
#223 =( NAMED_UNIT ( * ) PLANE_ANGLE_UNIT ( ) SI_UNIT ( $, .RADIAN. ) );
#224 = FILL_AREA_STYLE_COLOUR ( '', #196 ) ;
#225 = CARTESIAN_POINT ( 'NONE',  ( 0.000000000000000000, 12.00000000000000000, -3.000000000000000000 ) ) ;
#226 = AXIS2_PLACEMENT_3D ( 'NONE', #143, #175, #238 ) ;
#227 = CARTESIAN_POINT ( 'NONE',  ( 5.846814377620617787E-33, 12.00000000000000000, 0.000000000000000000 ) ) ;
#228 = VERTEX_POINT ( 'NONE', #34 ) ;
#229 = APPLICATION_PROTOCOL_DEFINITION ( 'draft international standard', 'automotive_design', 1998, #219 ) ;
#230 =( GEOMETRIC_REPRESENTATION_CONTEXT ( 3 ) GLOBAL_UNCERTAINTY_ASSIGNED_CONTEXT ( ( #46 ) ) GLOBAL_UNIT_ASSIGNED_CONTEXT ( ( #210, #26, #211 ) ) REPRESENTATION_CONTEXT ( 'NONE', 'WORKASPACE' ) );
#231 = UNCERTAINTY_MEASURE_WITH_UNIT (LENGTH_MEASURE( 1.000000000000000082E-05 ), #124, 'distance_accuracy_value', 'NONE');
#232 = ORIENTED_EDGE ( 'NONE', *, *, #184, .T. ) ;
#233 = FACE_OUTER_BOUND ( 'NONE', #75, .T. ) ;
#234 = EDGE_LOOP ( 'NONE', ( #248, #275 ) ) ;
#235 = EDGE_LOOP ( 'NONE', ( #253, #45, #93, #52 ) ) ;
#236 = ORIENTED_EDGE ( 'NONE', *, *, #8, .T. ) ;
#237 = COLOUR_RGB ( '',0.7921568627450980005, 0.8196078431372548767, 0.9333333333333333481 ) ;
#238 = DIRECTION ( 'NONE',  ( -1.000000000000000000, 0.000000000000000000, 0.000000000000000000 ) ) ;
#239 = CYLINDRICAL_SURFACE ( 'NONE', #186, 3.000000000000000000 ) ;
#240 = PRESENTATION_STYLE_ASSIGNMENT (( #178 ) ) ;
#241 = PLANE ( 'NONE',  #137 ) ;
#242 = VECTOR ( 'NONE', #260, 1000.000000000000000 ) ;
#243 = EDGE_CURVE ( 'NONE', #161, #155, #21, .T. ) ;
#244 = DIRECTION ( 'NONE',  ( 1.000000000000000000, -6.243297407417877041E-17, 0.000000000000000000 ) ) ;
#245 = AXIS2_PLACEMENT_3D ( 'NONE', #249, #213, #27 ) ;
#246 = AXIS2_PLACEMENT_3D ( 'NONE', #183, #157, #207 ) ;
#247 = DIRECTION ( 'NONE',  ( -0.000000000000000000, -1.000000000000000000, -0.000000000000000000 ) ) ;
#248 = ORIENTED_EDGE ( 'NONE', *, *, #8, .F. ) ;
#249 = CARTESIAN_POINT ( 'NONE',  ( 3.184081677783117402E-15, 63.00000000000000000, 0.000000000000000000 ) ) ;
#250 = EDGE_LOOP ( 'NONE', ( #151, #133, #32, #165 ) ) ;
#251 = COLOUR_RGB ( '',1.000000000000000000, 0.000000000000000000, 0.000000000000000000 ) ;
#252 = CARTESIAN_POINT ( 'NONE',  ( 0.000000000000000000, 0.000000000000000000, 0.000000000000000000 ) ) ;
#253 = ORIENTED_EDGE ( 'NONE', *, *, #105, .F. ) ;
#254 = SURFACE_STYLE_USAGE ( .BOTH. , #72 ) ;
#255 = CARTESIAN_POINT ( 'NONE',  ( 3.673940397442059868E-16, 0.000000000000000000, 3.000000000000000000 ) ) ;
#256 = ADVANCED_FACE ( 'NONE', ( #101 ), #281, .T. ) ;
#257 = LINE ( 'NONE', #255, #242 ) ;
#258 = AXIS2_PLACEMENT_3D ( 'NONE', #9, #192, #277 ) ;
#259 = PRESENTATION_STYLE_ASSIGNMENT (( #19 ) ) ;
#260 = DIRECTION ( 'NONE',  ( -0.000000000000000000, -1.000000000000000000, -0.000000000000000000 ) ) ;
#261 = FILL_AREA_STYLE_COLOUR ( '', #147 ) ;
#262 =( LENGTH_UNIT ( ) NAMED_UNIT ( * ) SI_UNIT ( .MILLI., .METRE. ) );
#263 = CLOSED_SHELL ( 'NONE', ( #31, #256, #208, #125 ) ) ;
#264 = EDGE_CURVE ( 'NONE', #155, #228, #158, .T. ) ;
#265 =( NAMED_UNIT ( * ) PLANE_ANGLE_UNIT ( ) SI_UNIT ( $, .RADIAN. ) );
#266 = ADVANCED_FACE ( 'NONE', ( #130 ), #132, .F. ) ;
#267 = FACE_OUTER_BOUND ( 'NONE', #234, .T. ) ;
#268 = DIRECTION ( 'NONE',  ( 0.000000000000000000, -0.000000000000000000, 1.000000000000000000 ) ) ;
#269 = CARTESIAN_POINT ( 'NONE',  ( 3.000000000000000000, 11.99999999999999645, 3.673940397442058882E-16 ) ) ;
#270 = AXIS2_PLACEMENT_3D ( 'NONE', #123, #33, #220 ) ;
#271 = ORIENTED_EDGE ( 'NONE', *, *, #17, .T. ) ;
#272 = UNCERTAINTY_MEASURE_WITH_UNIT (LENGTH_MEASURE( 1.000000000000000082E-05 ), #128, 'distance_accuracy_value', 'NONE');
#273 = CARTESIAN_POINT ( 'NONE',  ( 3.000000000000001332, 63.00000000000000000, 3.673940397442057896E-16 ) ) ;
#274 = ORIENTED_EDGE ( 'NONE', *, *, #39, .F. ) ;
#275 = ORIENTED_EDGE ( 'NONE', *, *, #5, .F. ) ;
#276 = DIRECTION ( 'NONE',  ( 6.243297407417877041E-17, 1.000000000000000000, -0.000000000000000000 ) ) ;
#277 = DIRECTION ( 'NONE',  ( 0.000000000000000000, 0.000000000000000000, -1.000000000000000000 ) ) ;
#278 = CARTESIAN_POINT ( 'NONE',  ( 0.000000000000000000, 0.000000000000000000, 0.000000000000000000 ) ) ;
#279 = DIRECTION ( 'NONE',  ( -0.000000000000000000, -1.000000000000000000, -0.000000000000000000 ) ) ;
#280 = PRESENTATION_STYLE_ASSIGNMENT (( #194 ) ) ;
#281 = PLANE ( 'NONE',  #65 ) ;
#282 = ADVANCED_FACE ( 'NONE', ( #267 ), #241, .F. ) ;
#283 = FILL_AREA_STYLE ('',( #261 ) ) ;
#284 =( NAMED_UNIT ( * ) SI_UNIT ( $, .STERADIAN. ) SOLID_ANGLE_UNIT ( ) );
#285 = CLOSED_SHELL ( 'NONE', ( #197, #282, #116, #266 ) ) ;
#286 = AXIS2_PLACEMENT_3D ( 'NONE', #111, #86, #244 ) ;
#287 =( NAMED_UNIT ( * ) PLANE_ANGLE_UNIT ( ) SI_UNIT ( $, .RADIAN. ) );
#288 = PRESENTATION_LAYER_ASSIGNMENT (  '', '', ( #119 ) ) ;
ENDSEC;
END-ISO-10303-21;
