ISO-10303-21;
HEADER;
FILE_DESCRIPTION (( 'STEP AP214' ),
    '1' );
FILE_NAME ('86071.STEP',
    '2023-06-23T16:30:32',
    ( '' ),
    ( '' ),
    'SwSTEP 2.0',
    'SolidWorks 2023',
    '' );
FILE_SCHEMA (( 'AUTOMOTIVE_DESIGN' ));
ENDSEC;

DATA;
#1 = FILL_AREA_STYLE_COLOUR ( '', #305 ) ;
#2 = ADVANCED_FACE ( 'NONE', ( #234 ), #142, .F. ) ;
#3 = COLOUR_RGB ( '',0.7921568627450980005, 0.8196078431372548767, 0.9333333333333333481 ) ;
#4 = SURFACE_STYLE_FILL_AREA ( #222 ) ;
#5 = ORIENTED_EDGE ( 'NONE', *, *, #278, .T. ) ;
#6 = CARTESIAN_POINT ( 'NONE',  ( 0.000000000000000000, 3.625000000000000444, 0.000000000000000000 ) ) ;
#7 = VERTEX_POINT ( 'NONE', #66 ) ;
#8 = AXIS2_PLACEMENT_3D ( 'NONE', #165, #233, #210 ) ;
#9 = DIRECTION ( 'NONE',  ( 0.000000000000000000, -0.000000000000000000, 1.000000000000000000 ) ) ;
#10 = DIRECTION ( 'NONE',  ( -0.000000000000000000, -1.000000000000000000, -0.000000000000000000 ) ) ;
#11 = FACE_OUTER_BOUND ( 'NONE', #62, .T. ) ;
#12 = PRODUCT_CONTEXT ( 'NONE', #102, 'mechanical' ) ;
#13 = STYLED_ITEM ( 'NONE', ( #128 ), #196 ) ;
#14 = SURFACE_STYLE_FILL_AREA ( #286 ) ;
#15 = LINE ( 'NONE', #301, #274 ) ;
#16 = DIRECTION ( 'NONE',  ( 0.000000000000000000, 0.000000000000000000, -1.000000000000000000 ) ) ;
#17 = ORIENTED_EDGE ( 'NONE', *, *, #171, .F. ) ;
#18 =( LENGTH_UNIT ( ) NAMED_UNIT ( * ) SI_UNIT ( $, .METRE. ) );
#19 = DIRECTION ( 'NONE',  ( -5.156407575357281462E-17, 1.000000000000000000, -0.000000000000000000 ) ) ;
#20 = FILL_AREA_STYLE ('',( #164 ) ) ;
#21 = CLOSED_SHELL ( 'NONE', ( #225, #251, #98, #2 ) ) ;
#22 = DIRECTION ( 'NONE',  ( -1.000000000000000000, 0.000000000000000000, 0.000000000000000000 ) ) ;
#23 = AXIS2_PLACEMENT_3D ( 'NONE', #99, #239, #200 ) ;
#24 =( NAMED_UNIT ( * ) PLANE_ANGLE_UNIT ( ) SI_UNIT ( $, .RADIAN. ) );
#25 = AXIS2_PLACEMENT_3D ( 'NONE', #123, #109, #209 ) ;
#26 =( NAMED_UNIT ( * ) PLANE_ANGLE_UNIT ( ) SI_UNIT ( $, .RADIAN. ) );
#27 = SURFACE_SIDE_STYLE ('',( #290 ) ) ;
#28 = CIRCLE ( 'NONE', #288, 0.2500000000000000000 ) ;
#29 = CARTESIAN_POINT ( 'NONE',  ( 0.000000000000000000, 0.000000000000000000, 0.000000000000000000 ) ) ;
#30 = FACE_OUTER_BOUND ( 'NONE', #46, .T. ) ;
#31 = ORIENTED_EDGE ( 'NONE', *, *, #219, .F. ) ;
#32 = DIRECTION ( 'NONE',  ( 0.000000000000000000, 1.000000000000000000, 0.000000000000000000 ) ) ;
#33 = EDGE_LOOP ( 'NONE', ( #283, #37, #126, #50 ) ) ;
#34 = EDGE_CURVE ( 'NONE', #7, #273, #15, .T. ) ;
#35 = STYLED_ITEM ( 'NONE', ( #38 ), #287 ) ;
#36 = DIRECTION ( 'NONE',  ( -5.156407575357281462E-17, 1.000000000000000000, 0.000000000000000000 ) ) ;
#37 = ORIENTED_EDGE ( 'NONE', *, *, #108, .T. ) ;
#38 = PRESENTATION_STYLE_ASSIGNMENT (( #48 ) ) ;
#39 = ORIENTED_EDGE ( 'NONE', *, *, #41, .T. ) ;
#40 = COLOUR_RGB ( '',1.000000000000000000, 0.000000000000000000, 0.000000000000000000 ) ;
#41 = EDGE_CURVE ( 'NONE', #277, #299, #149, .T. ) ;
#42 =( CONVERSION_BASED_UNIT ( 'INCH', #87 ) LENGTH_UNIT ( ) NAMED_UNIT ( #82 ) );
#43 = SURFACE_SIDE_STYLE ('',( #14 ) ) ;
#44 = SURFACE_STYLE_FILL_AREA ( #20 ) ;
#45 = MECHANICAL_DESIGN_GEOMETRIC_PRESENTATION_REPRESENTATION (  '', ( #259 ), #172 ) ;
#46 = EDGE_LOOP ( 'NONE', ( #39, #124, #17, #185 ) ) ;
#47 =( NAMED_UNIT ( * ) SI_UNIT ( $, .STERADIAN. ) SOLID_ANGLE_UNIT ( ) );
#48 = SURFACE_STYLE_USAGE ( .BOTH. , #43 ) ;
#49 =( CONVERSION_BASED_UNIT ( 'INCH', #195 ) LENGTH_UNIT ( ) NAMED_UNIT ( #206 ) );
#50 = ORIENTED_EDGE ( 'NONE', *, *, #76, .F. ) ;
#51 =( LENGTH_UNIT ( ) NAMED_UNIT ( * ) SI_UNIT ( $, .METRE. ) );
#52 = CIRCLE ( 'NONE', #96, 0.2500000000000001110 ) ;
#53 = CARTESIAN_POINT ( 'NONE',  ( -1.224646799147354440E-16, 6.000000000000000888, 0.000000000000000000 ) ) ;
#54 = CYLINDRICAL_SURFACE ( 'NONE', #208, 0.2500000000000000000 ) ;
#55 = SURFACE_STYLE_FILL_AREA ( #293 ) ;
#56 = FACE_OUTER_BOUND ( 'NONE', #77, .T. ) ;
#57 =( GEOMETRIC_REPRESENTATION_CONTEXT ( 3 ) GLOBAL_UNCERTAINTY_ASSIGNED_CONTEXT ( ( #204 ) ) GLOBAL_UNIT_ASSIGNED_CONTEXT ( ( #284, #139, #47 ) ) REPRESENTATION_CONTEXT ( 'NONE', 'WORKASPACE' ) );
#58 = CARTESIAN_POINT ( 'NONE',  ( 0.2499999999999999167, 6.000000000000000888, 3.061616997868383634E-17 ) ) ;
#59 = DIMENSIONAL_EXPONENTS ( 1.000000000000000000, 0.000000000000000000, 0.000000000000000000, 0.000000000000000000, 0.000000000000000000, 0.000000000000000000, 0.000000000000000000 ) ;
#60 = UNCERTAINTY_MEASURE_WITH_UNIT (LENGTH_MEASURE( 1.000000000000000082E-05 ), #158, 'distance_accuracy_value', 'NONE');
#61 = PLANE ( 'NONE',  #151 ) ;
#62 = EDGE_LOOP ( 'NONE', ( #176, #235, #5, #271 ) ) ;
#63 = LINE ( 'NONE', #163, #307 ) ;
#64 = COLOUR_RGB ( '',0.7921568627450980005, 0.8196078431372548767, 0.9333333333333333481 ) ;
#65 = AXIS2_PLACEMENT_3D ( 'NONE', #6, #32, #9 ) ;
#66 = CARTESIAN_POINT ( 'NONE',  ( 3.061616997868383018E-17, 3.625000000000000444, 0.2500000000000000000 ) ) ;
#67 = PRESENTATION_LAYER_ASSIGNMENT (  '', '', ( #223 ) ) ;
#68 = SURFACE_STYLE_USAGE ( .BOTH. , #27 ) ;
#69 = DIRECTION ( 'NONE',  ( -0.000000000000000000, -1.000000000000000000, -0.000000000000000000 ) ) ;
#70 = PRODUCT_DEFINITION_CONTEXT ( 'detailed design', #78, 'design' ) ;
#71 = FILL_AREA_STYLE_COLOUR ( '', #3 ) ;
#72 = UNCERTAINTY_MEASURE_WITH_UNIT (LENGTH_MEASURE( 1.000000000000000082E-05 ), #187, 'distance_accuracy_value', 'NONE');
#73 = FACE_OUTER_BOUND ( 'NONE', #33, .T. ) ;
#74 = DIRECTION ( 'NONE',  ( -1.000000000000000000, 0.000000000000000000, 0.000000000000000000 ) ) ;
#75 = CYLINDRICAL_SURFACE ( 'NONE', #243, 0.2500000000000000555 ) ;
#76 = EDGE_CURVE ( 'NONE', #129, #214, #52, .T. ) ;
#77 = EDGE_LOOP ( 'NONE', ( #31, #250 ) ) ;
#78 = APPLICATION_CONTEXT ( 'automotive_design' ) ;
#79 = SURFACE_SIDE_STYLE ('',( #55 ) ) ;
#80 = MECHANICAL_DESIGN_GEOMETRIC_PRESENTATION_REPRESENTATION (  '', ( #35 ), #110 ) ;
#81 =( CONVERSION_BASED_UNIT ( 'INCH', #141 ) LENGTH_UNIT ( ) NAMED_UNIT ( #194 ) );
#82 = DIMENSIONAL_EXPONENTS ( 1.000000000000000000, 0.000000000000000000, 0.000000000000000000, 0.000000000000000000, 0.000000000000000000, 0.000000000000000000, 0.000000000000000000 ) ;
#83 = MANIFOLD_SOLID_BREP ( 'Revolve - Cutting Edge', #122 ) ;
#84 = MANIFOLD_SOLID_BREP ( 'Revolve - Tool Body (Straight Shanked)', #21 ) ;
#85 = SURFACE_SIDE_STYLE ('',( #4 ) ) ;
#86 = CARTESIAN_POINT ( 'NONE',  ( 0.2500000000000000000, 6.000000000000000888, 0.000000000000000000 ) ) ;
#87 = LENGTH_MEASURE_WITH_UNIT ( LENGTH_MEASURE( 0.02539999999999999897 ), #281 );
#88 = DIRECTION ( 'NONE',  ( -0.000000000000000000, -1.000000000000000000, -0.000000000000000000 ) ) ;
#89 = AXIS2_PLACEMENT_3D ( 'NONE', #297, #181, #300 ) ;
#90 = ADVANCED_FACE ( 'NONE', ( #242 ), #190, .T. ) ;
#91 =( NAMED_UNIT ( * ) PLANE_ANGLE_UNIT ( ) SI_UNIT ( $, .RADIAN. ) );
#92 = DIRECTION ( 'NONE',  ( -1.000000000000000000, 0.000000000000000000, 0.000000000000000000 ) ) ;
#93 = STYLED_ITEM ( 'NONE', ( #212 ), #257 ) ;
#94 = DIRECTION ( 'NONE',  ( -0.000000000000000000, -1.000000000000000000, -0.000000000000000000 ) ) ;
#95 =( CONVERSION_BASED_UNIT ( 'INCH', #265 ) LENGTH_UNIT ( ) NAMED_UNIT ( #59 ) );
#96 = AXIS2_PLACEMENT_3D ( 'NONE', #306, #19, #92 ) ;
#97 = PRESENTATION_STYLE_ASSIGNMENT (( #150 ) ) ;
#98 = ADVANCED_FACE ( 'NONE', ( #73 ), #268, .T. ) ;
#99 = CARTESIAN_POINT ( 'NONE',  ( 0.000000000000000000, 0.000000000000000000, 0.000000000000000000 ) ) ;
#100 = DIRECTION ( 'NONE',  ( -5.156407575357281462E-17, 1.000000000000000000, -0.000000000000000000 ) ) ;
#101 = AXIS2_PLACEMENT_3D ( 'NONE', #86, #282, #258 ) ;
#102 = APPLICATION_CONTEXT ( 'automotive_design' ) ;
#103 = DIRECTION ( 'NONE',  ( -0.000000000000000000, -1.000000000000000000, -0.000000000000000000 ) ) ;
#104 = APPLICATION_PROTOCOL_DEFINITION ( 'draft international standard', 'automotive_design', 1998, #102 ) ;
#105 = CARTESIAN_POINT ( 'NONE',  ( 0.000000000000000000, 3.625000000000000444, -0.2500000000000000000 ) ) ;
#106 = DIRECTION ( 'NONE',  ( -5.156407575357281462E-17, 1.000000000000000000, -0.000000000000000000 ) ) ;
#107 = DIMENSIONAL_EXPONENTS ( 1.000000000000000000, 0.000000000000000000, 0.000000000000000000, 0.000000000000000000, 0.000000000000000000, 0.000000000000000000, 0.000000000000000000 ) ;
#108 = EDGE_CURVE ( 'NONE', #299, #277, #28, .T. ) ;
#109 = DIRECTION ( 'NONE',  ( -0.000000000000000000, -1.000000000000000000, -0.000000000000000000 ) ) ;
#110 =( GEOMETRIC_REPRESENTATION_CONTEXT ( 3 ) GLOBAL_UNCERTAINTY_ASSIGNED_CONTEXT ( ( #72 ) ) GLOBAL_UNIT_ASSIGNED_CONTEXT ( ( #187, #26, #191 ) ) REPRESENTATION_CONTEXT ( 'NONE', 'WORKASPACE' ) );
#111 =( LENGTH_UNIT ( ) NAMED_UNIT ( * ) SI_UNIT ( $, .METRE. ) );
#112 = PRESENTATION_LAYER_ASSIGNMENT (  '', '', ( #169 ) ) ;
#113 =( GEOMETRIC_REPRESENTATION_CONTEXT ( 3 ) GLOBAL_UNCERTAINTY_ASSIGNED_CONTEXT ( ( #60 ) ) GLOBAL_UNIT_ASSIGNED_CONTEXT ( ( #158, #272, #298 ) ) REPRESENTATION_CONTEXT ( 'NONE', 'WORKASPACE' ) );
#114 = CARTESIAN_POINT ( 'NONE',  ( 0.2500000000000000555, 3.625000000000000444, 3.061616997868384251E-17 ) ) ;
#115 = EDGE_LOOP ( 'NONE', ( #136, #183 ) ) ;
#116 = CYLINDRICAL_SURFACE ( 'NONE', #8, 0.2500000000000000000 ) ;
#117 = SURFACE_SIDE_STYLE ('',( #44 ) ) ;
#118 = FILL_AREA_STYLE ('',( #71 ) ) ;
#119 = AXIS2_PLACEMENT_3D ( 'NONE', #153, #10, #245 ) ;
#120 = EDGE_CURVE ( 'NONE', #7, #159, #133, .T. ) ;
#121 = CARTESIAN_POINT ( 'NONE',  ( -0.2500000000000002220, 6.000000000000000888, 0.000000000000000000 ) ) ;
#122 = CLOSED_SHELL ( 'NONE', ( #287, #196, #257, #90 ) ) ;
#123 = CARTESIAN_POINT ( 'NONE',  ( 0.000000000000000000, 0.000000000000000000, 0.000000000000000000 ) ) ;
#124 = ORIENTED_EDGE ( 'NONE', *, *, #137, .T. ) ;
#125 = DIRECTION ( 'NONE',  ( -5.156407575357281462E-17, 1.000000000000000000, -0.000000000000000000 ) ) ;
#126 = ORIENTED_EDGE ( 'NONE', *, *, #179, .T. ) ;
#127 = VECTOR ( 'NONE', #247, 39.37007874015748143 ) ;
#128 = PRESENTATION_STYLE_ASSIGNMENT (( #180 ) ) ;
#129 = VERTEX_POINT ( 'NONE', #262 ) ;
#130 = EDGE_CURVE ( 'NONE', #232, #273, #143, .T. ) ;
#131 = DIRECTION ( 'NONE',  ( -5.156407575357281462E-17, 1.000000000000000000, -0.000000000000000000 ) ) ;
#132 = ORIENTED_EDGE ( 'NONE', *, *, #34, .T. ) ;
#133 = CIRCLE ( 'NONE', #218, 0.2500000000000000000 ) ;
#134 =( GEOMETRIC_REPRESENTATION_CONTEXT ( 3 ) GLOBAL_UNCERTAINTY_ASSIGNED_CONTEXT ( ( #267 ) ) GLOBAL_UNIT_ASSIGNED_CONTEXT ( ( #81, #203, #228 ) ) REPRESENTATION_CONTEXT ( 'NONE', 'WORKASPACE' ) );
#135 = VECTOR ( 'NONE', #131, 39.37007874015748143 ) ;
#136 = ORIENTED_EDGE ( 'NONE', *, *, #41, .F. ) ;
#137 = EDGE_CURVE ( 'NONE', #299, #129, #205, .T. ) ;
#138 = ORIENTED_EDGE ( 'NONE', *, *, #278, .F. ) ;
#139 =( NAMED_UNIT ( * ) PLANE_ANGLE_UNIT ( ) SI_UNIT ( $, .RADIAN. ) );
#140 = MECHANICAL_DESIGN_GEOMETRIC_PRESENTATION_REPRESENTATION (  '', ( #169 ), #57 ) ;
#141 = LENGTH_MEASURE_WITH_UNIT ( LENGTH_MEASURE( 0.02539999999999999897 ), #18 );
#142 = PLANE ( 'NONE',  #101 ) ;
#143 = CIRCLE ( 'NONE', #25, 0.2500000000000000000 ) ;
#144 = CIRCLE ( 'NONE', #303, 0.2500000000000001110 ) ;
#145 = CIRCLE ( 'NONE', #309, 0.2500000000000000000 ) ;
#146 = DIRECTION ( 'NONE',  ( -1.000000000000000000, 0.000000000000000000, 0.000000000000000000 ) ) ;
#147 = PRODUCT_RELATED_PRODUCT_CATEGORY ( 'part', '', ( #168 ) ) ;
#148 = FILL_AREA_STYLE ('',( #1 ) ) ;
#149 = CIRCLE ( 'NONE', #252, 0.2500000000000000000 ) ;
#150 = SURFACE_STYLE_USAGE ( .BOTH. , #289 ) ;
#151 = AXIS2_PLACEMENT_3D ( 'NONE', #249, #36, #231 ) ;
#152 = FILL_AREA_STYLE_COLOUR ( '', #40 ) ;
#153 = CARTESIAN_POINT ( 'NONE',  ( 0.000000000000000000, 3.625000000000000444, 0.000000000000000000 ) ) ;
#154 = EDGE_LOOP ( 'NONE', ( #224, #132, #254, #138 ) ) ;
#155 = APPLICATION_PROTOCOL_DEFINITION ( 'draft international standard', 'automotive_design', 1998, #78 ) ;
#156 = UNCERTAINTY_MEASURE_WITH_UNIT (LENGTH_MEASURE( 1.000000000000000082E-05 ), #95, 'distance_accuracy_value', 'NONE');
#157 = COLOUR_RGB ( '',1.000000000000000000, 0.000000000000000000, 0.000000000000000000 ) ;
#158 =( CONVERSION_BASED_UNIT ( 'INCH', #175 ) LENGTH_UNIT ( ) NAMED_UNIT ( #107 ) );
#159 = VERTEX_POINT ( 'NONE', #105 ) ;
#160 = DIMENSIONAL_EXPONENTS ( 1.000000000000000000, 0.000000000000000000, 0.000000000000000000, 0.000000000000000000, 0.000000000000000000, 0.000000000000000000, 0.000000000000000000 ) ;
#161 = ORIENTED_EDGE ( 'NONE', *, *, #167, .T. ) ;
#162 = EDGE_LOOP ( 'NONE', ( #294, #161 ) ) ;
#163 = CARTESIAN_POINT ( 'NONE',  ( 0.000000000000000000, 0.000000000000000000, -0.2500000000000000000 ) ) ;
#164 = FILL_AREA_STYLE_COLOUR ( '', #64 ) ;
#165 = CARTESIAN_POINT ( 'NONE',  ( 0.000000000000000000, 0.000000000000000000, 0.000000000000000000 ) ) ;
#166 = LENGTH_MEASURE_WITH_UNIT ( LENGTH_MEASURE( 0.02539999999999999897 ), #111 );
#167 = EDGE_CURVE ( 'NONE', #273, #232, #145, .T. ) ;
#168 = PRODUCT ( '86071', '86071', '', ( #12 ) ) ;
#169 = STYLED_ITEM ( 'NONE', ( #238 ), #83 ) ;
#170 = CARTESIAN_POINT ( 'NONE',  ( 3.061616997868383018E-17, 0.000000000000000000, 0.2500000000000000000 ) ) ;
#171 = EDGE_CURVE ( 'NONE', #214, #129, #144, .T. ) ;
#172 =( GEOMETRIC_REPRESENTATION_CONTEXT ( 3 ) GLOBAL_UNCERTAINTY_ASSIGNED_CONTEXT ( ( #156 ) ) GLOBAL_UNIT_ASSIGNED_CONTEXT ( ( #95, #241, #221 ) ) REPRESENTATION_CONTEXT ( 'NONE', 'WORKASPACE' ) );
#173 = CARTESIAN_POINT ( 'NONE',  ( 0.000000000000000000, 0.000000000000000000, -0.2500000000000000000 ) ) ;
#174 = PRESENTATION_LAYER_ASSIGNMENT (  '', '', ( #35 ) ) ;
#175 = LENGTH_MEASURE_WITH_UNIT ( LENGTH_MEASURE( 0.02539999999999999897 ), #296 );
#176 = ORIENTED_EDGE ( 'NONE', *, *, #34, .F. ) ;
#177 = SHAPE_DEFINITION_REPRESENTATION ( #260, #229 ) ;
#178 =( GEOMETRIC_REPRESENTATION_CONTEXT ( 3 ) GLOBAL_UNCERTAINTY_ASSIGNED_CONTEXT ( ( #275 ) ) GLOBAL_UNIT_ASSIGNED_CONTEXT ( ( #49, #24, #197 ) ) REPRESENTATION_CONTEXT ( 'NONE', 'WORKASPACE' ) );
#179 = EDGE_CURVE ( 'NONE', #277, #214, #227, .T. ) ;
#180 = SURFACE_STYLE_USAGE ( .BOTH. , #79 ) ;
#181 = DIRECTION ( 'NONE',  ( 0.000000000000000000, 0.000000000000000000, 1.000000000000000000 ) ) ;
#182 = FACE_OUTER_BOUND ( 'NONE', #115, .T. ) ;
#183 = ORIENTED_EDGE ( 'NONE', *, *, #108, .F. ) ;
#184 = SURFACE_STYLE_USAGE ( .BOTH. , #85 ) ;
#185 = ORIENTED_EDGE ( 'NONE', *, *, #179, .F. ) ;
#186 = PRESENTATION_LAYER_ASSIGNMENT (  '', '', ( #259 ) ) ;
#187 =( CONVERSION_BASED_UNIT ( 'INCH', #302 ) LENGTH_UNIT ( ) NAMED_UNIT ( #160 ) );
#188 = AXIS2_PLACEMENT_3D ( 'NONE', #53, #100, #22 ) ;
#189 = PRESENTATION_LAYER_ASSIGNMENT (  '', '', ( #93 ) ) ;
#190 = PLANE ( 'NONE',  #23 ) ;
#191 =( NAMED_UNIT ( * ) SI_UNIT ( $, .STERADIAN. ) SOLID_ANGLE_UNIT ( ) );
#192 = CARTESIAN_POINT ( 'NONE',  ( 0.000000000000000000, 0.000000000000000000, 0.000000000000000000 ) ) ;
#193 = CARTESIAN_POINT ( 'NONE',  ( 0.000000000000000000, 3.625000000000000444, 0.000000000000000000 ) ) ;
#194 = DIMENSIONAL_EXPONENTS ( 1.000000000000000000, 0.000000000000000000, 0.000000000000000000, 0.000000000000000000, 0.000000000000000000, 0.000000000000000000, 0.000000000000000000 ) ;
#195 = LENGTH_MEASURE_WITH_UNIT ( LENGTH_MEASURE( 0.02539999999999999897 ), #240 );
#196 = ADVANCED_FACE ( 'NONE', ( #56 ), #292, .T. ) ;
#197 =( NAMED_UNIT ( * ) SI_UNIT ( $, .STERADIAN. ) SOLID_ANGLE_UNIT ( ) );
#198 = EDGE_LOOP ( 'NONE', ( #263, #248 ) ) ;
#199 = SURFACE_STYLE_FILL_AREA ( #118 ) ;
#200 = DIRECTION ( 'NONE',  ( 0.000000000000000000, 0.000000000000000000, -1.000000000000000000 ) ) ;
#201 = CARTESIAN_POINT ( 'NONE',  ( 0.000000000000000000, 3.625000000000000444, 0.000000000000000000 ) ) ;
#202 = PRODUCT_DEFINITION ( 'UNKNOWN', '', #255, #70 ) ;
#203 =( NAMED_UNIT ( * ) PLANE_ANGLE_UNIT ( ) SI_UNIT ( $, .RADIAN. ) );
#204 = UNCERTAINTY_MEASURE_WITH_UNIT (LENGTH_MEASURE( 1.000000000000000082E-05 ), #284, 'distance_accuracy_value', 'NONE');
#205 = LINE ( 'NONE', #58, #135 ) ;
#206 = DIMENSIONAL_EXPONENTS ( 1.000000000000000000, 0.000000000000000000, 0.000000000000000000, 0.000000000000000000, 0.000000000000000000, 0.000000000000000000, 0.000000000000000000 ) ;
#207 = DIRECTION ( 'NONE',  ( -1.000000000000000000, 0.000000000000000000, 0.000000000000000000 ) ) ;
#208 = AXIS2_PLACEMENT_3D ( 'NONE', #192, #69, #16 ) ;
#209 = DIRECTION ( 'NONE',  ( 0.000000000000000000, 0.000000000000000000, -1.000000000000000000 ) ) ;
#210 = DIRECTION ( 'NONE',  ( 0.000000000000000000, 0.000000000000000000, -1.000000000000000000 ) ) ;
#211 =( LENGTH_UNIT ( ) NAMED_UNIT ( * ) SI_UNIT ( $, .METRE. ) );
#212 = PRESENTATION_STYLE_ASSIGNMENT (( #184 ) ) ;
#213 = SURFACE_STYLE_USAGE ( .BOTH. , #117 ) ;
#214 = VERTEX_POINT ( 'NONE', #230 ) ;
#215 = DIMENSIONAL_EXPONENTS ( 1.000000000000000000, 0.000000000000000000, 0.000000000000000000, 0.000000000000000000, 0.000000000000000000, 0.000000000000000000, 0.000000000000000000 ) ;
#216 =( NAMED_UNIT ( * ) SI_UNIT ( $, .STERADIAN. ) SOLID_ANGLE_UNIT ( ) );
#217 = PRESENTATION_STYLE_ASSIGNMENT (( #68 ) ) ;
#218 = AXIS2_PLACEMENT_3D ( 'NONE', #308, #94, #285 ) ;
#219 = EDGE_CURVE ( 'NONE', #159, #7, #304, .T. ) ;
#220 = UNCERTAINTY_MEASURE_WITH_UNIT (LENGTH_MEASURE( 1.000000000000000082E-05 ), #42, 'distance_accuracy_value', 'NONE');
#221 =( NAMED_UNIT ( * ) SI_UNIT ( $, .STERADIAN. ) SOLID_ANGLE_UNIT ( ) );
#222 = FILL_AREA_STYLE ('',( #152 ) ) ;
#223 = STYLED_ITEM ( 'NONE', ( #97 ), #84 ) ;
#224 = ORIENTED_EDGE ( 'NONE', *, *, #219, .T. ) ;
#225 = ADVANCED_FACE ( 'NONE', ( #30 ), #75, .T. ) ;
#226 = MECHANICAL_DESIGN_GEOMETRIC_PRESENTATION_REPRESENTATION (  '', ( #93 ), #269 ) ;
#227 = LINE ( 'NONE', #121, #127 ) ;
#228 =( NAMED_UNIT ( * ) SI_UNIT ( $, .STERADIAN. ) SOLID_ANGLE_UNIT ( ) );
#229 = ADVANCED_BREP_SHAPE_REPRESENTATION ( '86071', ( #83, #84, #89 ), #134 ) ;
#230 = CARTESIAN_POINT ( 'NONE',  ( -0.2500000000000002776, 6.000000000000000888, 0.000000000000000000 ) ) ;
#231 = DIRECTION ( 'NONE',  ( -1.000000000000000000, -5.156407575357281462E-17, 0.000000000000000000 ) ) ;
#232 = VERTEX_POINT ( 'NONE', #173 ) ;
#233 = DIRECTION ( 'NONE',  ( -0.000000000000000000, -1.000000000000000000, -0.000000000000000000 ) ) ;
#234 = FACE_OUTER_BOUND ( 'NONE', #198, .T. ) ;
#235 = ORIENTED_EDGE ( 'NONE', *, *, #120, .T. ) ;
#236 = MECHANICAL_DESIGN_GEOMETRIC_PRESENTATION_REPRESENTATION (  '', ( #223 ), #178 ) ;
#237 = DIRECTION ( 'NONE',  ( -5.156407575357281462E-17, 1.000000000000000000, -0.000000000000000000 ) ) ;
#238 = PRESENTATION_STYLE_ASSIGNMENT (( #213 ) ) ;
#239 = DIRECTION ( 'NONE',  ( 0.000000000000000000, -1.000000000000000000, -0.000000000000000000 ) ) ;
#240 =( LENGTH_UNIT ( ) NAMED_UNIT ( * ) SI_UNIT ( $, .METRE. ) );
#241 =( NAMED_UNIT ( * ) PLANE_ANGLE_UNIT ( ) SI_UNIT ( $, .RADIAN. ) );
#242 = FACE_OUTER_BOUND ( 'NONE', #162, .T. ) ;
#243 = AXIS2_PLACEMENT_3D ( 'NONE', #270, #106, #207 ) ;
#244 = DIRECTION ( 'NONE',  ( -1.000000000000000000, 0.000000000000000000, 0.000000000000000000 ) ) ;
#245 = DIRECTION ( 'NONE',  ( 0.000000000000000000, 0.000000000000000000, -1.000000000000000000 ) ) ;
#246 = CARTESIAN_POINT ( 'NONE',  ( -1.224646799147354440E-16, 6.000000000000000888, 0.000000000000000000 ) ) ;
#247 = DIRECTION ( 'NONE',  ( -5.156407575357281462E-17, 1.000000000000000000, -0.000000000000000000 ) ) ;
#248 = ORIENTED_EDGE ( 'NONE', *, *, #76, .T. ) ;
#249 = CARTESIAN_POINT ( 'NONE',  ( 3.323567385400245093E-34, 3.625000000000000444, 0.000000000000000000 ) ) ;
#250 = ORIENTED_EDGE ( 'NONE', *, *, #120, .F. ) ;
#251 = ADVANCED_FACE ( 'NONE', ( #182 ), #61, .F. ) ;
#252 = AXIS2_PLACEMENT_3D ( 'NONE', #193, #237, #146 ) ;
#253 = FILL_AREA_STYLE_COLOUR ( '', #157 ) ;
#254 = ORIENTED_EDGE ( 'NONE', *, *, #130, .F. ) ;
#255 = PRODUCT_DEFINITION_FORMATION_WITH_SPECIFIED_SOURCE ( 'ANY', '', #168, .NOT_KNOWN. ) ;
#256 = FACE_OUTER_BOUND ( 'NONE', #154, .T. ) ;
#257 = ADVANCED_FACE ( 'NONE', ( #11 ), #54, .T. ) ;
#258 = DIRECTION ( 'NONE',  ( 1.000000000000000000, 5.156407575357281462E-17, 0.000000000000000000 ) ) ;
#259 = STYLED_ITEM ( 'NONE', ( #217 ), #90 ) ;
#260 = PRODUCT_DEFINITION_SHAPE ( 'NONE', 'NONE',  #202 ) ;
#261 = MECHANICAL_DESIGN_GEOMETRIC_PRESENTATION_REPRESENTATION (  '', ( #13 ), #113 ) ;
#262 = CARTESIAN_POINT ( 'NONE',  ( 0.2500000000000000555, 6.000000000000000888, 3.061616997868384251E-17 ) ) ;
#263 = ORIENTED_EDGE ( 'NONE', *, *, #171, .T. ) ;
#264 = DIRECTION ( 'NONE',  ( -0.000000000000000000, -1.000000000000000000, -0.000000000000000000 ) ) ;
#265 = LENGTH_MEASURE_WITH_UNIT ( LENGTH_MEASURE( 0.02539999999999999897 ), #51 );
#266 = COLOUR_RGB ( '',1.000000000000000000, 0.000000000000000000, 0.000000000000000000 ) ;
#267 = UNCERTAINTY_MEASURE_WITH_UNIT (LENGTH_MEASURE( 1.000000000000000082E-05 ), #81, 'distance_accuracy_value', 'NONE');
#268 = CYLINDRICAL_SURFACE ( 'NONE', #188, 0.2500000000000000555 ) ;
#269 =( GEOMETRIC_REPRESENTATION_CONTEXT ( 3 ) GLOBAL_UNCERTAINTY_ASSIGNED_CONTEXT ( ( #220 ) ) GLOBAL_UNIT_ASSIGNED_CONTEXT ( ( #42, #91, #216 ) ) REPRESENTATION_CONTEXT ( 'NONE', 'WORKASPACE' ) );
#270 = CARTESIAN_POINT ( 'NONE',  ( -1.224646799147354440E-16, 6.000000000000000888, 0.000000000000000000 ) ) ;
#271 = ORIENTED_EDGE ( 'NONE', *, *, #167, .F. ) ;
#272 =( NAMED_UNIT ( * ) PLANE_ANGLE_UNIT ( ) SI_UNIT ( $, .RADIAN. ) );
#273 = VERTEX_POINT ( 'NONE', #170 ) ;
#274 = VECTOR ( 'NONE', #88, 39.37007874015748143 ) ;
#275 = UNCERTAINTY_MEASURE_WITH_UNIT (LENGTH_MEASURE( 1.000000000000000082E-05 ), #49, 'distance_accuracy_value', 'NONE');
#276 = DIRECTION ( 'NONE',  ( 0.000000000000000000, 0.000000000000000000, -1.000000000000000000 ) ) ;
#277 = VERTEX_POINT ( 'NONE', #280 ) ;
#278 = EDGE_CURVE ( 'NONE', #159, #232, #63, .T. ) ;
#279 = PRESENTATION_LAYER_ASSIGNMENT (  '', '', ( #13 ) ) ;
#280 = CARTESIAN_POINT ( 'NONE',  ( -0.2500000000000000000, 3.625000000000000444, 0.000000000000000000 ) ) ;
#281 =( LENGTH_UNIT ( ) NAMED_UNIT ( * ) SI_UNIT ( $, .METRE. ) );
#282 = DIRECTION ( 'NONE',  ( 5.156407575357281462E-17, -1.000000000000000000, 0.000000000000000000 ) ) ;
#283 = ORIENTED_EDGE ( 'NONE', *, *, #137, .F. ) ;
#284 =( CONVERSION_BASED_UNIT ( 'INCH', #166 ) LENGTH_UNIT ( ) NAMED_UNIT ( #215 ) );
#285 = DIRECTION ( 'NONE',  ( 0.000000000000000000, 0.000000000000000000, -1.000000000000000000 ) ) ;
#286 = FILL_AREA_STYLE ('',( #253 ) ) ;
#287 = ADVANCED_FACE ( 'NONE', ( #256 ), #116, .T. ) ;
#288 = AXIS2_PLACEMENT_3D ( 'NONE', #201, #291, #74 ) ;
#289 = SURFACE_SIDE_STYLE ('',( #199 ) ) ;
#290 = SURFACE_STYLE_FILL_AREA ( #148 ) ;
#291 = DIRECTION ( 'NONE',  ( -5.156407575357281462E-17, 1.000000000000000000, -0.000000000000000000 ) ) ;
#292 = PLANE ( 'NONE',  #65 ) ;
#293 = FILL_AREA_STYLE ('',( #295 ) ) ;
#294 = ORIENTED_EDGE ( 'NONE', *, *, #130, .T. ) ;
#295 = FILL_AREA_STYLE_COLOUR ( '', #266 ) ;
#296 =( LENGTH_UNIT ( ) NAMED_UNIT ( * ) SI_UNIT ( $, .METRE. ) );
#297 = CARTESIAN_POINT ( 'NONE',  ( 0.000000000000000000, 0.000000000000000000, 0.000000000000000000 ) ) ;
#298 =( NAMED_UNIT ( * ) SI_UNIT ( $, .STERADIAN. ) SOLID_ANGLE_UNIT ( ) );
#299 = VERTEX_POINT ( 'NONE', #114 ) ;
#300 = DIRECTION ( 'NONE',  ( 1.000000000000000000, 0.000000000000000000, 0.000000000000000000 ) ) ;
#301 = CARTESIAN_POINT ( 'NONE',  ( 3.061616997868383018E-17, 0.000000000000000000, 0.2500000000000000000 ) ) ;
#302 = LENGTH_MEASURE_WITH_UNIT ( LENGTH_MEASURE( 0.02539999999999999897 ), #211 );
#303 = AXIS2_PLACEMENT_3D ( 'NONE', #246, #125, #244 ) ;
#304 = CIRCLE ( 'NONE', #119, 0.2500000000000000000 ) ;
#305 = COLOUR_RGB ( '',1.000000000000000000, 0.000000000000000000, 0.000000000000000000 ) ;
#306 = CARTESIAN_POINT ( 'NONE',  ( -1.224646799147354440E-16, 6.000000000000000888, 0.000000000000000000 ) ) ;
#307 = VECTOR ( 'NONE', #264, 39.37007874015748143 ) ;
#308 = CARTESIAN_POINT ( 'NONE',  ( 0.000000000000000000, 3.625000000000000444, 0.000000000000000000 ) ) ;
#309 = AXIS2_PLACEMENT_3D ( 'NONE', #29, #103, #276 ) ;
ENDSEC;
END-ISO-10303-21;
