ISO-10303-21;
HEADER;
FILE_DESCRIPTION (( 'STEP AP214' ),
    '1' );
FILE_NAME ('Micro_RNCM-120-1X.STEP',
    '2021-09-03T17:43:26',
    ( '' ),
    ( '' ),
    'SwSTEP 2.0',
    'SolidWorks 2020',
    '' );
FILE_SCHEMA (( 'AUTOMOTIVE_DESIGN' ));
ENDSEC;

DATA;
#1 = EDGE_CURVE ( 'NONE', #29, #231, #218, .T. ) ;
#2 = VECTOR ( 'NONE', #16, 39.37007874015748143 ) ;
#3 = ADVANCED_FACE ( 'NONE', ( #182 ), #139, .T. ) ;
#4 = ORIENTED_EDGE ( 'NONE', *, *, #144, .F. ) ;
#5 = AXIS2_PLACEMENT_3D ( 'NONE', #211, #42, #241 ) ;
#6 = DIRECTION ( 'NONE',  ( 1.000000000000000000, 0.0000000000000000000, 0.0000000000000000000 ) ) ;
#7 = CARTESIAN_POINT ( 'NONE',  ( 0.0000000000000000000, 0.0000000000000000000, 3.267717000000000649 ) ) ;
#8 = DIRECTION ( 'NONE',  ( 1.000000000000000000, 0.0000000000000000000, -0.0000000000000000000 ) ) ;
#9 = FACE_OUTER_BOUND ( 'NONE', #195, .T. ) ;
#10 = SURFACE_STYLE_USAGE ( .BOTH. , #108 ) ;
#11 = CYLINDRICAL_SURFACE ( 'NONE', #166, 0.2362204999999999999 ) ;
#12 = DIRECTION ( 'NONE',  ( -0.0000000000000000000, -0.0000000000000000000, -1.000000000000000000 ) ) ;
#13 = ADVANCED_FACE ( 'NONE', ( #9 ), #240, .F. ) ;
#14 = SURFACE_STYLE_USAGE ( .BOTH. , #135 ) ;
#15 = AXIS2_PLACEMENT_3D ( 'NONE', #221, #190, #193 ) ;
#16 = DIRECTION ( 'NONE',  ( -0.7071067811865489050, 8.659560562354950115E-17, 0.7071067811865461294 ) ) ;
#17 = PRODUCT_DEFINITION_CONTEXT ( 'detailed design', #99, 'design' ) ;
#18 = DIRECTION ( 'NONE',  ( -0.0000000000000000000, -0.0000000000000000000, -1.000000000000000000 ) ) ;
#19 = DIRECTION ( 'NONE',  ( -1.000000000000000000, 0.0000000000000000000, 0.0000000000000000000 ) ) ;
#20 = CIRCLE ( 'NONE', #200, 0.2362204999999999999 ) ;
#21 = ORIENTED_EDGE ( 'NONE', *, *, #236, .F. ) ;
#22 = ORIENTED_EDGE ( 'NONE', *, *, #136, .T. ) ;
#23 = AXIS2_PLACEMENT_3D ( 'NONE', #85, #116, #159 ) ;
#24 =( LENGTH_UNIT ( ) NAMED_UNIT ( * ) SI_UNIT ( $, .METRE. ) );
#25 = VERTEX_POINT ( 'NONE', #78 ) ;
#26 = AXIS2_PLACEMENT_3D ( 'NONE', #188, #63, #101 ) ;
#27 = ORIENTED_EDGE ( 'NONE', *, *, #169, .T. ) ;
#28 = EDGE_CURVE ( 'NONE', #196, #109, #204, .T. ) ;
#29 = VERTEX_POINT ( 'NONE', #151 ) ;
#30 = ORIENTED_EDGE ( 'NONE', *, *, #173, .F. ) ;
#31 = AXIS2_PLACEMENT_3D ( 'NONE', #239, #71, #6 ) ;
#32 = DIRECTION ( 'NONE',  ( 0.0000000000000000000, 0.0000000000000000000, 1.000000000000000000 ) ) ;
#33 = EDGE_CURVE ( 'NONE', #89, #196, #126, .T. ) ;
#34 = EDGE_LOOP ( 'NONE', ( #199, #220, #4, #161 ) ) ;
#35 = SURFACE_STYLE_FILL_AREA ( #228 ) ;
#36 = VERTEX_POINT ( 'NONE', #95 ) ;
#37 = PLANE ( 'NONE',  #15 ) ;
#38 = VECTOR ( 'NONE', #91, 39.37007874015748854 ) ;
#39 = PRODUCT_DEFINITION_FORMATION_WITH_SPECIFIED_SOURCE ( 'ANY', '', #93, .NOT_KNOWN. ) ;
#40 = CARTESIAN_POINT ( 'NONE',  ( 0.2362204999999999999, 2.892866792179872647E-17, 3.252717000000002301 ) ) ;
#41 = PRESENTATION_STYLE_ASSIGNMENT (( #10 ) ) ;
#42 = DIRECTION ( 'NONE',  ( 0.0000000000000000000, 0.0000000000000000000, 1.000000000000000000 ) ) ;
#43 =( NAMED_UNIT ( * ) SI_UNIT ( $, .STERADIAN. ) SOLID_ANGLE_UNIT ( ) );
#44 = DIRECTION ( 'NONE',  ( 1.000000000000000000, 0.0000000000000000000, 0.0000000000000000000 ) ) ;
#45 = CIRCLE ( 'NONE', #58, 0.2212205000000019295 ) ;
#46 = AXIS2_PLACEMENT_3D ( 'NONE', #208, #84, #156 ) ;
#47 = LENGTH_MEASURE_WITH_UNIT ( LENGTH_MEASURE( 0.02539999999999999897 ), #249 );
#48 = EDGE_LOOP ( 'NONE', ( #30, #219, #181, #54 ) ) ;
#49 = DIMENSIONAL_EXPONENTS ( 1.000000000000000000, 0.0000000000000000000, 0.0000000000000000000, 0.0000000000000000000, 0.0000000000000000000, 0.0000000000000000000, 0.0000000000000000000 ) ;
#50 = DIRECTION ( 'NONE',  ( -0.7071067811865474617, 0.0000000000000000000, -0.7071067811865474617 ) ) ;
#51 =( CONVERSION_BASED_UNIT ( 'INCH', #68 ) LENGTH_UNIT ( ) NAMED_UNIT ( #142 ) );
#52 = EDGE_CURVE ( 'NONE', #109, #36, #57, .T. ) ;
#53 = AXIS2_PLACEMENT_3D ( 'NONE', #146, #55, #168 ) ;
#54 = ORIENTED_EDGE ( 'NONE', *, *, #209, .F. ) ;
#55 = DIRECTION ( 'NONE',  ( -0.0000000000000000000, -0.0000000000000000000, -1.000000000000000000 ) ) ;
#56 = FACE_OUTER_BOUND ( 'NONE', #103, .T. ) ;
#57 = LINE ( 'NONE', #183, #194 ) ;
#58 = AXIS2_PLACEMENT_3D ( 'NONE', #141, #124, #44 ) ;
#59 = PRESENTATION_STYLE_ASSIGNMENT (( #14 ) ) ;
#60 = FILL_AREA_STYLE ('',( #226 ) ) ;
#61 = LINE ( 'NONE', #210, #238 ) ;
#62 = VECTOR ( 'NONE', #50, 39.37007874015748854 ) ;
#63 = DIRECTION ( 'NONE',  ( -0.0000000000000000000, -0.0000000000000000000, -1.000000000000000000 ) ) ;
#64 =( CONVERSION_BASED_UNIT ( 'INCH', #47 ) LENGTH_UNIT ( ) NAMED_UNIT ( #234 ) );
#65 = ORIENTED_EDGE ( 'NONE', *, *, #209, .T. ) ;
#66 = CLOSED_SHELL ( 'NONE', ( #229, #3, #73, #90, #112, #162, #94, #13 ) ) ;
#67 = EDGE_LOOP ( 'NONE', ( #125, #22, #170, #198 ) ) ;
#68 = LENGTH_MEASURE_WITH_UNIT ( LENGTH_MEASURE( 0.02539999999999999897 ), #24 );
#69 = EDGE_LOOP ( 'NONE', ( #120, #143 ) ) ;
#70 = AXIS2_PLACEMENT_3D ( 'NONE', #172, #107, #185 ) ;
#71 = DIRECTION ( 'NONE',  ( 0.0000000000000000000, 0.0000000000000000000, -1.000000000000000000 ) ) ;
#72 = FACE_OUTER_BOUND ( 'NONE', #48, .T. ) ;
#73 = ADVANCED_FACE ( 'NONE', ( #74 ), #11, .T. ) ;
#74 = FACE_OUTER_BOUND ( 'NONE', #138, .T. ) ;
#75 = MECHANICAL_DESIGN_GEOMETRIC_PRESENTATION_REPRESENTATION (  '', ( #148 ), #123 ) ;
#76 = DIRECTION ( 'NONE',  ( 0.7071067811865489050, 0.0000000000000000000, 0.7071067811865461294 ) ) ;
#77 = PRESENTATION_LAYER_ASSIGNMENT (  '', '', ( #149 ) ) ;
#78 = CARTESIAN_POINT ( 'NONE',  ( -0.003936999999999995191, 1.470540568331152355E-17, 0.0000000000000000000 ) ) ;
#79 = LINE ( 'NONE', #113, #2 ) ;
#80 = AXIS2_PLACEMENT_3D ( 'NONE', #100, #247, #158 ) ;
#81 = CARTESIAN_POINT ( 'NONE',  ( 0.0000000000000000000, 0.0000000000000000000, 3.252717000000002301 ) ) ;
#82 = CARTESIAN_POINT ( 'NONE',  ( -0.2362204999999999999, 0.0000000000000000000, 3.252717000000002301 ) ) ;
#83 = PRODUCT_RELATED_PRODUCT_CATEGORY ( 'part', '', ( #93 ) ) ;
#84 = DIRECTION ( 'NONE',  ( -0.0000000000000000000, -0.0000000000000000000, -1.000000000000000000 ) ) ;
#85 = CARTESIAN_POINT ( 'NONE',  ( 0.0000000000000000000, 0.0000000000000000000, 0.0000000000000000000 ) ) ;
#86 =( GEOMETRIC_REPRESENTATION_CONTEXT ( 3 ) GLOBAL_UNCERTAINTY_ASSIGNED_CONTEXT ( ( #245 ) ) GLOBAL_UNIT_ASSIGNED_CONTEXT ( ( #64, #178, #43 ) ) REPRESENTATION_CONTEXT ( 'NONE', 'WORKASPACE' ) );
#87 = CARTESIAN_POINT ( 'NONE',  ( 0.2362204999999999999, 2.892866792179872647E-17, 0.2322834999999990879 ) ) ;
#88 = CIRCLE ( 'NONE', #186, 0.2362204999999999999 ) ;
#89 = VERTEX_POINT ( 'NONE', #127 ) ;
#90 = ADVANCED_FACE ( 'NONE', ( #72 ), #201, .T. ) ;
#91 = DIRECTION ( 'NONE',  ( 0.7071067811865474617, 8.659560562354932858E-17, -0.7071067811865474617 ) ) ;
#92 = DIRECTION ( 'NONE',  ( -0.0000000000000000000, -0.0000000000000000000, -1.000000000000000000 ) ) ;
#93 = PRODUCT ( 'Micro_RNCM-120-1X', 'Micro_RNCM-120-1X', '', ( #230 ) ) ;
#94 = ADVANCED_FACE ( 'NONE', ( #56 ), #175, .T. ) ;
#95 = CARTESIAN_POINT ( 'NONE',  ( -0.2362204999999999999, 0.0000000000000000000, 0.2322834999999990879 ) ) ;
#96 = CARTESIAN_POINT ( 'NONE',  ( 0.0000000000000000000, 0.0000000000000000000, 3.267717000000000649 ) ) ;
#97 =( NAMED_UNIT ( * ) SI_UNIT ( $, .STERADIAN. ) SOLID_ANGLE_UNIT ( ) );
#98 = CONICAL_SURFACE ( 'NONE', #104, 0.2212205000000019295, 0.7853981633974482790 ) ;
#99 = APPLICATION_CONTEXT ( 'automotive_design' ) ;
#100 = CARTESIAN_POINT ( 'NONE',  ( 0.0000000000000000000, 0.0000000000000000000, 0.2322834999999990879 ) ) ;
#101 = DIRECTION ( 'NONE',  ( -1.000000000000000000, 0.0000000000000000000, 0.0000000000000000000 ) ) ;
#102 = ORIENTED_EDGE ( 'NONE', *, *, #28, .F. ) ;
#103 = EDGE_LOOP ( 'NONE', ( #147, #203, #235, #65 ) ) ;
#104 = AXIS2_PLACEMENT_3D ( 'NONE', #174, #155, #191 ) ;
#105 = ORIENTED_EDGE ( 'NONE', *, *, #217, .T. ) ;
#106 = DIRECTION ( 'NONE',  ( 1.000000000000000000, 0.0000000000000000000, 0.0000000000000000000 ) ) ;
#107 = DIRECTION ( 'NONE',  ( 0.0000000000000000000, 0.0000000000000000000, -1.000000000000000000 ) ) ;
#108 = SURFACE_SIDE_STYLE ('',( #35 ) ) ;
#109 = VERTEX_POINT ( 'NONE', #82 ) ;
#110 = CARTESIAN_POINT ( 'NONE',  ( -0.2212205000000019295, 0.0000000000000000000, 3.267717000000000649 ) ) ;
#111 =( CONVERSION_BASED_UNIT ( 'INCH', #176 ) LENGTH_UNIT ( ) NAMED_UNIT ( #49 ) );
#112 = ADVANCED_FACE ( 'NONE', ( #114 ), #37, .T. ) ;
#113 = CARTESIAN_POINT ( 'NONE',  ( -0.003936999999999995191, 4.821434448243123477E-19, 0.0000000000000000000 ) ) ;
#114 = FACE_OUTER_BOUND ( 'NONE', #69, .T. ) ;
#115 = EDGE_CURVE ( 'NONE', #89, #184, #179, .T. ) ;
#116 = DIRECTION ( 'NONE',  ( 0.0000000000000000000, 0.0000000000000000000, 1.000000000000000000 ) ) ;
#117 = LINE ( 'NONE', #160, #62 ) ;
#118 = CONICAL_SURFACE ( 'NONE', #5, 0.003936999999999995191, 0.7853981633974502774 ) ;
#119 = SHAPE_DEFINITION_REPRESENTATION ( #121, #243 ) ;
#120 = ORIENTED_EDGE ( 'NONE', *, *, #236, .T. ) ;
#121 = PRODUCT_DEFINITION_SHAPE ( 'NONE', 'NONE',  #180 ) ;
#122 = EDGE_CURVE ( 'NONE', #36, #231, #20, .T. ) ;
#123 =( GEOMETRIC_REPRESENTATION_CONTEXT ( 3 ) GLOBAL_UNCERTAINTY_ASSIGNED_CONTEXT ( ( #224 ) ) GLOBAL_UNIT_ASSIGNED_CONTEXT ( ( #111, #132, #244 ) ) REPRESENTATION_CONTEXT ( 'NONE', 'WORKASPACE' ) );
#124 = DIRECTION ( 'NONE',  ( 0.0000000000000000000, 0.0000000000000000000, 1.000000000000000000 ) ) ;
#125 = ORIENTED_EDGE ( 'NONE', *, *, #217, .F. ) ;
#126 = LINE ( 'NONE', #167, #38 ) ;
#127 = CARTESIAN_POINT ( 'NONE',  ( 0.2212205000000019295, 2.801018282243833685E-17, 3.267717000000000649 ) ) ;
#128 = AXIS2_PLACEMENT_3D ( 'NONE', #129, #32, #106 ) ;
#129 = CARTESIAN_POINT ( 'NONE',  ( 0.0000000000000000000, 0.0000000000000000000, 0.0000000000000000000 ) ) ;
#130 = DIRECTION ( 'NONE',  ( -0.0000000000000000000, -0.0000000000000000000, -1.000000000000000000 ) ) ;
#131 = COLOUR_RGB ( '',0.7921568627450980005, 0.8196078431372548767, 0.9333333333333333481 ) ;
#132 =( NAMED_UNIT ( * ) PLANE_ANGLE_UNIT ( ) SI_UNIT ( $, .RADIAN. ) );
#133 = UNCERTAINTY_MEASURE_WITH_UNIT (LENGTH_MEASURE( 1.000000000000000082E-05 ), #51, 'distance_accuracy_value', 'NONE');
#134 = CIRCLE ( 'NONE', #80, 0.2362204999999999999 ) ;
#135 = SURFACE_SIDE_STYLE ('',( #206 ) ) ;
#136 = EDGE_CURVE ( 'NONE', #25, #36, #79, .T. ) ;
#137 = FACE_OUTER_BOUND ( 'NONE', #67, .T. ) ;
#138 = EDGE_LOOP ( 'NONE', ( #150, #140, #214, #165 ) ) ;
#139 = CONICAL_SURFACE ( 'NONE', #70, 0.2212205000000019295, 0.7853981633974482790 ) ;
#140 = ORIENTED_EDGE ( 'NONE', *, *, #173, .T. ) ;
#141 = CARTESIAN_POINT ( 'NONE',  ( 0.0000000000000000000, 0.0000000000000000000, 3.267717000000000649 ) ) ;
#142 = DIMENSIONAL_EXPONENTS ( 1.000000000000000000, 0.0000000000000000000, 0.0000000000000000000, 0.0000000000000000000, 0.0000000000000000000, 0.0000000000000000000, 0.0000000000000000000 ) ;
#143 = ORIENTED_EDGE ( 'NONE', *, *, #115, .T. ) ;
#144 = EDGE_CURVE ( 'NONE', #109, #196, #88, .T. ) ;
#145 = ORIENTED_EDGE ( 'NONE', *, *, #33, .F. ) ;
#146 = CARTESIAN_POINT ( 'NONE',  ( 0.0000000000000000000, 0.0000000000000000000, 3.267717000000000649 ) ) ;
#147 = ORIENTED_EDGE ( 'NONE', *, *, #136, .F. ) ;
#148 = STYLED_ITEM ( 'NONE', ( #59 ), #164 ) ;
#149 = STYLED_ITEM ( 'NONE', ( #41 ), #243 ) ;
#150 = ORIENTED_EDGE ( 'NONE', *, *, #144, .T. ) ;
#151 = CARTESIAN_POINT ( 'NONE',  ( 0.003936999999999995191, 0.0000000000000000000, 0.0000000000000000000 ) ) ;
#152 = FACE_OUTER_BOUND ( 'NONE', #171, .T. ) ;
#153 = DIRECTION ( 'NONE',  ( 1.000000000000000000, 0.0000000000000000000, 0.0000000000000000000 ) ) ;
#154 = APPLICATION_PROTOCOL_DEFINITION ( 'draft international standard', 'automotive_design', 1998, #192 ) ;
#155 = DIRECTION ( 'NONE',  ( 0.0000000000000000000, 0.0000000000000000000, -1.000000000000000000 ) ) ;
#156 = DIRECTION ( 'NONE',  ( -1.000000000000000000, 0.0000000000000000000, 0.0000000000000000000 ) ) ;
#157 = FILL_AREA_STYLE_COLOUR ( '', #131 ) ;
#158 = DIRECTION ( 'NONE',  ( -1.000000000000000000, 0.0000000000000000000, 0.0000000000000000000 ) ) ;
#159 = DIRECTION ( 'NONE',  ( 1.000000000000000000, 0.0000000000000000000, 0.0000000000000000000 ) ) ;
#160 = CARTESIAN_POINT ( 'NONE',  ( -0.2212205000000019295, 0.0000000000000000000, 3.267717000000000649 ) ) ;
#161 = ORIENTED_EDGE ( 'NONE', *, *, #246, .F. ) ;
#162 = ADVANCED_FACE ( 'NONE', ( #152 ), #98, .T. ) ;
#163 = COLOUR_RGB ( '',0.7921568627450980005, 0.8196078431372548767, 0.9333333333333333481 ) ;
#164 = MANIFOLD_SOLID_BREP ( 'Cut-Revolve1', #66 ) ;
#165 = ORIENTED_EDGE ( 'NONE', *, *, #52, .F. ) ;
#166 = AXIS2_PLACEMENT_3D ( 'NONE', #7, #130, #237 ) ;
#167 = CARTESIAN_POINT ( 'NONE',  ( 0.2212205000000019295, 2.709169772307794108E-17, 3.267717000000000649 ) ) ;
#168 = DIRECTION ( 'NONE',  ( -1.000000000000000000, 0.0000000000000000000, 0.0000000000000000000 ) ) ;
#169 = EDGE_CURVE ( 'NONE', #29, #25, #197, .T. ) ;
#170 = ORIENTED_EDGE ( 'NONE', *, *, #122, .T. ) ;
#171 = EDGE_LOOP ( 'NONE', ( #145, #21, #233, #102 ) ) ;
#172 = CARTESIAN_POINT ( 'NONE',  ( 0.0000000000000000000, 0.0000000000000000000, 3.267717000000000649 ) ) ;
#173 = EDGE_CURVE ( 'NONE', #196, #231, #61, .T. ) ;
#174 = CARTESIAN_POINT ( 'NONE',  ( 0.0000000000000000000, 0.0000000000000000000, 3.267717000000000649 ) ) ;
#175 = CONICAL_SURFACE ( 'NONE', #128, 0.003936999999999995191, 0.7853981633974502774 ) ;
#176 = LENGTH_MEASURE_WITH_UNIT ( LENGTH_MEASURE( 0.02539999999999999897 ), #177 );
#177 =( LENGTH_UNIT ( ) NAMED_UNIT ( * ) SI_UNIT ( $, .METRE. ) );
#178 =( NAMED_UNIT ( * ) PLANE_ANGLE_UNIT ( ) SI_UNIT ( $, .RADIAN. ) );
#179 = CIRCLE ( 'NONE', #215, 0.2212205000000019295 ) ;
#180 = PRODUCT_DEFINITION ( 'UNKNOWN', '', #39, #17 ) ;
#181 = ORIENTED_EDGE ( 'NONE', *, *, #52, .T. ) ;
#182 = FACE_OUTER_BOUND ( 'NONE', #34, .T. ) ;
#183 = CARTESIAN_POINT ( 'NONE',  ( -0.2362204999999999999, 0.0000000000000000000, 3.267717000000000649 ) ) ;
#184 = VERTEX_POINT ( 'NONE', #110 ) ;
#185 = DIRECTION ( 'NONE',  ( -1.000000000000000000, 0.0000000000000000000, 0.0000000000000000000 ) ) ;
#186 = AXIS2_PLACEMENT_3D ( 'NONE', #81, #223, #189 ) ;
#187 = DIRECTION ( 'NONE',  ( 0.0000000000000000000, 0.0000000000000000000, 1.000000000000000000 ) ) ;
#188 = CARTESIAN_POINT ( 'NONE',  ( 0.0000000000000000000, 0.0000000000000000000, 0.0000000000000000000 ) ) ;
#189 = DIRECTION ( 'NONE',  ( 1.000000000000000000, 0.0000000000000000000, 0.0000000000000000000 ) ) ;
#190 = DIRECTION ( 'NONE',  ( 0.0000000000000000000, 0.0000000000000000000, 1.000000000000000000 ) ) ;
#191 = DIRECTION ( 'NONE',  ( -1.000000000000000000, 0.0000000000000000000, 0.0000000000000000000 ) ) ;
#192 = APPLICATION_CONTEXT ( 'automotive_design' ) ;
#193 = DIRECTION ( 'NONE',  ( 1.000000000000000000, 0.0000000000000000000, -0.0000000000000000000 ) ) ;
#194 = VECTOR ( 'NONE', #92, 39.37007874015748143 ) ;
#195 = EDGE_LOOP ( 'NONE', ( #27, #105 ) ) ;
#196 = VERTEX_POINT ( 'NONE', #40 ) ;
#197 = CIRCLE ( 'NONE', #46, 0.003936999999999995191 ) ;
#198 = ORIENTED_EDGE ( 'NONE', *, *, #1, .F. ) ;
#199 = ORIENTED_EDGE ( 'NONE', *, *, #115, .F. ) ;
#200 = AXIS2_PLACEMENT_3D ( 'NONE', #207, #18, #19 ) ;
#201 = CYLINDRICAL_SURFACE ( 'NONE', #53, 0.2362204999999999999 ) ;
#202 = CARTESIAN_POINT ( 'NONE',  ( 0.003936999999999995191, 0.0000000000000000000, 0.0000000000000000000 ) ) ;
#203 = ORIENTED_EDGE ( 'NONE', *, *, #169, .F. ) ;
#204 = CIRCLE ( 'NONE', #31, 0.2362204999999999999 ) ;
#205 = MECHANICAL_DESIGN_GEOMETRIC_PRESENTATION_REPRESENTATION (  '', ( #149 ), #86 ) ;
#206 = SURFACE_STYLE_FILL_AREA ( #60 ) ;
#207 = CARTESIAN_POINT ( 'NONE',  ( 0.0000000000000000000, 0.0000000000000000000, 0.2322834999999990879 ) ) ;
#208 = CARTESIAN_POINT ( 'NONE',  ( 0.0000000000000000000, 0.0000000000000000000, 0.0000000000000000000 ) ) ;
#209 = EDGE_CURVE ( 'NONE', #231, #36, #134, .T. ) ;
#210 = CARTESIAN_POINT ( 'NONE',  ( 0.2362204999999999999, 2.892866792179872647E-17, 3.267717000000000649 ) ) ;
#211 = CARTESIAN_POINT ( 'NONE',  ( 0.0000000000000000000, 0.0000000000000000000, 0.0000000000000000000 ) ) ;
#212 = VECTOR ( 'NONE', #76, 39.37007874015748143 ) ;
#213 = APPLICATION_PROTOCOL_DEFINITION ( 'draft international standard', 'automotive_design', 1998, #99 ) ;
#214 = ORIENTED_EDGE ( 'NONE', *, *, #122, .F. ) ;
#215 = AXIS2_PLACEMENT_3D ( 'NONE', #96, #242, #153 ) ;
#216 = CARTESIAN_POINT ( 'NONE',  ( 0.0000000000000000000, 0.0000000000000000000, 0.0000000000000000000 ) ) ;
#217 = EDGE_CURVE ( 'NONE', #25, #29, #227, .T. ) ;
#218 = LINE ( 'NONE', #202, #212 ) ;
#219 = ORIENTED_EDGE ( 'NONE', *, *, #28, .T. ) ;
#220 = ORIENTED_EDGE ( 'NONE', *, *, #33, .T. ) ;
#221 = CARTESIAN_POINT ( 'NONE',  ( 0.0000000000000000000, 0.0000000000000000000, 3.267717000000000649 ) ) ;
#222 = PRESENTATION_LAYER_ASSIGNMENT (  '', '', ( #148 ) ) ;
#223 = DIRECTION ( 'NONE',  ( 0.0000000000000000000, 0.0000000000000000000, -1.000000000000000000 ) ) ;
#224 = UNCERTAINTY_MEASURE_WITH_UNIT (LENGTH_MEASURE( 1.000000000000000082E-05 ), #111, 'distance_accuracy_value', 'NONE');
#225 =( NAMED_UNIT ( * ) PLANE_ANGLE_UNIT ( ) SI_UNIT ( $, .RADIAN. ) );
#226 = FILL_AREA_STYLE_COLOUR ( '', #163 ) ;
#227 = CIRCLE ( 'NONE', #26, 0.003936999999999995191 ) ;
#228 = FILL_AREA_STYLE ('',( #157 ) ) ;
#229 = ADVANCED_FACE ( 'NONE', ( #137 ), #118, .T. ) ;
#230 = PRODUCT_CONTEXT ( 'NONE', #192, 'mechanical' ) ;
#231 = VERTEX_POINT ( 'NONE', #87 ) ;
#232 = AXIS2_PLACEMENT_3D ( 'NONE', #216, #187, #8 ) ;
#233 = ORIENTED_EDGE ( 'NONE', *, *, #246, .T. ) ;
#234 = DIMENSIONAL_EXPONENTS ( 1.000000000000000000, 0.0000000000000000000, 0.0000000000000000000, 0.0000000000000000000, 0.0000000000000000000, 0.0000000000000000000, 0.0000000000000000000 ) ;
#235 = ORIENTED_EDGE ( 'NONE', *, *, #1, .T. ) ;
#236 = EDGE_CURVE ( 'NONE', #184, #89, #45, .T. ) ;
#237 = DIRECTION ( 'NONE',  ( -1.000000000000000000, 0.0000000000000000000, 0.0000000000000000000 ) ) ;
#238 = VECTOR ( 'NONE', #12, 39.37007874015748143 ) ;
#239 = CARTESIAN_POINT ( 'NONE',  ( 0.0000000000000000000, 0.0000000000000000000, 3.252717000000002301 ) ) ;
#240 = PLANE ( 'NONE',  #232 ) ;
#241 = DIRECTION ( 'NONE',  ( 1.000000000000000000, 0.0000000000000000000, 0.0000000000000000000 ) ) ;
#242 = DIRECTION ( 'NONE',  ( 0.0000000000000000000, 0.0000000000000000000, 1.000000000000000000 ) ) ;
#243 = ADVANCED_BREP_SHAPE_REPRESENTATION ( 'Micro_RNCM-120-1X', ( #164, #23 ), #248 ) ;
#244 =( NAMED_UNIT ( * ) SI_UNIT ( $, .STERADIAN. ) SOLID_ANGLE_UNIT ( ) );
#245 = UNCERTAINTY_MEASURE_WITH_UNIT (LENGTH_MEASURE( 1.000000000000000082E-05 ), #64, 'distance_accuracy_value', 'NONE');
#246 = EDGE_CURVE ( 'NONE', #184, #109, #117, .T. ) ;
#247 = DIRECTION ( 'NONE',  ( -0.0000000000000000000, -0.0000000000000000000, -1.000000000000000000 ) ) ;
#248 =( GEOMETRIC_REPRESENTATION_CONTEXT ( 3 ) GLOBAL_UNCERTAINTY_ASSIGNED_CONTEXT ( ( #133 ) ) GLOBAL_UNIT_ASSIGNED_CONTEXT ( ( #51, #225, #97 ) ) REPRESENTATION_CONTEXT ( 'NONE', 'WORKASPACE' ) );
#249 =( LENGTH_UNIT ( ) NAMED_UNIT ( * ) SI_UNIT ( $, .METRE. ) );
ENDSEC;
END-ISO-10303-21;
