ISO-10303-21;
HEADER;
FILE_DESCRIPTION (( 'STEP AP214' ),
    '1' );
FILE_NAME ('83836.STEP',
    '2023-07-05T16:15:34',
    ( '' ),
    ( '' ),
    'SwSTEP 2.0',
    'SolidWorks 2023',
    '' );
FILE_SCHEMA (( 'AUTOMOTIVE_DESIGN' ));
ENDSEC;

DATA;
#1 = PRODUCT_CONTEXT ( 'NONE', #10, 'mechanical' ) ;
#2 = FILL_AREA_STYLE_COLOUR ( '', #77 ) ;
#3 = ORIENTED_EDGE ( 'NONE', *, *, #244, .T. ) ;
#4 =( GEOMETRIC_REPRESENTATION_CONTEXT ( 3 ) GLOBAL_UNCERTAINTY_ASSIGNED_CONTEXT ( ( #220 ) ) GLOBAL_UNIT_ASSIGNED_CONTEXT ( ( #212, #109, #188 ) ) REPRESENTATION_CONTEXT ( 'NONE', 'WORKASPACE' ) );
#5 = ORIENTED_EDGE ( 'NONE', *, *, #260, .F. ) ;
#6 = CIRCLE ( 'NONE', #78, 0.06249999999999995143 ) ;
#7 = FILL_AREA_STYLE_COLOUR ( '', #161 ) ;
#8 = MANIFOLD_SOLID_BREP ( 'Revolve - Cutting Edge', #9 ) ;
#9 = CLOSED_SHELL ( 'NONE', ( #135, #84, #165 ) ) ;
#10 = APPLICATION_CONTEXT ( 'automotive_design' ) ;
#11 = SHAPE_DEFINITION_REPRESENTATION ( #166, #145 ) ;
#12 = AXIS2_PLACEMENT_3D ( 'NONE', #232, #176, #127 ) ;
#13 = ORIENTED_EDGE ( 'NONE', *, *, #189, .F. ) ;
#14 = ORIENTED_EDGE ( 'NONE', *, *, #260, .T. ) ;
#15 = SURFACE_STYLE_USAGE ( .BOTH. , #259 ) ;
#16 = PRESENTATION_LAYER_ASSIGNMENT (  '', '', ( #228 ) ) ;
#17 = LENGTH_MEASURE_WITH_UNIT ( LENGTH_MEASURE( 0.02539999999999999897 ), #150 );
#18 = VERTEX_POINT ( 'NONE', #126 ) ;
#19 = VERTEX_POINT ( 'NONE', #234 ) ;
#20 = SURFACE_SIDE_STYLE ('',( #230 ) ) ;
#21 = DIMENSIONAL_EXPONENTS ( 1.000000000000000000, 0.000000000000000000, 0.000000000000000000, 0.000000000000000000, 0.000000000000000000, 0.000000000000000000, 0.000000000000000000 ) ;
#22 = APPLICATION_CONTEXT ( 'automotive_design' ) ;
#23 = DIRECTION ( 'NONE',  ( -7.270185627024802106E-18, -1.000000000000000000, -0.000000000000000000 ) ) ;
#24 = UNCERTAINTY_MEASURE_WITH_UNIT (LENGTH_MEASURE( 1.000000000000000082E-05 ), #151, 'distance_accuracy_value', 'NONE');
#25 =( GEOMETRIC_REPRESENTATION_CONTEXT ( 3 ) GLOBAL_UNCERTAINTY_ASSIGNED_CONTEXT ( ( #131 ) ) GLOBAL_UNIT_ASSIGNED_CONTEXT ( ( #136, #71, #139 ) ) REPRESENTATION_CONTEXT ( 'NONE', 'WORKASPACE' ) );
#26 = CARTESIAN_POINT ( 'NONE',  ( 0.000000000000000000, 0.000000000000000000, 0.000000000000000000 ) ) ;
#27 = EDGE_LOOP ( 'NONE', ( #14, #162, #37, #200 ) ) ;
#28 = CARTESIAN_POINT ( 'NONE',  ( 0.06249999999999993061, 0.1082531754730544776, 7.654042494670922108E-18 ) ) ;
#29 = DIMENSIONAL_EXPONENTS ( 1.000000000000000000, 0.000000000000000000, 0.000000000000000000, 0.000000000000000000, 0.000000000000000000, 0.000000000000000000, 0.000000000000000000 ) ;
#30 = DIRECTION ( 'NONE',  ( -1.225722335412652647E-16, 1.000000000000000000, -0.000000000000000000 ) ) ;
#31 = SURFACE_STYLE_FILL_AREA ( #87 ) ;
#32 = STYLED_ITEM ( 'NONE', ( #118 ), #84 ) ;
#33 = ADVANCED_FACE ( 'NONE', ( #211 ), #183, .F. ) ;
#34 = AXIS2_PLACEMENT_3D ( 'NONE', #242, #196, #72 ) ;
#35 = SURFACE_STYLE_FILL_AREA ( #218 ) ;
#36 = CARTESIAN_POINT ( 'NONE',  ( -0.06249999999999948652, 1.500000000000000222, 0.000000000000000000 ) ) ;
#37 = ORIENTED_EDGE ( 'NONE', *, *, #133, .F. ) ;
#38 = ORIENTED_EDGE ( 'NONE', *, *, #106, .F. ) ;
#39 = LENGTH_MEASURE_WITH_UNIT ( LENGTH_MEASURE( 0.02539999999999999897 ), #185 );
#40 =( GEOMETRIC_REPRESENTATION_CONTEXT ( 3 ) GLOBAL_UNCERTAINTY_ASSIGNED_CONTEXT ( ( #24 ) ) GLOBAL_UNIT_ASSIGNED_CONTEXT ( ( #151, #90, #63 ) ) REPRESENTATION_CONTEXT ( 'NONE', 'WORKASPACE' ) );
#41 = FILL_AREA_STYLE_COLOUR ( '', #175 ) ;
#42 = DIRECTION ( 'NONE',  ( -1.000000000000000000, 0.000000000000000000, 0.000000000000000000 ) ) ;
#43 = CLOSED_SHELL ( 'NONE', ( #203, #33, #158, #52 ) ) ;
#44 = DIRECTION ( 'NONE',  ( -1.000000000000000000, 0.000000000000000000, 0.000000000000000000 ) ) ;
#45 = ORIENTED_EDGE ( 'NONE', *, *, #152, .F. ) ;
#46 = DIRECTION ( 'NONE',  ( -1.225722335412652647E-16, 1.000000000000000000, -0.000000000000000000 ) ) ;
#47 = EDGE_CURVE ( 'NONE', #112, #182, #66, .T. ) ;
#48 = MECHANICAL_DESIGN_GEOMETRIC_PRESENTATION_REPRESENTATION (  '', ( #228 ), #4 ) ;
#49 = PRESENTATION_STYLE_ASSIGNMENT (( #208 ) ) ;
#50 = PRESENTATION_STYLE_ASSIGNMENT (( #263 ) ) ;
#51 = CARTESIAN_POINT ( 'NONE',  ( -0.06249999999999922978, 0.1082531754730544776, 0.000000000000000000 ) ) ;
#52 = ADVANCED_FACE ( 'NONE', ( #129 ), #110, .F. ) ;
#53 = PRESENTATION_LAYER_ASSIGNMENT (  '', '', ( #221 ) ) ;
#54 = ORIENTED_EDGE ( 'NONE', *, *, #152, .T. ) ;
#55 = DIRECTION ( 'NONE',  ( -1.225722335412652647E-16, 1.000000000000000000, -0.000000000000000000 ) ) ;
#56 =( NAMED_UNIT ( * ) PLANE_ANGLE_UNIT ( ) SI_UNIT ( $, .RADIAN. ) );
#57 = AXIS2_PLACEMENT_3D ( 'NONE', #65, #237, #44 ) ;
#58 =( LENGTH_UNIT ( ) NAMED_UNIT ( * ) SI_UNIT ( $, .METRE. ) );
#59 = ORIENTED_EDGE ( 'NONE', *, *, #244, .F. ) ;
#60 = PRESENTATION_LAYER_ASSIGNMENT (  '', '', ( #68 ) ) ;
#61 =( GEOMETRIC_REPRESENTATION_CONTEXT ( 3 ) GLOBAL_UNCERTAINTY_ASSIGNED_CONTEXT ( ( #195 ) ) GLOBAL_UNIT_ASSIGNED_CONTEXT ( ( #97, #149, #119 ) ) REPRESENTATION_CONTEXT ( 'NONE', 'WORKASPACE' ) );
#62 =( NAMED_UNIT ( * ) SI_UNIT ( $, .STERADIAN. ) SOLID_ANGLE_UNIT ( ) );
#63 =( NAMED_UNIT ( * ) SI_UNIT ( $, .STERADIAN. ) SOLID_ANGLE_UNIT ( ) );
#64 = PRODUCT_DEFINITION_CONTEXT ( 'detailed design', #22, 'design' ) ;
#65 = CARTESIAN_POINT ( 'NONE',  ( 1.836970198721030181E-16, 1.500000000000000222, 0.000000000000000000 ) ) ;
#66 = CIRCLE ( 'NONE', #57, 0.06249999999999975714 ) ;
#67 =( LENGTH_UNIT ( ) NAMED_UNIT ( * ) SI_UNIT ( $, .METRE. ) );
#68 = STYLED_ITEM ( 'NONE', ( #50 ), #94 ) ;
#69 = FILL_AREA_STYLE_COLOUR ( '', #122 ) ;
#70 = EDGE_CURVE ( 'NONE', #115, #182, #138, .T. ) ;
#71 =( NAMED_UNIT ( * ) PLANE_ANGLE_UNIT ( ) SI_UNIT ( $, .RADIAN. ) );
#72 = DIRECTION ( 'NONE',  ( 1.000000000000000000, 0.000000000000000000, 0.000000000000000000 ) ) ;
#73 = EDGE_LOOP ( 'NONE', ( #38, #59 ) ) ;
#74 = ORIENTED_EDGE ( 'NONE', *, *, #47, .F. ) ;
#75 = LINE ( 'NONE', #172, #153 ) ;
#76 = FILL_AREA_STYLE ('',( #2 ) ) ;
#77 = COLOUR_RGB ( '',0.7921568627450980005, 0.8196078431372548767, 0.9333333333333333481 ) ;
#78 = AXIS2_PLACEMENT_3D ( 'NONE', #80, #23, #124 ) ;
#79 = DIMENSIONAL_EXPONENTS ( 1.000000000000000000, 0.000000000000000000, 0.000000000000000000, 0.000000000000000000, 0.000000000000000000, 0.000000000000000000, 0.000000000000000000 ) ;
#80 = CARTESIAN_POINT ( 'NONE',  ( 7.870206804039943619E-19, 0.1082531754730544638, 0.000000000000000000 ) ) ;
#81 = DIRECTION ( 'NONE',  ( -1.000000000000000000, 0.000000000000000000, 0.000000000000000000 ) ) ;
#82 = LINE ( 'NONE', #168, #157 ) ;
#83 = LENGTH_MEASURE_WITH_UNIT ( LENGTH_MEASURE( 0.02539999999999999897 ), #58 );
#84 = ADVANCED_FACE ( 'NONE', ( #198 ), #134, .T. ) ;
#85 = CYLINDRICAL_SURFACE ( 'NONE', #102, 0.06249999999999967387 ) ;
#86 = DIRECTION ( 'NONE',  ( -1.225722335412652647E-16, 1.000000000000000000, 0.000000000000000000 ) ) ;
#87 = FILL_AREA_STYLE ('',( #7 ) ) ;
#88 = DIRECTION ( 'NONE',  ( -1.000000000000000000, 0.000000000000000000, 0.000000000000000000 ) ) ;
#89 = AXIS2_PLACEMENT_3D ( 'NONE', #155, #46, #214 ) ;
#90 =( NAMED_UNIT ( * ) PLANE_ANGLE_UNIT ( ) SI_UNIT ( $, .RADIAN. ) );
#91 = AXIS2_PLACEMENT_3D ( 'NONE', #130, #30, #258 ) ;
#92 = SURFACE_STYLE_FILL_AREA ( #202 ) ;
#93 = SURFACE_SIDE_STYLE ('',( #249 ) ) ;
#94 = MANIFOLD_SOLID_BREP ( 'Revolve - Tool Body (Pointed)', #43 ) ;
#95 =( LENGTH_UNIT ( ) NAMED_UNIT ( * ) SI_UNIT ( $, .METRE. ) );
#96 =( GEOMETRIC_REPRESENTATION_CONTEXT ( 3 ) GLOBAL_UNCERTAINTY_ASSIGNED_CONTEXT ( ( #254 ) ) GLOBAL_UNIT_ASSIGNED_CONTEXT ( ( #167, #56, #62 ) ) REPRESENTATION_CONTEXT ( 'NONE', 'WORKASPACE' ) );
#97 =( CONVERSION_BASED_UNIT ( 'INCH', #17 ) LENGTH_UNIT ( ) NAMED_UNIT ( #21 ) );
#98 = AXIS2_PLACEMENT_3D ( 'NONE', #26, #235, #108 ) ;
#99 = EDGE_LOOP ( 'NONE', ( #13, #264, #197 ) ) ;
#100 = ORIENTED_EDGE ( 'NONE', *, *, #70, .T. ) ;
#101 = PRODUCT_DEFINITION ( 'UNKNOWN', '', #154, #64 ) ;
#102 = AXIS2_PLACEMENT_3D ( 'NONE', #125, #147, #42 ) ;
#103 = FACE_OUTER_BOUND ( 'NONE', #27, .T. ) ;
#104 = CARTESIAN_POINT ( 'NONE',  ( 3.542865366783341331E-16, 0.1082531754730544776, 0.000000000000000000 ) ) ;
#105 = FILL_AREA_STYLE ('',( #41 ) ) ;
#106 = EDGE_CURVE ( 'NONE', #229, #18, #178, .T. ) ;
#107 = AXIS2_PLACEMENT_3D ( 'NONE', #215, #207, #81 ) ;
#108 = DIRECTION ( 'NONE',  ( 1.000000000000000000, 0.000000000000000000, 0.000000000000000000 ) ) ;
#109 =( NAMED_UNIT ( * ) PLANE_ANGLE_UNIT ( ) SI_UNIT ( $, .RADIAN. ) );
#110 = PLANE ( 'NONE',  #222 ) ;
#111 = CYLINDRICAL_SURFACE ( 'NONE', #89, 0.06249999999999967387 ) ;
#112 = VERTEX_POINT ( 'NONE', #262 ) ;
#113 = AXIS2_PLACEMENT_3D ( 'NONE', #104, #252, #209 ) ;
#114 = CARTESIAN_POINT ( 'NONE',  ( 1.836970198721030181E-16, 1.500000000000000222, 0.000000000000000000 ) ) ;
#115 = VERTEX_POINT ( 'NONE', #51 ) ;
#116 =( NAMED_UNIT ( * ) SI_UNIT ( $, .STERADIAN. ) SOLID_ANGLE_UNIT ( ) );
#117 = ORIENTED_EDGE ( 'NONE', *, *, #133, .T. ) ;
#118 = PRESENTATION_STYLE_ASSIGNMENT (( #15 ) ) ;
#119 =( NAMED_UNIT ( * ) SI_UNIT ( $, .STERADIAN. ) SOLID_ANGLE_UNIT ( ) );
#120 = VECTOR ( 'NONE', #227, 39.37007874015748143 ) ;
#121 = LINE ( 'NONE', #206, #120 ) ;
#122 = COLOUR_RGB ( '',1.000000000000000000, 0.000000000000000000, 0.000000000000000000 ) ;
#123 = DIMENSIONAL_EXPONENTS ( 1.000000000000000000, 0.000000000000000000, 0.000000000000000000, 0.000000000000000000, 0.000000000000000000, 0.000000000000000000, 0.000000000000000000 ) ;
#124 = DIRECTION ( 'NONE',  ( 1.000000000000000000, 0.000000000000000000, 0.000000000000000000 ) ) ;
#125 = CARTESIAN_POINT ( 'NONE',  ( 1.836970198721030181E-16, 1.500000000000000222, 0.000000000000000000 ) ) ;
#126 = CARTESIAN_POINT ( 'NONE',  ( 0.06249999999999993061, 0.1082531754730544638, 7.654042494670948300E-18 ) ) ;
#127 = DIRECTION ( 'NONE',  ( -1.000000000000000000, 0.000000000000000000, 0.000000000000000000 ) ) ;
#128 = MECHANICAL_DESIGN_GEOMETRIC_PRESENTATION_REPRESENTATION (  '', ( #248 ), #96 ) ;
#129 = FACE_OUTER_BOUND ( 'NONE', #190, .T. ) ;
#130 = CARTESIAN_POINT ( 'NONE',  ( 3.542865366783341331E-16, 0.1082531754730544776, 0.000000000000000000 ) ) ;
#131 = UNCERTAINTY_MEASURE_WITH_UNIT (LENGTH_MEASURE( 1.000000000000000082E-05 ), #136, 'distance_accuracy_value', 'NONE');
#132 = FACE_OUTER_BOUND ( 'NONE', #245, .T. ) ;
#133 = EDGE_CURVE ( 'NONE', #182, #112, #148, .T. ) ;
#134 = PLANE ( 'NONE',  #253 ) ;
#135 = ADVANCED_FACE ( 'NONE', ( #132 ), #236, .T. ) ;
#136 =( CONVERSION_BASED_UNIT ( 'INCH', #199 ) LENGTH_UNIT ( ) NAMED_UNIT ( #123 ) );
#137 = CONICAL_SURFACE ( 'NONE', #107, 22.73032555864674009, 0.5235987755982999259 ) ;
#138 = LINE ( 'NONE', #36, #184 ) ;
#139 =( NAMED_UNIT ( * ) SI_UNIT ( $, .STERADIAN. ) SOLID_ANGLE_UNIT ( ) );
#140 = DIRECTION ( 'NONE',  ( -0.5000000000000008882, 0.8660254037844380415, 0.000000000000000000 ) ) ;
#141 = VERTEX_POINT ( 'NONE', #28 ) ;
#142 = CIRCLE ( 'NONE', #113, 0.06249999999999959061 ) ;
#143 = PRESENTATION_STYLE_ASSIGNMENT (( #164 ) ) ;
#144 = DIRECTION ( 'NONE',  ( -1.225722335412652647E-16, 1.000000000000000000, -0.000000000000000000 ) ) ;
#145 = ADVANCED_BREP_SHAPE_REPRESENTATION ( '83836', ( #8, #94, #98 ), #61 ) ;
#146 = DIMENSIONAL_EXPONENTS ( 1.000000000000000000, 0.000000000000000000, 0.000000000000000000, 0.000000000000000000, 0.000000000000000000, 0.000000000000000000, 0.000000000000000000 ) ;
#147 = DIRECTION ( 'NONE',  ( -1.225722335412652647E-16, 1.000000000000000000, -0.000000000000000000 ) ) ;
#148 = CIRCLE ( 'NONE', #169, 0.06249999999999975714 ) ;
#149 =( NAMED_UNIT ( * ) PLANE_ANGLE_UNIT ( ) SI_UNIT ( $, .RADIAN. ) );
#150 =( LENGTH_UNIT ( ) NAMED_UNIT ( * ) SI_UNIT ( $, .METRE. ) );
#151 =( CONVERSION_BASED_UNIT ( 'INCH', #83 ) LENGTH_UNIT ( ) NAMED_UNIT ( #29 ) );
#152 = EDGE_CURVE ( 'NONE', #141, #115, #204, .T. ) ;
#153 = VECTOR ( 'NONE', #140, 39.37007874015748143 ) ;
#154 = PRODUCT_DEFINITION_FORMATION_WITH_SPECIFIED_SOURCE ( 'ANY', '', #251, .NOT_KNOWN. ) ;
#155 = CARTESIAN_POINT ( 'NONE',  ( 1.836970198721030181E-16, 1.500000000000000222, 0.000000000000000000 ) ) ;
#156 =( NAMED_UNIT ( * ) PLANE_ANGLE_UNIT ( ) SI_UNIT ( $, .RADIAN. ) );
#157 = VECTOR ( 'NONE', #205, 39.37007874015748143 ) ;
#158 = ADVANCED_FACE ( 'NONE', ( #238 ), #111, .T. ) ;
#159 = CARTESIAN_POINT ( 'NONE',  ( 7.870206804039943619E-19, 0.1082531754730544638, 0.000000000000000000 ) ) ;
#160 = DIRECTION ( 'NONE',  ( 1.000000000000000000, 1.225722335412652647E-16, 0.000000000000000000 ) ) ;
#161 = COLOUR_RGB ( '',1.000000000000000000, 0.000000000000000000, 0.000000000000000000 ) ;
#162 = ORIENTED_EDGE ( 'NONE', *, *, #177, .T. ) ;
#163 = ORIENTED_EDGE ( 'NONE', *, *, #226, .F. ) ;
#164 = SURFACE_STYLE_USAGE ( .BOTH. , #20 ) ;
#165 = ADVANCED_FACE ( 'NONE', ( #187 ), #137, .T. ) ;
#166 = PRODUCT_DEFINITION_SHAPE ( 'NONE', 'NONE',  #101 ) ;
#167 =( CONVERSION_BASED_UNIT ( 'INCH', #39 ) LENGTH_UNIT ( ) NAMED_UNIT ( #146 ) );
#168 = CARTESIAN_POINT ( 'NONE',  ( 0.000000000000000000, 0.000000000000000000, 0.000000000000000000 ) ) ;
#169 = AXIS2_PLACEMENT_3D ( 'NONE', #114, #144, #88 ) ;
#170 = DIMENSIONAL_EXPONENTS ( 1.000000000000000000, 0.000000000000000000, 0.000000000000000000, 0.000000000000000000, 0.000000000000000000, 0.000000000000000000, 0.000000000000000000 ) ;
#171 = ORIENTED_EDGE ( 'NONE', *, *, #189, .T. ) ;
#172 = CARTESIAN_POINT ( 'NONE',  ( 0.000000000000000000, 0.000000000000000000, 0.000000000000000000 ) ) ;
#173 = SURFACE_STYLE_USAGE ( .BOTH. , #192 ) ;
#174 = MECHANICAL_DESIGN_GEOMETRIC_PRESENTATION_REPRESENTATION (  '', ( #221 ), #40 ) ;
#175 = COLOUR_RGB ( '',1.000000000000000000, 0.000000000000000000, 0.000000000000000000 ) ;
#176 = DIRECTION ( 'NONE',  ( 7.270185627024802106E-18, 1.000000000000000000, 0.000000000000000000 ) ) ;
#177 = EDGE_CURVE ( 'NONE', #141, #112, #121, .T. ) ;
#178 = CIRCLE ( 'NONE', #34, 0.06249999999999995143 ) ;
#179 = FILL_AREA_STYLE_COLOUR ( '', #180 ) ;
#180 = COLOUR_RGB ( '',0.7921568627450980005, 0.8196078431372548767, 0.9333333333333333481 ) ;
#181 = APPLICATION_PROTOCOL_DEFINITION ( 'draft international standard', 'automotive_design', 1998, #10 ) ;
#182 = VERTEX_POINT ( 'NONE', #233 ) ;
#183 = PLANE ( 'NONE',  #191 ) ;
#184 = VECTOR ( 'NONE', #55, 39.37007874015748143 ) ;
#185 =( LENGTH_UNIT ( ) NAMED_UNIT ( * ) SI_UNIT ( $, .METRE. ) );
#186 = CARTESIAN_POINT ( 'NONE',  ( 3.542865366783341331E-16, 0.1082531754730544638, 0.000000000000000000 ) ) ;
#187 = FACE_OUTER_BOUND ( 'NONE', #99, .T. ) ;
#188 =( NAMED_UNIT ( * ) SI_UNIT ( $, .STERADIAN. ) SOLID_ANGLE_UNIT ( ) );
#189 = EDGE_CURVE ( 'NONE', #19, #18, #82, .T. ) ;
#190 = EDGE_LOOP ( 'NONE', ( #117, #213 ) ) ;
#191 = AXIS2_PLACEMENT_3D ( 'NONE', #186, #86, #255 ) ;
#192 = SURFACE_SIDE_STYLE ('',( #31 ) ) ;
#193 = UNCERTAINTY_MEASURE_WITH_UNIT (LENGTH_MEASURE( 1.000000000000000082E-05 ), #194, 'distance_accuracy_value', 'NONE');
#194 =( CONVERSION_BASED_UNIT ( 'INCH', #224 ) LENGTH_UNIT ( ) NAMED_UNIT ( #170 ) );
#195 = UNCERTAINTY_MEASURE_WITH_UNIT (LENGTH_MEASURE( 1.000000000000000082E-05 ), #97, 'distance_accuracy_value', 'NONE');
#196 = DIRECTION ( 'NONE',  ( -7.270185627024802106E-18, -1.000000000000000000, -0.000000000000000000 ) ) ;
#197 = ORIENTED_EDGE ( 'NONE', *, *, #106, .T. ) ;
#198 = FACE_OUTER_BOUND ( 'NONE', #73, .T. ) ;
#199 = LENGTH_MEASURE_WITH_UNIT ( LENGTH_MEASURE( 0.02539999999999999897 ), #95 );
#200 = ORIENTED_EDGE ( 'NONE', *, *, #70, .F. ) ;
#201 = LENGTH_MEASURE_WITH_UNIT ( LENGTH_MEASURE( 0.02539999999999999897 ), #250 );
#202 = FILL_AREA_STYLE ('',( #179 ) ) ;
#203 = ADVANCED_FACE ( 'NONE', ( #103 ), #85, .T. ) ;
#204 = CIRCLE ( 'NONE', #91, 0.06249999999999959061 ) ;
#205 = DIRECTION ( 'NONE',  ( 0.5000000000000008882, 0.8660254037844380415, 6.123233995736777129E-17 ) ) ;
#206 = CARTESIAN_POINT ( 'NONE',  ( 0.06249999999999986122, 1.500000000000000222, 7.654042494670917485E-18 ) ) ;
#207 = DIRECTION ( 'NONE',  ( 7.270185627024802106E-18, 1.000000000000000000, 0.000000000000000000 ) ) ;
#208 = SURFACE_STYLE_USAGE ( .BOTH. , #93 ) ;
#209 = DIRECTION ( 'NONE',  ( -1.000000000000000000, 0.000000000000000000, 0.000000000000000000 ) ) ;
#210 = MECHANICAL_DESIGN_GEOMETRIC_PRESENTATION_REPRESENTATION (  '', ( #68 ), #25 ) ;
#211 = FACE_OUTER_BOUND ( 'NONE', #216, .T. ) ;
#212 =( CONVERSION_BASED_UNIT ( 'INCH', #201 ) LENGTH_UNIT ( ) NAMED_UNIT ( #79 ) );
#213 = ORIENTED_EDGE ( 'NONE', *, *, #47, .T. ) ;
#214 = DIRECTION ( 'NONE',  ( -1.000000000000000000, 0.000000000000000000, 0.000000000000000000 ) ) ;
#215 = CARTESIAN_POINT ( 'NONE',  ( 2.862277805915276693E-16, 39.37007874015748143, 0.000000000000000000 ) ) ;
#216 = EDGE_LOOP ( 'NONE', ( #5, #45 ) ) ;
#217 = PRESENTATION_LAYER_ASSIGNMENT (  '', '', ( #248 ) ) ;
#218 = FILL_AREA_STYLE ('',( #69 ) ) ;
#219 = DIRECTION ( 'NONE',  ( 7.270185627024802106E-18, 1.000000000000000000, 0.000000000000000000 ) ) ;
#220 = UNCERTAINTY_MEASURE_WITH_UNIT (LENGTH_MEASURE( 1.000000000000000082E-05 ), #212, 'distance_accuracy_value', 'NONE');
#221 = STYLED_ITEM ( 'NONE', ( #49 ), #8 ) ;
#222 = AXIS2_PLACEMENT_3D ( 'NONE', #243, #223, #160 ) ;
#223 = DIRECTION ( 'NONE',  ( 1.225722335412652647E-16, -1.000000000000000000, 0.000000000000000000 ) ) ;
#224 = LENGTH_MEASURE_WITH_UNIT ( LENGTH_MEASURE( 0.02539999999999999897 ), #67 );
#225 = ORIENTED_EDGE ( 'NONE', *, *, #177, .F. ) ;
#226 = EDGE_CURVE ( 'NONE', #19, #229, #75, .T. ) ;
#227 = DIRECTION ( 'NONE',  ( -1.225722335412652647E-16, 1.000000000000000000, -0.000000000000000000 ) ) ;
#228 = STYLED_ITEM ( 'NONE', ( #143 ), #135 ) ;
#229 = VERTEX_POINT ( 'NONE', #246 ) ;
#230 = SURFACE_STYLE_FILL_AREA ( #105 ) ;
#231 = MECHANICAL_DESIGN_GEOMETRIC_PRESENTATION_REPRESENTATION (  '', ( #32 ), #257 ) ;
#232 = CARTESIAN_POINT ( 'NONE',  ( 2.862277805915276693E-16, 39.37007874015748143, 0.000000000000000000 ) ) ;
#233 = CARTESIAN_POINT ( 'NONE',  ( -0.06249999999999956979, 1.500000000000000222, 0.000000000000000000 ) ) ;
#234 = CARTESIAN_POINT ( 'NONE',  ( 0.000000000000000000, 0.000000000000000000, 0.000000000000000000 ) ) ;
#235 = DIRECTION ( 'NONE',  ( 0.000000000000000000, 0.000000000000000000, 1.000000000000000000 ) ) ;
#236 = CONICAL_SURFACE ( 'NONE', #12, 22.73032555864674009, 0.5235987755982999259 ) ;
#237 = DIRECTION ( 'NONE',  ( -1.225722335412652647E-16, 1.000000000000000000, -0.000000000000000000 ) ) ;
#238 = FACE_OUTER_BOUND ( 'NONE', #247, .T. ) ;
#239 = SURFACE_SIDE_STYLE ('',( #92 ) ) ;
#240 = APPLICATION_PROTOCOL_DEFINITION ( 'draft international standard', 'automotive_design', 1998, #22 ) ;
#241 = PRODUCT_RELATED_PRODUCT_CATEGORY ( 'part', '', ( #251 ) ) ;
#242 = CARTESIAN_POINT ( 'NONE',  ( 7.870206804039943619E-19, 0.1082531754730544638, 0.000000000000000000 ) ) ;
#243 = CARTESIAN_POINT ( 'NONE',  ( 0.06249999999999995143, 1.500000000000000222, 0.000000000000000000 ) ) ;
#244 = EDGE_CURVE ( 'NONE', #18, #229, #6, .T. ) ;
#245 = EDGE_LOOP ( 'NONE', ( #163, #171, #3 ) ) ;
#246 = CARTESIAN_POINT ( 'NONE',  ( -0.06249999999999993061, 0.1082531754730544638, 0.000000000000000000 ) ) ;
#247 = EDGE_LOOP ( 'NONE', ( #225, #54, #100, #74 ) ) ;
#248 = STYLED_ITEM ( 'NONE', ( #256 ), #165 ) ;
#249 = SURFACE_STYLE_FILL_AREA ( #76 ) ;
#250 =( LENGTH_UNIT ( ) NAMED_UNIT ( * ) SI_UNIT ( $, .METRE. ) );
#251 = PRODUCT ( '83836', '83836', '', ( #1 ) ) ;
#252 = DIRECTION ( 'NONE',  ( -1.225722335412652647E-16, 1.000000000000000000, -0.000000000000000000 ) ) ;
#253 = AXIS2_PLACEMENT_3D ( 'NONE', #159, #219, #265 ) ;
#254 = UNCERTAINTY_MEASURE_WITH_UNIT (LENGTH_MEASURE( 1.000000000000000082E-05 ), #167, 'distance_accuracy_value', 'NONE');
#255 = DIRECTION ( 'NONE',  ( -1.000000000000000000, -1.225722335412652647E-16, 0.000000000000000000 ) ) ;
#256 = PRESENTATION_STYLE_ASSIGNMENT (( #173 ) ) ;
#257 =( GEOMETRIC_REPRESENTATION_CONTEXT ( 3 ) GLOBAL_UNCERTAINTY_ASSIGNED_CONTEXT ( ( #193 ) ) GLOBAL_UNIT_ASSIGNED_CONTEXT ( ( #194, #156, #116 ) ) REPRESENTATION_CONTEXT ( 'NONE', 'WORKASPACE' ) );
#258 = DIRECTION ( 'NONE',  ( -1.000000000000000000, 0.000000000000000000, 0.000000000000000000 ) ) ;
#259 = SURFACE_SIDE_STYLE ('',( #35 ) ) ;
#260 = EDGE_CURVE ( 'NONE', #115, #141, #142, .T. ) ;
#261 = PRESENTATION_LAYER_ASSIGNMENT (  '', '', ( #32 ) ) ;
#262 = CARTESIAN_POINT ( 'NONE',  ( 0.06249999999999995143, 1.500000000000000222, 7.654042494670922108E-18 ) ) ;
#263 = SURFACE_STYLE_USAGE ( .BOTH. , #239 ) ;
#264 = ORIENTED_EDGE ( 'NONE', *, *, #226, .T. ) ;
#265 = DIRECTION ( 'NONE',  ( -1.000000000000000000, 7.270185627024802106E-18, 0.000000000000000000 ) ) ;
ENDSEC;
END-ISO-10303-21;
