ISO-10303-21;
HEADER;
FILE_DESCRIPTION (( 'STEP AP214' ),
    '1' );
FILE_NAME ('01197.STEP',
    '2023-06-22T14:23:06',
    ( '' ),
    ( '' ),
    'SwSTEP 2.0',
    'SolidWorks 2023',
    '' );
FILE_SCHEMA (( 'AUTOMOTIVE_DESIGN' ));
ENDSEC;

DATA;
#1 = ORIENTED_EDGE ( 'NONE', *, *, #159, .T. ) ;
#2 = SURFACE_SIDE_STYLE ('',( #4 ) ) ;
#3 = ORIENTED_EDGE ( 'NONE', *, *, #299, .F. ) ;
#4 = SURFACE_STYLE_FILL_AREA ( #120 ) ;
#5 = CIRCLE ( 'NONE', #187, 0.1250000000000000555 ) ;
#6 = ORIENTED_EDGE ( 'NONE', *, *, #238, .T. ) ;
#7 =( LENGTH_UNIT ( ) NAMED_UNIT ( * ) SI_UNIT ( $, .METRE. ) );
#8 = CIRCLE ( 'NONE', #73, 0.1250000000000000278 ) ;
#9 = APPLICATION_CONTEXT ( 'automotive_design' ) ;
#10 = CYLINDRICAL_SURFACE ( 'NONE', #308, 0.1250000000000000000 ) ;
#11 = CARTESIAN_POINT ( 'NONE',  ( -6.123233995736772199E-17, 3.000000000000000444, 0.000000000000000000 ) ) ;
#12 = DIRECTION ( 'NONE',  ( -3.498990854706726443E-17, 1.000000000000000000, -0.000000000000000000 ) ) ;
#13 = AXIS2_PLACEMENT_3D ( 'NONE', #274, #174, #46 ) ;
#14 = DIRECTION ( 'NONE',  ( 0.000000000000000000, 0.000000000000000000, -1.000000000000000000 ) ) ;
#15 = MECHANICAL_DESIGN_GEOMETRIC_PRESENTATION_REPRESENTATION (  '', ( #164 ), #199 ) ;
#16 = ORIENTED_EDGE ( 'NONE', *, *, #249, .T. ) ;
#17 = ADVANCED_FACE ( 'NONE', ( #196 ), #192, .T. ) ;
#18 = PRODUCT_DEFINITION_CONTEXT ( 'detailed design', #9, 'design' ) ;
#19 = ORIENTED_EDGE ( 'NONE', *, *, #44, .F. ) ;
#20 = DIRECTION ( 'NONE',  ( 0.000000000000000000, 1.000000000000000000, 0.000000000000000000 ) ) ;
#21 = UNCERTAINTY_MEASURE_WITH_UNIT (LENGTH_MEASURE( 1.000000000000000082E-05 ), #82, 'distance_accuracy_value', 'NONE');
#22 = AXIS2_PLACEMENT_3D ( 'NONE', #115, #136, #63 ) ;
#23 = STYLED_ITEM ( 'NONE', ( #97 ), #282 ) ;
#24 = AXIS2_PLACEMENT_3D ( 'NONE', #40, #12, #172 ) ;
#25 = DIRECTION ( 'NONE',  ( -3.498990854706726443E-17, 1.000000000000000000, -0.000000000000000000 ) ) ;
#26 = PRODUCT_RELATED_PRODUCT_CATEGORY ( 'part', '', ( #285 ) ) ;
#27 =( NAMED_UNIT ( * ) SI_UNIT ( $, .STERADIAN. ) SOLID_ANGLE_UNIT ( ) );
#28 = CARTESIAN_POINT ( 'NONE',  ( 1.530808498934191509E-17, 0.000000000000000000, 0.1250000000000000000 ) ) ;
#29 = LINE ( 'NONE', #87, #39 ) ;
#30 = MECHANICAL_DESIGN_GEOMETRIC_PRESENTATION_REPRESENTATION (  '', ( #239 ), #151 ) ;
#31 = SURFACE_STYLE_FILL_AREA ( #234 ) ;
#32 = VECTOR ( 'NONE', #229, 39.37007874015748143 ) ;
#33 = ADVANCED_FACE ( 'NONE', ( #220 ), #166, .F. ) ;
#34 = EDGE_LOOP ( 'NONE', ( #119, #142, #265, #91 ) ) ;
#35 = CARTESIAN_POINT ( 'NONE',  ( 1.530808498934191817E-17, 1.250000000000000000, 0.1250000000000000278 ) ) ;
#36 = DIRECTION ( 'NONE',  ( 0.000000000000000000, 0.000000000000000000, -1.000000000000000000 ) ) ;
#37 = CARTESIAN_POINT ( 'NONE',  ( 0.000000000000000000, 0.000000000000000000, 0.000000000000000000 ) ) ;
#38 = FILL_AREA_STYLE ('',( #269 ) ) ;
#39 = VECTOR ( 'NONE', #206, 39.37007874015748143 ) ;
#40 = CARTESIAN_POINT ( 'NONE',  ( -6.123233995736772199E-17, 3.000000000000000444, 0.000000000000000000 ) ) ;
#41 = CYLINDRICAL_SURFACE ( 'NONE', #302, 0.1250000000000000278 ) ;
#42 = CARTESIAN_POINT ( 'NONE',  ( 0.000000000000000000, 0.000000000000000000, -0.1250000000000000000 ) ) ;
#43 = DIRECTION ( 'NONE',  ( -3.498990854706726443E-17, 1.000000000000000000, -0.000000000000000000 ) ) ;
#44 = EDGE_CURVE ( 'NONE', #56, #217, #105, .T. ) ;
#45 = DIRECTION ( 'NONE',  ( -1.000000000000000000, 0.000000000000000000, 0.000000000000000000 ) ) ;
#46 = DIRECTION ( 'NONE',  ( -1.000000000000000000, -3.498990854706726443E-17, 0.000000000000000000 ) ) ;
#47 = CARTESIAN_POINT ( 'NONE',  ( -0.1250000000000000278, 1.250000000000000000, 0.000000000000000000 ) ) ;
#48 = MECHANICAL_DESIGN_GEOMETRIC_PRESENTATION_REPRESENTATION (  '', ( #95 ), #245 ) ;
#49 = EDGE_LOOP ( 'NONE', ( #235, #74, #1, #94 ) ) ;
#50 = FILL_AREA_STYLE_COLOUR ( '', #280 ) ;
#51 = CARTESIAN_POINT ( 'NONE',  ( 0.1250000000000000278, 1.250000000000000000, 1.530808498934192125E-17 ) ) ;
#52 = PRESENTATION_STYLE_ASSIGNMENT (( #219 ) ) ;
#53 = DIRECTION ( 'NONE',  ( -3.498990854706726443E-17, 1.000000000000000000, -0.000000000000000000 ) ) ;
#54 = SURFACE_STYLE_FILL_AREA ( #79 ) ;
#55 = PLANE ( 'NONE',  #132 ) ;
#56 = VERTEX_POINT ( 'NONE', #51 ) ;
#57 = SURFACE_SIDE_STYLE ('',( #148 ) ) ;
#58 =( LENGTH_UNIT ( ) NAMED_UNIT ( * ) SI_UNIT ( $, .METRE. ) );
#59 = DIMENSIONAL_EXPONENTS ( 1.000000000000000000, 0.000000000000000000, 0.000000000000000000, 0.000000000000000000, 0.000000000000000000, 0.000000000000000000, 0.000000000000000000 ) ;
#60 = CIRCLE ( 'NONE', #205, 0.1250000000000000000 ) ;
#61 = PRESENTATION_STYLE_ASSIGNMENT (( #118 ) ) ;
#62 = FILL_AREA_STYLE ('',( #157 ) ) ;
#63 = DIRECTION ( 'NONE',  ( -1.000000000000000000, 0.000000000000000000, 0.000000000000000000 ) ) ;
#64 = CARTESIAN_POINT ( 'NONE',  ( -0.1250000000000001110, 3.000000000000000444, 0.000000000000000000 ) ) ;
#65 = PRESENTATION_LAYER_ASSIGNMENT (  '', '', ( #72 ) ) ;
#66 = FILL_AREA_STYLE_COLOUR ( '', #258 ) ;
#67 = DIMENSIONAL_EXPONENTS ( 1.000000000000000000, 0.000000000000000000, 0.000000000000000000, 0.000000000000000000, 0.000000000000000000, 0.000000000000000000, 0.000000000000000000 ) ;
#68 = EDGE_CURVE ( 'NONE', #93, #212, #8, .T. ) ;
#69 = PRODUCT_DEFINITION_SHAPE ( 'NONE', 'NONE',  #190 ) ;
#70 = ORIENTED_EDGE ( 'NONE', *, *, #68, .T. ) ;
#71 = DIRECTION ( 'NONE',  ( 0.000000000000000000, 0.000000000000000000, -1.000000000000000000 ) ) ;
#72 = STYLED_ITEM ( 'NONE', ( #90 ), #227 ) ;
#73 = AXIS2_PLACEMENT_3D ( 'NONE', #128, #222, #247 ) ;
#74 = ORIENTED_EDGE ( 'NONE', *, *, #44, .T. ) ;
#75 = ADVANCED_FACE ( 'NONE', ( #273 ), #55, .T. ) ;
#76 = VERTEX_POINT ( 'NONE', #277 ) ;
#77 = DIRECTION ( 'NONE',  ( 0.000000000000000000, 0.000000000000000000, -1.000000000000000000 ) ) ;
#78 = APPLICATION_CONTEXT ( 'automotive_design' ) ;
#79 = FILL_AREA_STYLE ('',( #50 ) ) ;
#80 = CARTESIAN_POINT ( 'NONE',  ( 0.000000000000000000, 0.000000000000000000, 0.000000000000000000 ) ) ;
#81 =( NAMED_UNIT ( * ) SI_UNIT ( $, .STERADIAN. ) SOLID_ANGLE_UNIT ( ) );
#82 =( CONVERSION_BASED_UNIT ( 'INCH', #243 ) LENGTH_UNIT ( ) NAMED_UNIT ( #59 ) );
#83 = CARTESIAN_POINT ( 'NONE',  ( 0.000000000000000000, 1.250000000000000000, 0.000000000000000000 ) ) ;
#84 = UNCERTAINTY_MEASURE_WITH_UNIT (LENGTH_MEASURE( 1.000000000000000082E-05 ), #241, 'distance_accuracy_value', 'NONE');
#85 = DIMENSIONAL_EXPONENTS ( 1.000000000000000000, 0.000000000000000000, 0.000000000000000000, 0.000000000000000000, 0.000000000000000000, 0.000000000000000000, 0.000000000000000000 ) ;
#86 = MANIFOLD_SOLID_BREP ( 'Revolve - Cutting Edge', #171 ) ;
#87 = CARTESIAN_POINT ( 'NONE',  ( -0.1250000000000001110, 3.000000000000000444, 0.000000000000000000 ) ) ;
#88 = CARTESIAN_POINT ( 'NONE',  ( 0.000000000000000000, 0.000000000000000000, -0.1250000000000000000 ) ) ;
#89 = PLANE ( 'NONE',  #13 ) ;
#90 = PRESENTATION_STYLE_ASSIGNMENT (( #281 ) ) ;
#91 = ORIENTED_EDGE ( 'NONE', *, *, #159, .F. ) ;
#92 =( NAMED_UNIT ( * ) SI_UNIT ( $, .STERADIAN. ) SOLID_ANGLE_UNIT ( ) );
#93 = VERTEX_POINT ( 'NONE', #256 ) ;
#94 = ORIENTED_EDGE ( 'NONE', *, *, #238, .F. ) ;
#95 = STYLED_ITEM ( 'NONE', ( #61 ), #210 ) ;
#96 = ORIENTED_EDGE ( 'NONE', *, *, #68, .F. ) ;
#97 = PRESENTATION_STYLE_ASSIGNMENT (( #175 ) ) ;
#98 = SURFACE_STYLE_FILL_AREA ( #38 ) ;
#99 = VECTOR ( 'NONE', #113, 39.37007874015748143 ) ;
#100 = DIRECTION ( 'NONE',  ( -1.000000000000000000, 0.000000000000000000, 0.000000000000000000 ) ) ;
#101 = SURFACE_STYLE_USAGE ( .BOTH. , #57 ) ;
#102 =( CONVERSION_BASED_UNIT ( 'INCH', #170 ) LENGTH_UNIT ( ) NAMED_UNIT ( #250 ) );
#103 = UNCERTAINTY_MEASURE_WITH_UNIT (LENGTH_MEASURE( 1.000000000000000082E-05 ), #168, 'distance_accuracy_value', 'NONE');
#104 = VERTEX_POINT ( 'NONE', #64 ) ;
#105 = CIRCLE ( 'NONE', #198, 0.1250000000000000278 ) ;
#106 = CIRCLE ( 'NONE', #160, 0.1250000000000000000 ) ;
#107 = FILL_AREA_STYLE_COLOUR ( '', #259 ) ;
#108 = DIMENSIONAL_EXPONENTS ( 1.000000000000000000, 0.000000000000000000, 0.000000000000000000, 0.000000000000000000, 0.000000000000000000, 0.000000000000000000, 0.000000000000000000 ) ;
#109 = DIRECTION ( 'NONE',  ( -0.000000000000000000, -1.000000000000000000, -0.000000000000000000 ) ) ;
#110 = SURFACE_SIDE_STYLE ('',( #31 ) ) ;
#111 = SURFACE_SIDE_STYLE ('',( #54 ) ) ;
#112 = DIRECTION ( 'NONE',  ( -0.000000000000000000, -1.000000000000000000, -0.000000000000000000 ) ) ;
#113 = DIRECTION ( 'NONE',  ( -0.000000000000000000, -1.000000000000000000, -0.000000000000000000 ) ) ;
#114 = AXIS2_PLACEMENT_3D ( 'NONE', #189, #162, #36 ) ;
#115 = CARTESIAN_POINT ( 'NONE',  ( 0.000000000000000000, 1.250000000000000000, 0.000000000000000000 ) ) ;
#116 = CARTESIAN_POINT ( 'NONE',  ( -6.123233995736772199E-17, 3.000000000000000444, 0.000000000000000000 ) ) ;
#117 = EDGE_CURVE ( 'NONE', #217, #56, #207, .T. ) ;
#118 = SURFACE_STYLE_USAGE ( .BOTH. , #110 ) ;
#119 = ORIENTED_EDGE ( 'NONE', *, *, #117, .T. ) ;
#120 = FILL_AREA_STYLE ('',( #66 ) ) ;
#121 = EDGE_CURVE ( 'NONE', #104, #287, #5, .T. ) ;
#122 = ORIENTED_EDGE ( 'NONE', *, *, #156, .T. ) ;
#123 = ORIENTED_EDGE ( 'NONE', *, *, #299, .T. ) ;
#124 = MECHANICAL_DESIGN_GEOMETRIC_PRESENTATION_REPRESENTATION (  '', ( #304 ), #141 ) ;
#125 =( NAMED_UNIT ( * ) PLANE_ANGLE_UNIT ( ) SI_UNIT ( $, .RADIAN. ) );
#126 = DIRECTION ( 'NONE',  ( -0.000000000000000000, -1.000000000000000000, -0.000000000000000000 ) ) ;
#127 =( NAMED_UNIT ( * ) SI_UNIT ( $, .STERADIAN. ) SOLID_ANGLE_UNIT ( ) );
#128 = CARTESIAN_POINT ( 'NONE',  ( 0.000000000000000000, 1.250000000000000000, 0.000000000000000000 ) ) ;
#129 = EDGE_LOOP ( 'NONE', ( #183, #16, #123, #149 ) ) ;
#130 = CARTESIAN_POINT ( 'NONE',  ( 0.000000000000000000, 1.250000000000000000, 0.000000000000000000 ) ) ;
#131 = ORIENTED_EDGE ( 'NONE', *, *, #117, .F. ) ;
#132 = AXIS2_PLACEMENT_3D ( 'NONE', #130, #20, #197 ) ;
#133 = LENGTH_MEASURE_WITH_UNIT ( LENGTH_MEASURE( 0.02539999999999999897 ), #254 );
#134 = DIRECTION ( 'NONE',  ( -1.000000000000000000, 0.000000000000000000, 0.000000000000000000 ) ) ;
#135 = COLOUR_RGB ( '',1.000000000000000000, 0.000000000000000000, 0.000000000000000000 ) ;
#136 = DIRECTION ( 'NONE',  ( -3.498990854706726443E-17, 1.000000000000000000, -0.000000000000000000 ) ) ;
#137 = PLANE ( 'NONE',  #114 ) ;
#138 =( GEOMETRIC_REPRESENTATION_CONTEXT ( 3 ) GLOBAL_UNCERTAINTY_ASSIGNED_CONTEXT ( ( #240 ) ) GLOBAL_UNIT_ASSIGNED_CONTEXT ( ( #264, #213, #92 ) ) REPRESENTATION_CONTEXT ( 'NONE', 'WORKASPACE' ) );
#139 = PRESENTATION_LAYER_ASSIGNMENT (  '', '', ( #164 ) ) ;
#140 =( NAMED_UNIT ( * ) SI_UNIT ( $, .STERADIAN. ) SOLID_ANGLE_UNIT ( ) );
#141 =( GEOMETRIC_REPRESENTATION_CONTEXT ( 3 ) GLOBAL_UNCERTAINTY_ASSIGNED_CONTEXT ( ( #21 ) ) GLOBAL_UNIT_ASSIGNED_CONTEXT ( ( #82, #169, #81 ) ) REPRESENTATION_CONTEXT ( 'NONE', 'WORKASPACE' ) );
#142 = ORIENTED_EDGE ( 'NONE', *, *, #294, .T. ) ;
#143 = PRESENTATION_STYLE_ASSIGNMENT (( #101 ) ) ;
#144 =( NAMED_UNIT ( * ) SI_UNIT ( $, .STERADIAN. ) SOLID_ANGLE_UNIT ( ) );
#145 = PRESENTATION_LAYER_ASSIGNMENT (  '', '', ( #239 ) ) ;
#146 = DIRECTION ( 'NONE',  ( 1.000000000000000000, 3.498990854706726443E-17, 0.000000000000000000 ) ) ;
#147 = DIRECTION ( 'NONE',  ( 1.000000000000000000, 0.000000000000000000, 0.000000000000000000 ) ) ;
#148 = SURFACE_STYLE_FILL_AREA ( #200 ) ;
#149 = ORIENTED_EDGE ( 'NONE', *, *, #156, .F. ) ;
#150 = LENGTH_MEASURE_WITH_UNIT ( LENGTH_MEASURE( 0.02539999999999999897 ), #173 );
#151 =( GEOMETRIC_REPRESENTATION_CONTEXT ( 3 ) GLOBAL_UNCERTAINTY_ASSIGNED_CONTEXT ( ( #84 ) ) GLOBAL_UNIT_ASSIGNED_CONTEXT ( ( #241, #300, #255 ) ) REPRESENTATION_CONTEXT ( 'NONE', 'WORKASPACE' ) );
#152 = DIMENSIONAL_EXPONENTS ( 1.000000000000000000, 0.000000000000000000, 0.000000000000000000, 0.000000000000000000, 0.000000000000000000, 0.000000000000000000, 0.000000000000000000 ) ;
#153 = LENGTH_MEASURE_WITH_UNIT ( LENGTH_MEASURE( 0.02539999999999999897 ), #275 );
#154 =( CONVERSION_BASED_UNIT ( 'INCH', #133 ) LENGTH_UNIT ( ) NAMED_UNIT ( #108 ) );
#155 = CARTESIAN_POINT ( 'NONE',  ( -6.123233995736772199E-17, 3.000000000000000444, 0.000000000000000000 ) ) ;
#156 = EDGE_CURVE ( 'NONE', #76, #284, #60, .T. ) ;
#157 = FILL_AREA_STYLE_COLOUR ( '', #309 ) ;
#158 = EDGE_LOOP ( 'NONE', ( #288, #122 ) ) ;
#159 = EDGE_CURVE ( 'NONE', #217, #104, #29, .T. ) ;
#160 = AXIS2_PLACEMENT_3D ( 'NONE', #80, #270, #77 ) ;
#161 = ORIENTED_EDGE ( 'NONE', *, *, #121, .T. ) ;
#162 = DIRECTION ( 'NONE',  ( 0.000000000000000000, -1.000000000000000000, -0.000000000000000000 ) ) ;
#163 = CARTESIAN_POINT ( 'NONE',  ( 0.000000000000000000, 1.250000000000000000, 0.000000000000000000 ) ) ;
#164 = STYLED_ITEM ( 'NONE', ( #233 ), #86 ) ;
#165 = SURFACE_SIDE_STYLE ('',( #98 ) ) ;
#166 = PLANE ( 'NONE',  #276 ) ;
#167 = SHAPE_DEFINITION_REPRESENTATION ( #69, #223 ) ;
#168 =( CONVERSION_BASED_UNIT ( 'INCH', #153 ) LENGTH_UNIT ( ) NAMED_UNIT ( #67 ) );
#169 =( NAMED_UNIT ( * ) PLANE_ANGLE_UNIT ( ) SI_UNIT ( $, .RADIAN. ) );
#170 = LENGTH_MEASURE_WITH_UNIT ( LENGTH_MEASURE( 0.02539999999999999897 ), #58 );
#171 = CLOSED_SHELL ( 'NONE', ( #242, #75, #227, #210 ) ) ;
#172 = DIRECTION ( 'NONE',  ( -1.000000000000000000, 0.000000000000000000, 0.000000000000000000 ) ) ;
#173 =( LENGTH_UNIT ( ) NAMED_UNIT ( * ) SI_UNIT ( $, .METRE. ) );
#174 = DIRECTION ( 'NONE',  ( -3.498990854706726443E-17, 1.000000000000000000, 0.000000000000000000 ) ) ;
#175 = SURFACE_STYLE_USAGE ( .BOTH. , #111 ) ;
#176 =( NAMED_UNIT ( * ) PLANE_ANGLE_UNIT ( ) SI_UNIT ( $, .RADIAN. ) );
#177 = ADVANCED_FACE ( 'NONE', ( #305 ), #89, .F. ) ;
#178 = FACE_OUTER_BOUND ( 'NONE', #49, .T. ) ;
#179 = FILL_AREA_STYLE_COLOUR ( '', #135 ) ;
#180 = MECHANICAL_DESIGN_GEOMETRIC_PRESENTATION_REPRESENTATION (  '', ( #23 ), #272 ) ;
#181 = COLOUR_RGB ( '',1.000000000000000000, 0.000000000000000000, 0.000000000000000000 ) ;
#182 = PRESENTATION_LAYER_ASSIGNMENT (  '', '', ( #304 ) ) ;
#183 = ORIENTED_EDGE ( 'NONE', *, *, #306, .F. ) ;
#184 = CARTESIAN_POINT ( 'NONE',  ( 0.000000000000000000, 0.000000000000000000, 0.000000000000000000 ) ) ;
#185 = ADVANCED_FACE ( 'NONE', ( #178 ), #41, .T. ) ;
#186 = ORIENTED_EDGE ( 'NONE', *, *, #306, .T. ) ;
#187 = AXIS2_PLACEMENT_3D ( 'NONE', #116, #43, #134 ) ;
#188 = UNCERTAINTY_MEASURE_WITH_UNIT (LENGTH_MEASURE( 1.000000000000000082E-05 ), #102, 'distance_accuracy_value', 'NONE');
#189 = CARTESIAN_POINT ( 'NONE',  ( 0.000000000000000000, 0.000000000000000000, 0.000000000000000000 ) ) ;
#190 = PRODUCT_DEFINITION ( 'UNKNOWN', '', #263, #18 ) ;
#191 = LINE ( 'NONE', #297, #32 ) ;
#192 = CYLINDRICAL_SURFACE ( 'NONE', #24, 0.1250000000000000278 ) ;
#193 = CIRCLE ( 'NONE', #236, 0.1250000000000000278 ) ;
#194 = DIRECTION ( 'NONE',  ( 0.000000000000000000, 0.000000000000000000, -1.000000000000000000 ) ) ;
#195 = APPLICATION_PROTOCOL_DEFINITION ( 'draft international standard', 'automotive_design', 1998, #78 ) ;
#196 = FACE_OUTER_BOUND ( 'NONE', #34, .T. ) ;
#197 = DIRECTION ( 'NONE',  ( 0.000000000000000000, -0.000000000000000000, 1.000000000000000000 ) ) ;
#198 = AXIS2_PLACEMENT_3D ( 'NONE', #83, #53, #225 ) ;
#199 =( GEOMETRIC_REPRESENTATION_CONTEXT ( 3 ) GLOBAL_UNCERTAINTY_ASSIGNED_CONTEXT ( ( #221 ) ) GLOBAL_UNIT_ASSIGNED_CONTEXT ( ( #154, #176, #27 ) ) REPRESENTATION_CONTEXT ( 'NONE', 'WORKASPACE' ) );
#200 = FILL_AREA_STYLE ('',( #107 ) ) ;
#201 = PRODUCT_CONTEXT ( 'NONE', #78, 'mechanical' ) ;
#202 = FACE_OUTER_BOUND ( 'NONE', #214, .T. ) ;
#203 = SURFACE_STYLE_FILL_AREA ( #62 ) ;
#204 = LINE ( 'NONE', #88, #252 ) ;
#205 = AXIS2_PLACEMENT_3D ( 'NONE', #260, #112, #301 ) ;
#206 = DIRECTION ( 'NONE',  ( -3.498990854706726443E-17, 1.000000000000000000, -0.000000000000000000 ) ) ;
#207 = CIRCLE ( 'NONE', #22, 0.1250000000000000278 ) ;
#208 = ORIENTED_EDGE ( 'NONE', *, *, #249, .F. ) ;
#209 = CYLINDRICAL_SURFACE ( 'NONE', #262, 0.1250000000000000000 ) ;
#210 = ADVANCED_FACE ( 'NONE', ( #307 ), #137, .T. ) ;
#211 = ORIENTED_EDGE ( 'NONE', *, *, #279, .F. ) ;
#212 = VERTEX_POINT ( 'NONE', #35 ) ;
#213 =( NAMED_UNIT ( * ) PLANE_ANGLE_UNIT ( ) SI_UNIT ( $, .RADIAN. ) );
#214 = EDGE_LOOP ( 'NONE', ( #70, #186, #211, #3 ) ) ;
#215 = PRESENTATION_LAYER_ASSIGNMENT (  '', '', ( #95 ) ) ;
#216 = CLOSED_SHELL ( 'NONE', ( #17, #177, #185, #33 ) ) ;
#217 = VERTEX_POINT ( 'NONE', #47 ) ;
#218 = FACE_OUTER_BOUND ( 'NONE', #129, .T. ) ;
#219 = SURFACE_STYLE_USAGE ( .BOTH. , #165 ) ;
#220 = FACE_OUTER_BOUND ( 'NONE', #292, .T. ) ;
#221 = UNCERTAINTY_MEASURE_WITH_UNIT (LENGTH_MEASURE( 1.000000000000000082E-05 ), #154, 'distance_accuracy_value', 'NONE');
#222 = DIRECTION ( 'NONE',  ( -0.000000000000000000, -1.000000000000000000, -0.000000000000000000 ) ) ;
#223 = ADVANCED_BREP_SHAPE_REPRESENTATION ( '01197', ( #86, #282, #224 ), #267 ) ;
#224 = AXIS2_PLACEMENT_3D ( 'NONE', #246, #244, #147 ) ;
#225 = DIRECTION ( 'NONE',  ( -1.000000000000000000, 0.000000000000000000, 0.000000000000000000 ) ) ;
#226 = DIRECTION ( 'NONE',  ( 3.498990854706726443E-17, -1.000000000000000000, 0.000000000000000000 ) ) ;
#227 = ADVANCED_FACE ( 'NONE', ( #218 ), #209, .T. ) ;
#228 = AXIS2_PLACEMENT_3D ( 'NONE', #11, #25, #100 ) ;
#229 = DIRECTION ( 'NONE',  ( -3.498990854706726443E-17, 1.000000000000000000, -0.000000000000000000 ) ) ;
#230 = LINE ( 'NONE', #28, #99 ) ;
#231 = SURFACE_STYLE_USAGE ( .BOTH. , #278 ) ;
#232 = PRESENTATION_LAYER_ASSIGNMENT (  '', '', ( #23 ) ) ;
#233 = PRESENTATION_STYLE_ASSIGNMENT (( #231 ) ) ;
#234 = FILL_AREA_STYLE ('',( #179 ) ) ;
#235 = ORIENTED_EDGE ( 'NONE', *, *, #294, .F. ) ;
#236 = AXIS2_PLACEMENT_3D ( 'NONE', #163, #109, #14 ) ;
#237 = EDGE_LOOP ( 'NONE', ( #96, #208 ) ) ;
#238 = EDGE_CURVE ( 'NONE', #287, #104, #290, .T. ) ;
#239 = STYLED_ITEM ( 'NONE', ( #52 ), #242 ) ;
#240 = UNCERTAINTY_MEASURE_WITH_UNIT (LENGTH_MEASURE( 1.000000000000000082E-05 ), #264, 'distance_accuracy_value', 'NONE');
#241 =( CONVERSION_BASED_UNIT ( 'INCH', #289 ) LENGTH_UNIT ( ) NAMED_UNIT ( #152 ) );
#242 = ADVANCED_FACE ( 'NONE', ( #202 ), #10, .T. ) ;
#243 = LENGTH_MEASURE_WITH_UNIT ( LENGTH_MEASURE( 0.02539999999999999897 ), #296 );
#244 = DIRECTION ( 'NONE',  ( 0.000000000000000000, 0.000000000000000000, 1.000000000000000000 ) ) ;
#245 =( GEOMETRIC_REPRESENTATION_CONTEXT ( 3 ) GLOBAL_UNCERTAINTY_ASSIGNED_CONTEXT ( ( #291 ) ) GLOBAL_UNIT_ASSIGNED_CONTEXT ( ( #251, #266, #140 ) ) REPRESENTATION_CONTEXT ( 'NONE', 'WORKASPACE' ) );
#246 = CARTESIAN_POINT ( 'NONE',  ( 0.000000000000000000, 0.000000000000000000, 0.000000000000000000 ) ) ;
#247 = DIRECTION ( 'NONE',  ( 0.000000000000000000, 0.000000000000000000, -1.000000000000000000 ) ) ;
#248 = APPLICATION_PROTOCOL_DEFINITION ( 'draft international standard', 'automotive_design', 1998, #9 ) ;
#249 = EDGE_CURVE ( 'NONE', #212, #93, #193, .T. ) ;
#250 = DIMENSIONAL_EXPONENTS ( 1.000000000000000000, 0.000000000000000000, 0.000000000000000000, 0.000000000000000000, 0.000000000000000000, 0.000000000000000000, 0.000000000000000000 ) ;
#251 =( CONVERSION_BASED_UNIT ( 'INCH', #150 ) LENGTH_UNIT ( ) NAMED_UNIT ( #298 ) );
#252 = VECTOR ( 'NONE', #303, 39.37007874015748143 ) ;
#253 = CARTESIAN_POINT ( 'NONE',  ( 0.1250000000000000000, 3.000000000000000444, 1.530808498934192125E-17 ) ) ;
#254 =( LENGTH_UNIT ( ) NAMED_UNIT ( * ) SI_UNIT ( $, .METRE. ) );
#255 =( NAMED_UNIT ( * ) SI_UNIT ( $, .STERADIAN. ) SOLID_ANGLE_UNIT ( ) );
#256 = CARTESIAN_POINT ( 'NONE',  ( 0.000000000000000000, 1.250000000000000000, -0.1250000000000000278 ) ) ;
#257 = DIRECTION ( 'NONE',  ( -3.498990854706726443E-17, 1.000000000000000000, -0.000000000000000000 ) ) ;
#258 = COLOUR_RGB ( '',1.000000000000000000, 0.000000000000000000, 0.000000000000000000 ) ;
#259 = COLOUR_RGB ( '',1.000000000000000000, 0.000000000000000000, 0.000000000000000000 ) ;
#260 = CARTESIAN_POINT ( 'NONE',  ( 0.000000000000000000, 0.000000000000000000, 0.000000000000000000 ) ) ;
#261 = LENGTH_MEASURE_WITH_UNIT ( LENGTH_MEASURE( 0.02539999999999999897 ), #7 );
#262 = AXIS2_PLACEMENT_3D ( 'NONE', #184, #283, #71 ) ;
#263 = PRODUCT_DEFINITION_FORMATION_WITH_SPECIFIED_SOURCE ( 'ANY', '', #285, .NOT_KNOWN. ) ;
#264 =( CONVERSION_BASED_UNIT ( 'INCH', #261 ) LENGTH_UNIT ( ) NAMED_UNIT ( #85 ) );
#265 = ORIENTED_EDGE ( 'NONE', *, *, #121, .F. ) ;
#266 =( NAMED_UNIT ( * ) PLANE_ANGLE_UNIT ( ) SI_UNIT ( $, .RADIAN. ) );
#267 =( GEOMETRIC_REPRESENTATION_CONTEXT ( 3 ) GLOBAL_UNCERTAINTY_ASSIGNED_CONTEXT ( ( #188 ) ) GLOBAL_UNIT_ASSIGNED_CONTEXT ( ( #102, #293, #144 ) ) REPRESENTATION_CONTEXT ( 'NONE', 'WORKASPACE' ) );
#268 =( LENGTH_UNIT ( ) NAMED_UNIT ( * ) SI_UNIT ( $, .METRE. ) );
#269 = FILL_AREA_STYLE_COLOUR ( '', #181 ) ;
#270 = DIRECTION ( 'NONE',  ( -0.000000000000000000, -1.000000000000000000, -0.000000000000000000 ) ) ;
#271 = EDGE_LOOP ( 'NONE', ( #131, #19 ) ) ;
#272 =( GEOMETRIC_REPRESENTATION_CONTEXT ( 3 ) GLOBAL_UNCERTAINTY_ASSIGNED_CONTEXT ( ( #103 ) ) GLOBAL_UNIT_ASSIGNED_CONTEXT ( ( #168, #125, #127 ) ) REPRESENTATION_CONTEXT ( 'NONE', 'WORKASPACE' ) );
#273 = FACE_OUTER_BOUND ( 'NONE', #237, .T. ) ;
#274 = CARTESIAN_POINT ( 'NONE',  ( 7.651835625825819045E-35, 1.250000000000000000, 0.000000000000000000 ) ) ;
#275 =( LENGTH_UNIT ( ) NAMED_UNIT ( * ) SI_UNIT ( $, .METRE. ) );
#276 = AXIS2_PLACEMENT_3D ( 'NONE', #295, #226, #146 ) ;
#277 = CARTESIAN_POINT ( 'NONE',  ( 1.530808498934191509E-17, 0.000000000000000000, 0.1250000000000000000 ) ) ;
#278 = SURFACE_SIDE_STYLE ('',( #203 ) ) ;
#279 = EDGE_CURVE ( 'NONE', #284, #76, #106, .T. ) ;
#280 = COLOUR_RGB ( '',0.7921568627450980005, 0.8196078431372548767, 0.9333333333333333481 ) ;
#281 = SURFACE_STYLE_USAGE ( .BOTH. , #2 ) ;
#282 = MANIFOLD_SOLID_BREP ( 'Revolve - Tool Body (Straight Shanked)', #216 ) ;
#283 = DIRECTION ( 'NONE',  ( -0.000000000000000000, -1.000000000000000000, -0.000000000000000000 ) ) ;
#284 = VERTEX_POINT ( 'NONE', #42 ) ;
#285 = PRODUCT ( '01197', '01197', '', ( #201 ) ) ;
#286 = MECHANICAL_DESIGN_GEOMETRIC_PRESENTATION_REPRESENTATION (  '', ( #72 ), #138 ) ;
#287 = VERTEX_POINT ( 'NONE', #253 ) ;
#288 = ORIENTED_EDGE ( 'NONE', *, *, #279, .T. ) ;
#289 = LENGTH_MEASURE_WITH_UNIT ( LENGTH_MEASURE( 0.02539999999999999897 ), #268 );
#290 = CIRCLE ( 'NONE', #228, 0.1250000000000000555 ) ;
#291 = UNCERTAINTY_MEASURE_WITH_UNIT (LENGTH_MEASURE( 1.000000000000000082E-05 ), #251, 'distance_accuracy_value', 'NONE');
#292 = EDGE_LOOP ( 'NONE', ( #161, #6 ) ) ;
#293 =( NAMED_UNIT ( * ) PLANE_ANGLE_UNIT ( ) SI_UNIT ( $, .RADIAN. ) );
#294 = EDGE_CURVE ( 'NONE', #56, #287, #191, .T. ) ;
#295 = CARTESIAN_POINT ( 'NONE',  ( 0.1249999999999999861, 3.000000000000000444, 0.000000000000000000 ) ) ;
#296 =( LENGTH_UNIT ( ) NAMED_UNIT ( * ) SI_UNIT ( $, .METRE. ) );
#297 = CARTESIAN_POINT ( 'NONE',  ( 0.1249999999999999584, 3.000000000000000444, 1.530808498934191817E-17 ) ) ;
#298 = DIMENSIONAL_EXPONENTS ( 1.000000000000000000, 0.000000000000000000, 0.000000000000000000, 0.000000000000000000, 0.000000000000000000, 0.000000000000000000, 0.000000000000000000 ) ;
#299 = EDGE_CURVE ( 'NONE', #93, #284, #204, .T. ) ;
#300 =( NAMED_UNIT ( * ) PLANE_ANGLE_UNIT ( ) SI_UNIT ( $, .RADIAN. ) );
#301 = DIRECTION ( 'NONE',  ( 0.000000000000000000, 0.000000000000000000, -1.000000000000000000 ) ) ;
#302 = AXIS2_PLACEMENT_3D ( 'NONE', #155, #257, #45 ) ;
#303 = DIRECTION ( 'NONE',  ( -0.000000000000000000, -1.000000000000000000, -0.000000000000000000 ) ) ;
#304 = STYLED_ITEM ( 'NONE', ( #143 ), #75 ) ;
#305 = FACE_OUTER_BOUND ( 'NONE', #271, .T. ) ;
#306 = EDGE_CURVE ( 'NONE', #212, #76, #230, .T. ) ;
#307 = FACE_OUTER_BOUND ( 'NONE', #158, .T. ) ;
#308 = AXIS2_PLACEMENT_3D ( 'NONE', #37, #126, #194 ) ;
#309 = COLOUR_RGB ( '',0.7921568627450980005, 0.8196078431372548767, 0.9333333333333333481 ) ;
ENDSEC;
END-ISO-10303-21;
