ISO-10303-21;
HEADER;
FILE_DESCRIPTION (( 'STEP AP214' ),
    '1' );
FILE_NAME ('Micro_DM-625-4120X.STEP',
    '2021-09-02T16:10:10',
    ( '' ),
    ( '' ),
    'SwSTEP 2.0',
    'SolidWorks 2020',
    '' );
FILE_SCHEMA (( 'AUTOMOTIVE_DESIGN' ));
ENDSEC;

DATA;
#1 = AXIS2_PLACEMENT_3D ( 'NONE', #138, #104, #260 ) ;
#2 = AXIS2_PLACEMENT_3D ( 'NONE', #170, #300, #169 ) ;
#3 = VERTEX_POINT ( 'NONE', #76 ) ;
#4 = DIRECTION ( 'NONE',  ( 0.0000000000000000000, 0.0000000000000000000, 1.000000000000000000 ) ) ;
#5 = UNCERTAINTY_MEASURE_WITH_UNIT (LENGTH_MEASURE( 1.000000000000000082E-05 ), #87, 'distance_accuracy_value', 'NONE');
#6 = PRESENTATION_LAYER_ASSIGNMENT (  '', '', ( #157 ) ) ;
#7 = VERTEX_POINT ( 'NONE', #55 ) ;
#8 = DIRECTION ( 'NONE',  ( -0.0000000000000000000, -0.0000000000000000000, -1.000000000000000000 ) ) ;
#9 = EDGE_LOOP ( 'NONE', ( #327, #203 ) ) ;
#10 = CARTESIAN_POINT ( 'NONE',  ( 0.3125000000000000000, 3.827021247335478926E-17, 3.484999999999999432 ) ) ;
#11 = FACE_OUTER_BOUND ( 'NONE', #278, .T. ) ;
#12 = APPLICATION_CONTEXT ( 'automotive_design' ) ;
#13 = FILL_AREA_STYLE_COLOUR ( '', #176 ) ;
#14 = CYLINDRICAL_SURFACE ( 'NONE', #97, 0.3124500000000001720 ) ;
#15 = LINE ( 'NONE', #266, #94 ) ;
#16 =( NAMED_UNIT ( * ) SI_UNIT ( $, .STERADIAN. ) SOLID_ANGLE_UNIT ( ) );
#17 = FACE_OUTER_BOUND ( 'NONE', #100, .T. ) ;
#18 = AXIS2_PLACEMENT_3D ( 'NONE', #102, #180, #329 ) ;
#19 = CIRCLE ( 'NONE', #292, 0.3125000000000000000 ) ;
#20 = CARTESIAN_POINT ( 'NONE',  ( 0.3125000000000000000, 3.827021247335478926E-17, 1.250000000000000000 ) ) ;
#21 = CYLINDRICAL_SURFACE ( 'NONE', #2, 0.3125000000000000000 ) ;
#22 = EDGE_CURVE ( 'NONE', #211, #34, #220, .T. ) ;
#23 = LINE ( 'NONE', #326, #63 ) ;
#24 =( CONVERSION_BASED_UNIT ( 'INCH', #69 ) LENGTH_UNIT ( ) NAMED_UNIT ( #108 ) );
#25 = ORIENTED_EDGE ( 'NONE', *, *, #22, .F. ) ;
#26 = ADVANCED_FACE ( 'NONE', ( #277 ), #130, .T. ) ;
#27 = DIRECTION ( 'NONE',  ( -1.000000000000000000, 0.0000000000000000000, 0.0000000000000000000 ) ) ;
#28 = CARTESIAN_POINT ( 'NONE',  ( 0.0000000000000000000, 0.0000000000000000000, 1.250000000000000000 ) ) ;
#29 = ORIENTED_EDGE ( 'NONE', *, *, #70, .F. ) ;
#30 = VECTOR ( 'NONE', #66, 39.37007874015748143 ) ;
#31 = VECTOR ( 'NONE', #137, 39.37007874015748143 ) ;
#32 = ORIENTED_EDGE ( 'NONE', *, *, #145, .F. ) ;
#33 = CYLINDRICAL_SURFACE ( 'NONE', #113, 0.3124500000000001720 ) ;
#34 = VERTEX_POINT ( 'NONE', #52 ) ;
#35 = CARTESIAN_POINT ( 'NONE',  ( 0.0000000000000000000, 0.0000000000000000000, 1.707404996040164512E-17 ) ) ;
#36 = CARTESIAN_POINT ( 'NONE',  ( 0.0000000000000000000, 0.0000000000000000000, 0.0000000000000000000 ) ) ;
#37 = EDGE_CURVE ( 'NONE', #77, #155, #285, .T. ) ;
#38 = SURFACE_STYLE_USAGE ( .BOTH. , #321 ) ;
#39 = FACE_OUTER_BOUND ( 'NONE', #101, .T. ) ;
#40 = LENGTH_MEASURE_WITH_UNIT ( LENGTH_MEASURE( 0.02539999999999999897 ), #59 );
#41 = CIRCLE ( 'NONE', #225, 0.3124500000000001165 ) ;
#42 = CARTESIAN_POINT ( 'NONE',  ( -0.2975000000000003197, 0.0000000000000000000, 3.500000000000000000 ) ) ;
#43 = CARTESIAN_POINT ( 'NONE',  ( 0.0000000000000000000, 0.0000000000000000000, 0.1760629645893753426 ) ) ;
#44 = CARTESIAN_POINT ( 'NONE',  ( 0.007499999999999999722, 0.0000000000000000000, 1.707404996040164512E-17 ) ) ;
#45 = DIRECTION ( 'NONE',  ( -1.000000000000000000, 0.0000000000000000000, 0.0000000000000000000 ) ) ;
#46 =( LENGTH_UNIT ( ) NAMED_UNIT ( * ) SI_UNIT ( $, .METRE. ) );
#47 = FACE_OUTER_BOUND ( 'NONE', #213, .T. ) ;
#48 = FILL_AREA_STYLE_COLOUR ( '', #72 ) ;
#49 = SURFACE_STYLE_FILL_AREA ( #111 ) ;
#50 = AXIS2_PLACEMENT_3D ( 'NONE', #62, #244, #294 ) ;
#51 = ADVANCED_FACE ( 'NONE', ( #47 ), #163, .F. ) ;
#52 = CARTESIAN_POINT ( 'NONE',  ( -0.007499999999999999722, 1.959128716935978978E-17, 1.707404996040164512E-17 ) ) ;
#53 = ORIENTED_EDGE ( 'NONE', *, *, #198, .F. ) ;
#54 = ORIENTED_EDGE ( 'NONE', *, *, #103, .T. ) ;
#55 = CARTESIAN_POINT ( 'NONE',  ( 0.2975000000000003197, 3.735172737399428256E-17, 3.500000000000000000 ) ) ;
#56 = CARTESIAN_POINT ( 'NONE',  ( 0.0000000000000000000, 0.0000000000000000000, 3.500000000000000000 ) ) ;
#57 = EDGE_LOOP ( 'NONE', ( #175, #125, #235, #78 ) ) ;
#58 = FACE_OUTER_BOUND ( 'NONE', #179, .T. ) ;
#59 =( LENGTH_UNIT ( ) NAMED_UNIT ( * ) SI_UNIT ( $, .METRE. ) );
#60 = DIRECTION ( 'NONE',  ( 1.000000000000000000, 0.0000000000000000000, 0.0000000000000000000 ) ) ;
#61 = PRODUCT_RELATED_PRODUCT_CATEGORY ( 'part', '', ( #252 ) ) ;
#62 = CARTESIAN_POINT ( 'NONE',  ( 0.0000000000000000000, 0.0000000000000000000, 3.500000000000000000 ) ) ;
#63 = VECTOR ( 'NONE', #115, 39.37007874015748143 ) ;
#64 = DIRECTION ( 'NONE',  ( 0.0000000000000000000, 0.0000000000000000000, 1.000000000000000000 ) ) ;
#65 = ADVANCED_FACE ( 'NONE', ( #236 ), #135, .T. ) ;
#66 = DIRECTION ( 'NONE',  ( -0.0000000000000000000, -0.0000000000000000000, -1.000000000000000000 ) ) ;
#67 =( NAMED_UNIT ( * ) SI_UNIT ( $, .STERADIAN. ) SOLID_ANGLE_UNIT ( ) );
#68 = EDGE_CURVE ( 'NONE', #7, #74, #15, .T. ) ;
#69 = LENGTH_MEASURE_WITH_UNIT ( LENGTH_MEASURE( 0.02539999999999999897 ), #197 );
#70 = EDGE_CURVE ( 'NONE', #281, #3, #256, .T. ) ;
#71 = AXIS2_PLACEMENT_3D ( 'NONE', #318, #172, #275 ) ;
#72 = COLOUR_RGB ( '',0.7921568627450980005, 0.8196078431372548767, 0.9333333333333333481 ) ;
#73 = EDGE_CURVE ( 'NONE', #155, #77, #324, .T. ) ;
#74 = VERTEX_POINT ( 'NONE', #10 ) ;
#75 = AXIS2_PLACEMENT_3D ( 'NONE', #210, #8, #139 ) ;
#76 = CARTESIAN_POINT ( 'NONE',  ( 0.3124500000000001720, 0.0000000000000000000, 0.1760629645893753426 ) ) ;
#77 = VERTEX_POINT ( 'NONE', #215 ) ;
#78 = ORIENTED_EDGE ( 'NONE', *, *, #82, .F. ) ;
#79 = ORIENTED_EDGE ( 'NONE', *, *, #37, .T. ) ;
#80 = ORIENTED_EDGE ( 'NONE', *, *, #116, .T. ) ;
#81 = DIRECTION ( 'NONE',  ( -1.000000000000000000, 0.0000000000000000000, 0.0000000000000000000 ) ) ;
#82 = EDGE_CURVE ( 'NONE', #211, #3, #89, .T. ) ;
#83 = DIRECTION ( 'NONE',  ( 1.000000000000000000, 0.0000000000000000000, -0.0000000000000000000 ) ) ;
#84 = CARTESIAN_POINT ( 'NONE',  ( -0.3125000000000000000, 0.0000000000000000000, 1.250000000000000000 ) ) ;
#85 = DIRECTION ( 'NONE',  ( 1.000000000000000000, 0.0000000000000000000, 0.0000000000000000000 ) ) ;
#86 = CARTESIAN_POINT ( 'NONE',  ( -0.3125000000000000000, 0.0000000000000000000, 3.500000000000000000 ) ) ;
#87 =( CONVERSION_BASED_UNIT ( 'INCH', #40 ) LENGTH_UNIT ( ) NAMED_UNIT ( #314 ) );
#88 = DIRECTION ( 'NONE',  ( -0.0000000000000000000, -0.0000000000000000000, -1.000000000000000000 ) ) ;
#89 = LINE ( 'NONE', #196, #142 ) ;
#90 = DIRECTION ( 'NONE',  ( 0.0000000000000000000, 0.0000000000000000000, 1.000000000000000000 ) ) ;
#91 = AXIS2_PLACEMENT_3D ( 'NONE', #35, #305, #254 ) ;
#92 = AXIS2_PLACEMENT_3D ( 'NONE', #131, #286, #259 ) ;
#93 = APPLICATION_CONTEXT ( 'automotive_design' ) ;
#94 = VECTOR ( 'NONE', #158, 39.37007874015748143 ) ;
#95 = ORIENTED_EDGE ( 'NONE', *, *, #198, .T. ) ;
#96 = ORIENTED_EDGE ( 'NONE', *, *, #82, .T. ) ;
#97 = AXIS2_PLACEMENT_3D ( 'NONE', #267, #315, #133 ) ;
#98 = DIRECTION ( 'NONE',  ( -0.0000000000000000000, -0.0000000000000000000, -1.000000000000000000 ) ) ;
#99 = ORIENTED_EDGE ( 'NONE', *, *, #322, .F. ) ;
#100 = EDGE_LOOP ( 'NONE', ( #304, #123 ) ) ;
#101 = EDGE_LOOP ( 'NONE', ( #152, #178, #227, #53 ) ) ;
#102 = CARTESIAN_POINT ( 'NONE',  ( 0.0000000000000000000, 0.0000000000000000000, 3.500000000000000000 ) ) ;
#103 = EDGE_CURVE ( 'NONE', #155, #3, #241, .T. ) ;
#104 = DIRECTION ( 'NONE',  ( -0.0000000000000000000, -0.0000000000000000000, -1.000000000000000000 ) ) ;
#105 = DIRECTION ( 'NONE',  ( -1.000000000000000000, 0.0000000000000000000, 0.0000000000000000000 ) ) ;
#106 =( GEOMETRIC_REPRESENTATION_CONTEXT ( 3 ) GLOBAL_UNCERTAINTY_ASSIGNED_CONTEXT ( ( #174 ) ) GLOBAL_UNIT_ASSIGNED_CONTEXT ( ( #24, #319, #67 ) ) REPRESENTATION_CONTEXT ( 'NONE', 'WORKASPACE' ) );
#107 = DIRECTION ( 'NONE',  ( -0.0000000000000000000, -0.0000000000000000000, -1.000000000000000000 ) ) ;
#108 = DIMENSIONAL_EXPONENTS ( 1.000000000000000000, 0.0000000000000000000, 0.0000000000000000000, 0.0000000000000000000, 0.0000000000000000000, 0.0000000000000000000, 0.0000000000000000000 ) ;
#109 = CARTESIAN_POINT ( 'NONE',  ( 0.0000000000000000000, 0.0000000000000000000, 1.250000000000000000 ) ) ;
#110 = CARTESIAN_POINT ( 'NONE',  ( 0.3124500000000001720, 3.826408923935906669E-17, 0.0000000000000000000 ) ) ;
#111 = FILL_AREA_STYLE ('',( #48 ) ) ;
#112 = PLANE ( 'NONE',  #71 ) ;
#113 = AXIS2_PLACEMENT_3D ( 'NONE', #36, #237, #81 ) ;
#114 = DIRECTION ( 'NONE',  ( -0.0000000000000000000, -0.0000000000000000000, -1.000000000000000000 ) ) ;
#115 = DIRECTION ( 'NONE',  ( -0.0000000000000000000, -0.0000000000000000000, -1.000000000000000000 ) ) ;
#116 = EDGE_CURVE ( 'NONE', #307, #74, #168, .T. ) ;
#117 = PRODUCT_DEFINITION ( 'UNKNOWN', '', #209, #283 ) ;
#118 =( GEOMETRIC_REPRESENTATION_CONTEXT ( 3 ) GLOBAL_UNCERTAINTY_ASSIGNED_CONTEXT ( ( #5 ) ) GLOBAL_UNIT_ASSIGNED_CONTEXT ( ( #87, #270, #190 ) ) REPRESENTATION_CONTEXT ( 'NONE', 'WORKASPACE' ) );
#119 = SHAPE_DEFINITION_REPRESENTATION ( #204, #173 ) ;
#120 = MANIFOLD_SOLID_BREP ( 'Cut-Revolve4', #264 ) ;
#121 = APPLICATION_PROTOCOL_DEFINITION ( 'draft international standard', 'automotive_design', 1998, #12 ) ;
#122 = VERTEX_POINT ( 'NONE', #20 ) ;
#123 = ORIENTED_EDGE ( 'NONE', *, *, #247, .T. ) ;
#124 = ORIENTED_EDGE ( 'NONE', *, *, #134, .T. ) ;
#125 = ORIENTED_EDGE ( 'NONE', *, *, #145, .T. ) ;
#126 =( GEOMETRIC_REPRESENTATION_CONTEXT ( 3 ) GLOBAL_UNCERTAINTY_ASSIGNED_CONTEXT ( ( #150 ) ) GLOBAL_UNIT_ASSIGNED_CONTEXT ( ( #246, #271, #16 ) ) REPRESENTATION_CONTEXT ( 'NONE', 'WORKASPACE' ) );
#127 = ORIENTED_EDGE ( 'NONE', *, *, #273, .F. ) ;
#128 = DIRECTION ( 'NONE',  ( -1.000000000000000000, 0.0000000000000000000, 0.0000000000000000000 ) ) ;
#129 = ORIENTED_EDGE ( 'NONE', *, *, #73, .T. ) ;
#130 = CYLINDRICAL_SURFACE ( 'NONE', #18, 0.3125000000000000000 ) ;
#131 = CARTESIAN_POINT ( 'NONE',  ( 0.0000000000000000000, 0.0000000000000000000, 3.500000000000000000 ) ) ;
#132 = CARTESIAN_POINT ( 'NONE',  ( 0.0000000000000000000, 0.0000000000000000000, 0.0000000000000000000 ) ) ;
#133 = DIRECTION ( 'NONE',  ( -1.000000000000000000, 0.0000000000000000000, 0.0000000000000000000 ) ) ;
#134 = EDGE_CURVE ( 'NONE', #307, #185, #293, .T. ) ;
#135 = CONICAL_SURFACE ( 'NONE', #50, 0.2975000000000003197, 0.7853981633974300713 ) ;
#136 = AXIS2_PLACEMENT_3D ( 'NONE', #109, #214, #128 ) ;
#137 = DIRECTION ( 'NONE',  ( -0.7071067811865346942, 0.0000000000000000000, -0.7071067811865603403 ) ) ;
#138 = CARTESIAN_POINT ( 'NONE',  ( 0.0000000000000000000, 0.0000000000000000000, 1.250000000000000000 ) ) ;
#139 = DIRECTION ( 'NONE',  ( -1.000000000000000000, 0.0000000000000000000, 0.0000000000000000000 ) ) ;
#140 = CARTESIAN_POINT ( 'NONE',  ( 0.3124500000000002276, 3.826408923935907901E-17, 1.250000000000000000 ) ) ;
#141 = CARTESIAN_POINT ( 'NONE',  ( 0.0000000000000000000, 0.0000000000000000000, 0.0000000000000000000 ) ) ;
#142 = VECTOR ( 'NONE', #222, 39.37007874015748143 ) ;
#143 = DIRECTION ( 'NONE',  ( 0.0000000000000000000, 0.0000000000000000000, 1.000000000000000000 ) ) ;
#144 = FACE_OUTER_BOUND ( 'NONE', #226, .T. ) ;
#145 = EDGE_CURVE ( 'NONE', #34, #281, #165, .T. ) ;
#146 = DIRECTION ( 'NONE',  ( 1.000000000000000000, 0.0000000000000000000, 0.0000000000000000000 ) ) ;
#147 = CIRCLE ( 'NONE', #92, 0.2975000000000003197 ) ;
#148 = PRODUCT_CONTEXT ( 'NONE', #93, 'mechanical' ) ;
#149 = EDGE_LOOP ( 'NONE', ( #234, #182 ) ) ;
#150 = UNCERTAINTY_MEASURE_WITH_UNIT (LENGTH_MEASURE( 1.000000000000000082E-05 ), #246, 'distance_accuracy_value', 'NONE');
#151 = ORIENTED_EDGE ( 'NONE', *, *, #22, .T. ) ;
#152 = ORIENTED_EDGE ( 'NONE', *, *, #68, .F. ) ;
#153 = CARTESIAN_POINT ( 'NONE',  ( 0.0000000000000000000, 0.0000000000000000000, 1.707404996040164512E-17 ) ) ;
#154 = AXIS2_PLACEMENT_3D ( 'NONE', #153, #4, #191 ) ;
#155 = VERTEX_POINT ( 'NONE', #140 ) ;
#156 = CARTESIAN_POINT ( 'NONE',  ( 0.3125000000000000000, 3.827021247335478926E-17, 3.500000000000000000 ) ) ;
#157 = STYLED_ITEM ( 'NONE', ( #272 ), #173 ) ;
#158 = DIRECTION ( 'NONE',  ( 0.7071067811865346942, 8.659560562354773853E-17, -0.7071067811865603403 ) ) ;
#159 = DIRECTION ( 'NONE',  ( -0.0000000000000000000, -0.0000000000000000000, -1.000000000000000000 ) ) ;
#160 = CARTESIAN_POINT ( 'NONE',  ( 0.0000000000000000000, 0.0000000000000000000, 1.707404996040164512E-17 ) ) ;
#161 = AXIS2_PLACEMENT_3D ( 'NONE', #28, #229, #27 ) ;
#162 = AXIS2_PLACEMENT_3D ( 'NONE', #263, #183, #85 ) ;
#163 = PLANE ( 'NONE',  #309 ) ;
#164 = DIRECTION ( 'NONE',  ( 1.000000000000000000, 0.0000000000000000000, -0.0000000000000000000 ) ) ;
#165 = LINE ( 'NONE', #166, #171 ) ;
#166 = CARTESIAN_POINT ( 'NONE',  ( -0.007499999999999999722, 9.184850993605147975E-19, 1.707404996040164512E-17 ) ) ;
#167 = ADVANCED_FACE ( 'NONE', ( #243, #17 ), #112, .T. ) ;
#168 = CIRCLE ( 'NONE', #184, 0.3125000000000000000 ) ;
#169 = DIRECTION ( 'NONE',  ( -1.000000000000000000, 0.0000000000000000000, 0.0000000000000000000 ) ) ;
#170 = CARTESIAN_POINT ( 'NONE',  ( 0.0000000000000000000, 0.0000000000000000000, 3.500000000000000000 ) ) ;
#171 = VECTOR ( 'NONE', #269, 39.37007874015748143 ) ;
#172 = DIRECTION ( 'NONE',  ( -0.0000000000000000000, 0.0000000000000000000, -1.000000000000000000 ) ) ;
#173 = ADVANCED_BREP_SHAPE_REPRESENTATION ( 'Micro_DM-625-4120X', ( #120, #312 ), #126 ) ;
#174 = UNCERTAINTY_MEASURE_WITH_UNIT (LENGTH_MEASURE( 1.000000000000000082E-05 ), #24, 'distance_accuracy_value', 'NONE');
#175 = ORIENTED_EDGE ( 'NONE', *, *, #240, .F. ) ;
#176 = COLOUR_RGB ( '',0.7921568627450980005, 0.8196078431372548767, 0.9333333333333333481 ) ;
#177 = AXIS2_PLACEMENT_3D ( 'NONE', #186, #64, #164 ) ;
#178 = ORIENTED_EDGE ( 'NONE', *, *, #328, .F. ) ;
#179 = EDGE_LOOP ( 'NONE', ( #205, #129, #232, #253 ) ) ;
#180 = DIRECTION ( 'NONE',  ( -0.0000000000000000000, -0.0000000000000000000, -1.000000000000000000 ) ) ;
#181 = FACE_OUTER_BOUND ( 'NONE', #57, .T. ) ;
#182 = ORIENTED_EDGE ( 'NONE', *, *, #73, .F. ) ;
#183 = DIRECTION ( 'NONE',  ( 0.0000000000000000000, 0.0000000000000000000, -1.000000000000000000 ) ) ;
#184 = AXIS2_PLACEMENT_3D ( 'NONE', #194, #289, #311 ) ;
#185 = VERTEX_POINT ( 'NONE', #84 ) ;
#186 = CARTESIAN_POINT ( 'NONE',  ( 0.0000000000000000000, 0.0000000000000000000, 3.500000000000000000 ) ) ;
#187 = ADVANCED_FACE ( 'NONE', ( #58 ), #14, .T. ) ;
#188 = PRESENTATION_STYLE_ASSIGNMENT (( #38 ) ) ;
#189 = LINE ( 'NONE', #42, #31 ) ;
#190 =( NAMED_UNIT ( * ) SI_UNIT ( $, .STERADIAN. ) SOLID_ANGLE_UNIT ( ) );
#191 = DIRECTION ( 'NONE',  ( 1.000000000000000000, 0.0000000000000000000, 0.0000000000000000000 ) ) ;
#192 = STYLED_ITEM ( 'NONE', ( #188 ), #120 ) ;
#193 = VECTOR ( 'NONE', #98, 39.37007874015748143 ) ;
#194 = CARTESIAN_POINT ( 'NONE',  ( 0.0000000000000000000, 0.0000000000000000000, 3.484999999999999432 ) ) ;
#195 = DIMENSIONAL_EXPONENTS ( 1.000000000000000000, 0.0000000000000000000, 0.0000000000000000000, 0.0000000000000000000, 0.0000000000000000000, 0.0000000000000000000, 0.0000000000000000000 ) ;
#196 = CARTESIAN_POINT ( 'NONE',  ( 0.007499999999999999722, 0.0000000000000000000, 1.707404996040164512E-17 ) ) ;
#197 =( LENGTH_UNIT ( ) NAMED_UNIT ( * ) SI_UNIT ( $, .METRE. ) );
#198 = EDGE_CURVE ( 'NONE', #74, #307, #296, .T. ) ;
#199 = DIRECTION ( 'NONE',  ( 1.000000000000000000, 0.0000000000000000000, 0.0000000000000000000 ) ) ;
#200 = VECTOR ( 'NONE', #107, 39.37007874015748143 ) ;
#201 = EDGE_CURVE ( 'NONE', #208, #307, #189, .T. ) ;
#202 = ADVANCED_FACE ( 'NONE', ( #11 ), #325, .T. ) ;
#203 = ORIENTED_EDGE ( 'NONE', *, *, #287, .T. ) ;
#204 = PRODUCT_DEFINITION_SHAPE ( 'NONE', 'NONE',  #117 ) ;
#205 = ORIENTED_EDGE ( 'NONE', *, *, #103, .F. ) ;
#206 = AXIS2_PLACEMENT_3D ( 'NONE', #160, #282, #60 ) ;
#207 = ORIENTED_EDGE ( 'NONE', *, *, #68, .T. ) ;
#208 = VERTEX_POINT ( 'NONE', #212 ) ;
#209 = PRODUCT_DEFINITION_FORMATION_WITH_SPECIFIED_SOURCE ( 'ANY', '', #252, .NOT_KNOWN. ) ;
#210 = CARTESIAN_POINT ( 'NONE',  ( 0.0000000000000000000, 0.0000000000000000000, 1.707404996040164512E-17 ) ) ;
#211 = VERTEX_POINT ( 'NONE', #44 ) ;
#212 = CARTESIAN_POINT ( 'NONE',  ( -0.2975000000000003197, 0.0000000000000000000, 3.500000000000000000 ) ) ;
#213 = EDGE_LOOP ( 'NONE', ( #151, #308 ) ) ;
#214 = DIRECTION ( 'NONE',  ( -0.0000000000000000000, -0.0000000000000000000, -1.000000000000000000 ) ) ;
#215 = CARTESIAN_POINT ( 'NONE',  ( -0.3124500000000002276, 0.0000000000000000000, 1.250000000000000000 ) ) ;
#216 = FACE_OUTER_BOUND ( 'NONE', #9, .T. ) ;
#217 = CARTESIAN_POINT ( 'NONE',  ( 0.0000000000000000000, 0.0000000000000000000, 1.250000000000000000 ) ) ;
#218 = FILL_AREA_STYLE ('',( #13 ) ) ;
#219 = APPLICATION_PROTOCOL_DEFINITION ( 'draft international standard', 'automotive_design', 1998, #93 ) ;
#220 = CIRCLE ( 'NONE', #91, 0.007499999999999999722 ) ;
#221 = CIRCLE ( 'NONE', #231, 0.2975000000000003197 ) ;
#222 = DIRECTION ( 'NONE',  ( 0.8660254037844400399, 0.0000000000000000000, 0.4999999999999976685 ) ) ;
#223 = CARTESIAN_POINT ( 'NONE',  ( 0.0000000000000000000, 0.0000000000000000000, 0.1760629645893753426 ) ) ;
#224 = MECHANICAL_DESIGN_GEOMETRIC_PRESENTATION_REPRESENTATION (  '', ( #192 ), #118 ) ;
#225 = AXIS2_PLACEMENT_3D ( 'NONE', #223, #88, #323 ) ;
#226 = EDGE_LOOP ( 'NONE', ( #80, #288, #280, #251 ) ) ;
#227 = ORIENTED_EDGE ( 'NONE', *, *, #201, .T. ) ;
#228 = EDGE_LOOP ( 'NONE', ( #127, #95, #124, #257 ) ) ;
#229 = DIRECTION ( 'NONE',  ( -0.0000000000000000000, -0.0000000000000000000, -1.000000000000000000 ) ) ;
#230 = PRESENTATION_LAYER_ASSIGNMENT (  '', '', ( #192 ) ) ;
#231 = AXIS2_PLACEMENT_3D ( 'NONE', #242, #90, #146 ) ;
#232 = ORIENTED_EDGE ( 'NONE', *, *, #322, .T. ) ;
#233 = ORIENTED_EDGE ( 'NONE', *, *, #287, .F. ) ;
#234 = ORIENTED_EDGE ( 'NONE', *, *, #37, .F. ) ;
#235 = ORIENTED_EDGE ( 'NONE', *, *, #70, .T. ) ;
#236 = FACE_OUTER_BOUND ( 'NONE', #301, .T. ) ;
#237 = DIRECTION ( 'NONE',  ( -0.0000000000000000000, -0.0000000000000000000, -1.000000000000000000 ) ) ;
#238 = CONICAL_SURFACE ( 'NONE', #249, 0.2975000000000003197, 0.7853981633974300713 ) ;
#239 = LINE ( 'NONE', #156, #193 ) ;
#240 = EDGE_CURVE ( 'NONE', #34, #211, #276, .T. ) ;
#241 = LINE ( 'NONE', #110, #200 ) ;
#242 = CARTESIAN_POINT ( 'NONE',  ( 0.0000000000000000000, 0.0000000000000000000, 3.500000000000000000 ) ) ;
#243 = FACE_BOUND ( 'NONE', #149, .T. ) ;
#244 = DIRECTION ( 'NONE',  ( 0.0000000000000000000, 0.0000000000000000000, -1.000000000000000000 ) ) ;
#245 = SURFACE_STYLE_USAGE ( .BOTH. , #317 ) ;
#246 =( CONVERSION_BASED_UNIT ( 'INCH', #248 ) LENGTH_UNIT ( ) NAMED_UNIT ( #195 ) );
#247 = EDGE_CURVE ( 'NONE', #122, #185, #19, .T. ) ;
#248 = LENGTH_MEASURE_WITH_UNIT ( LENGTH_MEASURE( 0.02539999999999999897 ), #46 );
#249 = AXIS2_PLACEMENT_3D ( 'NONE', #56, #306, #105 ) ;
#250 = ADVANCED_FACE ( 'NONE', ( #310 ), #33, .T. ) ;
#251 = ORIENTED_EDGE ( 'NONE', *, *, #134, .F. ) ;
#252 = PRODUCT ( 'Micro_DM-625-4120X', 'Micro_DM-625-4120X', '', ( #148 ) ) ;
#253 = ORIENTED_EDGE ( 'NONE', *, *, #320, .F. ) ;
#254 = DIRECTION ( 'NONE',  ( -1.000000000000000000, 0.0000000000000000000, 0.0000000000000000000 ) ) ;
#255 = ORIENTED_EDGE ( 'NONE', *, *, #320, .T. ) ;
#256 = CIRCLE ( 'NONE', #291, 0.3124500000000001165 ) ;
#257 = ORIENTED_EDGE ( 'NONE', *, *, #247, .F. ) ;
#258 = EDGE_LOOP ( 'NONE', ( #79, #54, #29, #99 ) ) ;
#259 = DIRECTION ( 'NONE',  ( 1.000000000000000000, 0.0000000000000000000, 0.0000000000000000000 ) ) ;
#260 = DIRECTION ( 'NONE',  ( -1.000000000000000000, 0.0000000000000000000, 0.0000000000000000000 ) ) ;
#261 = ADVANCED_FACE ( 'NONE', ( #39 ), #238, .T. ) ;
#262 = DIRECTION ( 'NONE',  ( -1.000000000000000000, 0.0000000000000000000, 0.0000000000000000000 ) ) ;
#263 = CARTESIAN_POINT ( 'NONE',  ( 0.0000000000000000000, 0.0000000000000000000, 3.484999999999999432 ) ) ;
#264 = CLOSED_SHELL ( 'NONE', ( #250, #274, #65, #299, #26, #297, #261, #167, #202, #187, #51 ) ) ;
#265 = CONICAL_SURFACE ( 'NONE', #154, 0.007499999999999999722, 1.047197551196600518 ) ;
#266 = CARTESIAN_POINT ( 'NONE',  ( 0.2975000000000003197, 3.643324227463378817E-17, 3.500000000000000000 ) ) ;
#267 = CARTESIAN_POINT ( 'NONE',  ( 0.0000000000000000000, 0.0000000000000000000, 0.0000000000000000000 ) ) ;
#268 = MECHANICAL_DESIGN_GEOMETRIC_PRESENTATION_REPRESENTATION (  '', ( #157 ), #106 ) ;
#269 = DIRECTION ( 'NONE',  ( -0.8660254037844400399, 1.060575238724908640E-16, 0.4999999999999976685 ) ) ;
#270 =( NAMED_UNIT ( * ) PLANE_ANGLE_UNIT ( ) SI_UNIT ( $, .RADIAN. ) );
#271 =( NAMED_UNIT ( * ) PLANE_ANGLE_UNIT ( ) SI_UNIT ( $, .RADIAN. ) );
#272 = PRESENTATION_STYLE_ASSIGNMENT (( #245 ) ) ;
#273 = EDGE_CURVE ( 'NONE', #74, #122, #239, .T. ) ;
#274 = ADVANCED_FACE ( 'NONE', ( #181 ), #265, .T. ) ;
#275 = DIRECTION ( 'NONE',  ( -1.000000000000000000, 0.0000000000000000000, 0.0000000000000000000 ) ) ;
#276 = CIRCLE ( 'NONE', #75, 0.007499999999999999722 ) ;
#277 = FACE_OUTER_BOUND ( 'NONE', #228, .T. ) ;
#278 = EDGE_LOOP ( 'NONE', ( #32, #25, #96, #255 ) ) ;
#279 = EDGE_CURVE ( 'NONE', #185, #122, #302, .T. ) ;
#280 = ORIENTED_EDGE ( 'NONE', *, *, #279, .F. ) ;
#281 = VERTEX_POINT ( 'NONE', #290 ) ;
#282 = DIRECTION ( 'NONE',  ( 0.0000000000000000000, 0.0000000000000000000, 1.000000000000000000 ) ) ;
#283 = PRODUCT_DEFINITION_CONTEXT ( 'detailed design', #12, 'design' ) ;
#284 = ORIENTED_EDGE ( 'NONE', *, *, #201, .F. ) ;
#285 = CIRCLE ( 'NONE', #161, 0.3124500000000002276 ) ;
#286 = DIRECTION ( 'NONE',  ( 0.0000000000000000000, 0.0000000000000000000, 1.000000000000000000 ) ) ;
#287 = EDGE_CURVE ( 'NONE', #7, #208, #147, .T. ) ;
#288 = ORIENTED_EDGE ( 'NONE', *, *, #273, .T. ) ;
#289 = DIRECTION ( 'NONE',  ( 0.0000000000000000000, 0.0000000000000000000, -1.000000000000000000 ) ) ;
#290 = CARTESIAN_POINT ( 'NONE',  ( -0.3124500000000001720, 3.826408923935907901E-17, 0.1760629645893753426 ) ) ;
#291 = AXIS2_PLACEMENT_3D ( 'NONE', #43, #114, #45 ) ;
#292 = AXIS2_PLACEMENT_3D ( 'NONE', #217, #159, #262 ) ;
#293 = LINE ( 'NONE', #86, #30 ) ;
#294 = DIRECTION ( 'NONE',  ( -1.000000000000000000, 0.0000000000000000000, 0.0000000000000000000 ) ) ;
#295 = DIRECTION ( 'NONE',  ( 0.0000000000000000000, 0.0000000000000000000, 1.000000000000000000 ) ) ;
#296 = CIRCLE ( 'NONE', #162, 0.3125000000000000000 ) ;
#297 = ADVANCED_FACE ( 'NONE', ( #216 ), #313, .T. ) ;
#298 = CARTESIAN_POINT ( 'NONE',  ( -0.3125000000000000000, 0.0000000000000000000, 3.484999999999999432 ) ) ;
#299 = ADVANCED_FACE ( 'NONE', ( #144 ), #21, .T. ) ;
#300 = DIRECTION ( 'NONE',  ( -0.0000000000000000000, -0.0000000000000000000, -1.000000000000000000 ) ) ;
#301 = EDGE_LOOP ( 'NONE', ( #233, #207, #303, #284 ) ) ;
#302 = CIRCLE ( 'NONE', #136, 0.3125000000000000000 ) ;
#303 = ORIENTED_EDGE ( 'NONE', *, *, #116, .F. ) ;
#304 = ORIENTED_EDGE ( 'NONE', *, *, #279, .T. ) ;
#305 = DIRECTION ( 'NONE',  ( -0.0000000000000000000, -0.0000000000000000000, -1.000000000000000000 ) ) ;
#306 = DIRECTION ( 'NONE',  ( 0.0000000000000000000, 0.0000000000000000000, -1.000000000000000000 ) ) ;
#307 = VERTEX_POINT ( 'NONE', #298 ) ;
#308 = ORIENTED_EDGE ( 'NONE', *, *, #240, .T. ) ;
#309 = AXIS2_PLACEMENT_3D ( 'NONE', #132, #143, #83 ) ;
#310 = FACE_OUTER_BOUND ( 'NONE', #258, .T. ) ;
#311 = DIRECTION ( 'NONE',  ( 1.000000000000000000, 0.0000000000000000000, 0.0000000000000000000 ) ) ;
#312 = AXIS2_PLACEMENT_3D ( 'NONE', #141, #295, #199 ) ;
#313 = PLANE ( 'NONE',  #177 ) ;
#314 = DIMENSIONAL_EXPONENTS ( 1.000000000000000000, 0.0000000000000000000, 0.0000000000000000000, 0.0000000000000000000, 0.0000000000000000000, 0.0000000000000000000, 0.0000000000000000000 ) ;
#315 = DIRECTION ( 'NONE',  ( -0.0000000000000000000, -0.0000000000000000000, -1.000000000000000000 ) ) ;
#316 = SURFACE_STYLE_FILL_AREA ( #218 ) ;
#317 = SURFACE_SIDE_STYLE ('',( #49 ) ) ;
#318 = CARTESIAN_POINT ( 'NONE',  ( 0.3124500000000002276, 0.0000000000000000000, 1.250000000000000000 ) ) ;
#319 =( NAMED_UNIT ( * ) PLANE_ANGLE_UNIT ( ) SI_UNIT ( $, .RADIAN. ) );
#320 = EDGE_CURVE ( 'NONE', #3, #281, #41, .T. ) ;
#321 = SURFACE_SIDE_STYLE ('',( #316 ) ) ;
#322 = EDGE_CURVE ( 'NONE', #77, #281, #23, .T. ) ;
#323 = DIRECTION ( 'NONE',  ( -1.000000000000000000, 0.0000000000000000000, 0.0000000000000000000 ) ) ;
#324 = CIRCLE ( 'NONE', #1, 0.3124500000000002276 ) ;
#325 = CONICAL_SURFACE ( 'NONE', #206, 0.007499999999999999722, 1.047197551196600518 ) ;
#326 = CARTESIAN_POINT ( 'NONE',  ( -0.3124500000000001720, 0.0000000000000000000, 0.0000000000000000000 ) ) ;
#327 = ORIENTED_EDGE ( 'NONE', *, *, #328, .T. ) ;
#328 = EDGE_CURVE ( 'NONE', #208, #7, #221, .T. ) ;
#329 = DIRECTION ( 'NONE',  ( -1.000000000000000000, 0.0000000000000000000, 0.0000000000000000000 ) ) ;
ENDSEC;
END-ISO-10303-21;
