ISO-10303-21;
HEADER;
FILE_DESCRIPTION (( 'STEP AP214' ),
    '1' );
FILE_NAME ('03197.STEP',
    '2023-06-22T15:02:31',
    ( '' ),
    ( '' ),
    'SwSTEP 2.0',
    'SolidWorks 2023',
    '' );
FILE_SCHEMA (( 'AUTOMOTIVE_DESIGN' ));
ENDSEC;

DATA;
#1 = ADVANCED_FACE ( 'NONE', ( #97 ), #30, .T. ) ;
#2 = DIRECTION ( 'NONE',  ( -3.498990854706726443E-17, 1.000000000000000000, -0.000000000000000000 ) ) ;
#3 = CARTESIAN_POINT ( 'NONE',  ( 0.1250000000000000278, 1.250000000000000000, 1.530808498934192125E-17 ) ) ;
#4 = FACE_OUTER_BOUND ( 'NONE', #243, .T. ) ;
#5 = AXIS2_PLACEMENT_3D ( 'NONE', #200, #180, #233 ) ;
#6 = VERTEX_POINT ( 'NONE', #211 ) ;
#7 = AXIS2_PLACEMENT_3D ( 'NONE', #156, #20, #234 ) ;
#8 = SURFACE_STYLE_USAGE ( .BOTH. , #140 ) ;
#9 = ORIENTED_EDGE ( 'NONE', *, *, #196, .F. ) ;
#10 =( NAMED_UNIT ( * ) PLANE_ANGLE_UNIT ( ) SI_UNIT ( $, .RADIAN. ) );
#11 = ADVANCED_BREP_SHAPE_REPRESENTATION ( '03197', ( #224, #222, #50 ), #38 ) ;
#12 = PRODUCT_DEFINITION ( 'UNKNOWN', '', #283, #236 ) ;
#13 = SURFACE_SIDE_STYLE ('',( #249 ) ) ;
#14 = VECTOR ( 'NONE', #163, 39.37007874015748143 ) ;
#15 = DIMENSIONAL_EXPONENTS ( 1.000000000000000000, 0.000000000000000000, 0.000000000000000000, 0.000000000000000000, 0.000000000000000000, 0.000000000000000000, 0.000000000000000000 ) ;
#16 =( LENGTH_UNIT ( ) NAMED_UNIT ( * ) SI_UNIT ( $, .METRE. ) );
#17 =( CONVERSION_BASED_UNIT ( 'INCH', #106 ) LENGTH_UNIT ( ) NAMED_UNIT ( #229 ) );
#18 = DIMENSIONAL_EXPONENTS ( 1.000000000000000000, 0.000000000000000000, 0.000000000000000000, 0.000000000000000000, 0.000000000000000000, 0.000000000000000000, 0.000000000000000000 ) ;
#19 = ORIENTED_EDGE ( 'NONE', *, *, #203, .F. ) ;
#20 = DIRECTION ( 'NONE',  ( -0.000000000000000000, -1.000000000000000000, -0.000000000000000000 ) ) ;
#21 =( GEOMETRIC_REPRESENTATION_CONTEXT ( 3 ) GLOBAL_UNCERTAINTY_ASSIGNED_CONTEXT ( ( #91 ) ) GLOBAL_UNIT_ASSIGNED_CONTEXT ( ( #219, #10, #67 ) ) REPRESENTATION_CONTEXT ( 'NONE', 'WORKASPACE' ) );
#22 = DIRECTION ( 'NONE',  ( -0.000000000000000000, -1.000000000000000000, -0.000000000000000000 ) ) ;
#23 = ORIENTED_EDGE ( 'NONE', *, *, #226, .T. ) ;
#24 = LENGTH_MEASURE_WITH_UNIT ( LENGTH_MEASURE( 0.02539999999999999897 ), #48 );
#25 =( LENGTH_UNIT ( ) NAMED_UNIT ( * ) SI_UNIT ( $, .METRE. ) );
#26 = ORIENTED_EDGE ( 'NONE', *, *, #196, .T. ) ;
#27 = DIRECTION ( 'NONE',  ( -1.000000000000000000, 0.000000000000000000, 0.000000000000000000 ) ) ;
#28 = CIRCLE ( 'NONE', #43, 0.1250000000000000278 ) ;
#29 = DIRECTION ( 'NONE',  ( 0.000000000000000000, -0.000000000000000000, 1.000000000000000000 ) ) ;
#30 = CYLINDRICAL_SURFACE ( 'NONE', #133, 0.1250000000000000278 ) ;
#31 = DIMENSIONAL_EXPONENTS ( 1.000000000000000000, 0.000000000000000000, 0.000000000000000000, 0.000000000000000000, 0.000000000000000000, 0.000000000000000000, 0.000000000000000000 ) ;
#32 = CARTESIAN_POINT ( 'NONE',  ( -6.123233995736772199E-17, 3.000000000000000444, 0.000000000000000000 ) ) ;
#33 = ORIENTED_EDGE ( 'NONE', *, *, #171, .F. ) ;
#34 = CARTESIAN_POINT ( 'NONE',  ( 0.000000000000000000, 0.000000000000000000, 0.000000000000000000 ) ) ;
#35 = EDGE_LOOP ( 'NONE', ( #248, #108, #78, #33 ) ) ;
#36 = VECTOR ( 'NONE', #57, 39.37007874015748143 ) ;
#37 = CARTESIAN_POINT ( 'NONE',  ( 0.1249999999999999584, 3.000000000000000444, 1.530808498934191817E-17 ) ) ;
#38 =( GEOMETRIC_REPRESENTATION_CONTEXT ( 3 ) GLOBAL_UNCERTAINTY_ASSIGNED_CONTEXT ( ( #53 ) ) GLOBAL_UNIT_ASSIGNED_CONTEXT ( ( #130, #230, #261 ) ) REPRESENTATION_CONTEXT ( 'NONE', 'WORKASPACE' ) );
#39 = FILL_AREA_STYLE ('',( #113 ) ) ;
#40 = ADVANCED_FACE ( 'NONE', ( #62 ), #173, .F. ) ;
#41 = ORIENTED_EDGE ( 'NONE', *, *, #289, .F. ) ;
#42 = PRESENTATION_LAYER_ASSIGNMENT (  '', '', ( #223 ) ) ;
#43 = AXIS2_PLACEMENT_3D ( 'NONE', #136, #189, #77 ) ;
#44 = DIMENSIONAL_EXPONENTS ( 1.000000000000000000, 0.000000000000000000, 0.000000000000000000, 0.000000000000000000, 0.000000000000000000, 0.000000000000000000, 0.000000000000000000 ) ;
#45 = PRESENTATION_STYLE_ASSIGNMENT (( #107 ) ) ;
#46 = PRODUCT_DEFINITION_SHAPE ( 'NONE', 'NONE',  #12 ) ;
#47 = FACE_OUTER_BOUND ( 'NONE', #158, .T. ) ;
#48 =( LENGTH_UNIT ( ) NAMED_UNIT ( * ) SI_UNIT ( $, .METRE. ) );
#49 = AXIS2_PLACEMENT_3D ( 'NONE', #81, #170, #209 ) ;
#50 = AXIS2_PLACEMENT_3D ( 'NONE', #34, #213, #237 ) ;
#51 = PRESENTATION_STYLE_ASSIGNMENT (( #157 ) ) ;
#52 = ORIENTED_EDGE ( 'NONE', *, *, #111, .T. ) ;
#53 = UNCERTAINTY_MEASURE_WITH_UNIT (LENGTH_MEASURE( 1.000000000000000082E-05 ), #130, 'distance_accuracy_value', 'NONE');
#54 =( NAMED_UNIT ( * ) SI_UNIT ( $, .STERADIAN. ) SOLID_ANGLE_UNIT ( ) );
#55 = MECHANICAL_DESIGN_GEOMETRIC_PRESENTATION_REPRESENTATION (  '', ( #71 ), #251 ) ;
#56 =( NAMED_UNIT ( * ) PLANE_ANGLE_UNIT ( ) SI_UNIT ( $, .RADIAN. ) );
#57 = DIRECTION ( 'NONE',  ( -0.000000000000000000, -1.000000000000000000, -0.000000000000000000 ) ) ;
#58 =( LENGTH_UNIT ( ) NAMED_UNIT ( * ) SI_UNIT ( $, .METRE. ) );
#59 = EDGE_CURVE ( 'NONE', #75, #6, #298, .T. ) ;
#60 = FILL_AREA_STYLE_COLOUR ( '', #142 ) ;
#61 = MECHANICAL_DESIGN_GEOMETRIC_PRESENTATION_REPRESENTATION (  '', ( #85 ), #194 ) ;
#62 = FACE_OUTER_BOUND ( 'NONE', #184, .T. ) ;
#63 = FILL_AREA_STYLE_COLOUR ( '', #304 ) ;
#64 =( CONVERSION_BASED_UNIT ( 'INCH', #147 ) LENGTH_UNIT ( ) NAMED_UNIT ( #18 ) );
#65 = EDGE_CURVE ( 'NONE', #6, #239, #98, .T. ) ;
#66 = ORIENTED_EDGE ( 'NONE', *, *, #69, .T. ) ;
#67 =( NAMED_UNIT ( * ) SI_UNIT ( $, .STERADIAN. ) SOLID_ANGLE_UNIT ( ) );
#68 = SURFACE_SIDE_STYLE ('',( #132 ) ) ;
#69 = EDGE_CURVE ( 'NONE', #75, #205, #288, .T. ) ;
#70 = PLANE ( 'NONE',  #241 ) ;
#71 = STYLED_ITEM ( 'NONE', ( #217 ), #215 ) ;
#72 =( GEOMETRIC_REPRESENTATION_CONTEXT ( 3 ) GLOBAL_UNCERTAINTY_ASSIGNED_CONTEXT ( ( #149 ) ) GLOBAL_UNIT_ASSIGNED_CONTEXT ( ( #291, #246, #169 ) ) REPRESENTATION_CONTEXT ( 'NONE', 'WORKASPACE' ) );
#73 = CARTESIAN_POINT ( 'NONE',  ( 0.1249999999999999861, 3.000000000000000444, 0.000000000000000000 ) ) ;
#74 = UNCERTAINTY_MEASURE_WITH_UNIT (LENGTH_MEASURE( 1.000000000000000082E-05 ), #306, 'distance_accuracy_value', 'NONE');
#75 = VERTEX_POINT ( 'NONE', #268 ) ;
#76 = MECHANICAL_DESIGN_GEOMETRIC_PRESENTATION_REPRESENTATION (  '', ( #139 ), #21 ) ;
#77 = DIRECTION ( 'NONE',  ( -1.000000000000000000, 0.000000000000000000, 0.000000000000000000 ) ) ;
#78 = ORIENTED_EDGE ( 'NONE', *, *, #59, .T. ) ;
#79 =( CONVERSION_BASED_UNIT ( 'INCH', #297 ) LENGTH_UNIT ( ) NAMED_UNIT ( #44 ) );
#80 = CARTESIAN_POINT ( 'NONE',  ( -6.123233995736772199E-17, 3.000000000000000444, 0.000000000000000000 ) ) ;
#81 = CARTESIAN_POINT ( 'NONE',  ( -6.123233995736772199E-17, 3.000000000000000444, 0.000000000000000000 ) ) ;
#82 = EDGE_LOOP ( 'NONE', ( #262, #41 ) ) ;
#83 = CLOSED_SHELL ( 'NONE', ( #240, #215, #153, #146 ) ) ;
#84 = FILL_AREA_STYLE_COLOUR ( '', #188 ) ;
#85 = STYLED_ITEM ( 'NONE', ( #274 ), #146 ) ;
#86 = CARTESIAN_POINT ( 'NONE',  ( 0.000000000000000000, 0.000000000000000000, 0.000000000000000000 ) ) ;
#87 = DIRECTION ( 'NONE',  ( -1.000000000000000000, 0.000000000000000000, 0.000000000000000000 ) ) ;
#88 = ORIENTED_EDGE ( 'NONE', *, *, #65, .T. ) ;
#89 = DIRECTION ( 'NONE',  ( 0.000000000000000000, 0.000000000000000000, -1.000000000000000000 ) ) ;
#90 = PRODUCT_RELATED_PRODUCT_CATEGORY ( 'part', '', ( #308 ) ) ;
#91 = UNCERTAINTY_MEASURE_WITH_UNIT (LENGTH_MEASURE( 1.000000000000000082E-05 ), #219, 'distance_accuracy_value', 'NONE');
#92 = DIRECTION ( 'NONE',  ( 0.000000000000000000, 0.000000000000000000, -1.000000000000000000 ) ) ;
#93 = UNCERTAINTY_MEASURE_WITH_UNIT (LENGTH_MEASURE( 1.000000000000000082E-05 ), #64, 'distance_accuracy_value', 'NONE');
#94 = AXIS2_PLACEMENT_3D ( 'NONE', #295, #214, #300 ) ;
#95 =( NAMED_UNIT ( * ) PLANE_ANGLE_UNIT ( ) SI_UNIT ( $, .RADIAN. ) );
#96 = DIRECTION ( 'NONE',  ( -0.000000000000000000, -1.000000000000000000, -0.000000000000000000 ) ) ;
#97 = FACE_OUTER_BOUND ( 'NONE', #110, .T. ) ;
#98 = CIRCLE ( 'NONE', #49, 0.1250000000000000555 ) ;
#99 = DIRECTION ( 'NONE',  ( 0.000000000000000000, 1.000000000000000000, 0.000000000000000000 ) ) ;
#100 = CARTESIAN_POINT ( 'NONE',  ( 0.000000000000000000, 0.000000000000000000, -0.1250000000000000000 ) ) ;
#101 = CARTESIAN_POINT ( 'NONE',  ( -0.1250000000000001110, 3.000000000000000444, 0.000000000000000000 ) ) ;
#102 = CARTESIAN_POINT ( 'NONE',  ( 0.1250000000000000000, 3.000000000000000444, 1.530808498934192125E-17 ) ) ;
#103 = CARTESIAN_POINT ( 'NONE',  ( 1.530808498934191817E-17, 1.250000000000000000, 0.1250000000000000278 ) ) ;
#104 = CYLINDRICAL_SURFACE ( 'NONE', #144, 0.1250000000000000000 ) ;
#105 = CLOSED_SHELL ( 'NONE', ( #1, #40, #309, #257 ) ) ;
#106 = LENGTH_MEASURE_WITH_UNIT ( LENGTH_MEASURE( 0.02539999999999999897 ), #128 );
#107 = SURFACE_STYLE_USAGE ( .BOTH. , #68 ) ;
#108 = ORIENTED_EDGE ( 'NONE', *, *, #203, .T. ) ;
#109 = FACE_OUTER_BOUND ( 'NONE', #137, .T. ) ;
#110 = EDGE_LOOP ( 'NONE', ( #66, #23, #285, #247 ) ) ;
#111 = EDGE_CURVE ( 'NONE', #122, #175, #273, .T. ) ;
#112 = DIRECTION ( 'NONE',  ( 0.000000000000000000, 0.000000000000000000, -1.000000000000000000 ) ) ;
#113 = FILL_AREA_STYLE_COLOUR ( '', #293 ) ;
#114 = DIRECTION ( 'NONE',  ( -3.498990854706726443E-17, 1.000000000000000000, -0.000000000000000000 ) ) ;
#115 = CARTESIAN_POINT ( 'NONE',  ( 1.530808498934191509E-17, 0.000000000000000000, 0.1250000000000000000 ) ) ;
#116 = ORIENTED_EDGE ( 'NONE', *, *, #111, .F. ) ;
#117 = SHAPE_DEFINITION_REPRESENTATION ( #46, #11 ) ;
#118 = CARTESIAN_POINT ( 'NONE',  ( 1.530808498934191509E-17, 0.000000000000000000, 0.1250000000000000000 ) ) ;
#119 = ORIENTED_EDGE ( 'NONE', *, *, #171, .T. ) ;
#120 = PRESENTATION_LAYER_ASSIGNMENT (  '', '', ( #198 ) ) ;
#121 = FILL_AREA_STYLE ('',( #166 ) ) ;
#122 = VERTEX_POINT ( 'NONE', #141 ) ;
#123 = FILL_AREA_STYLE ('',( #60 ) ) ;
#124 = FILL_AREA_STYLE ('',( #63 ) ) ;
#125 =( GEOMETRIC_REPRESENTATION_CONTEXT ( 3 ) GLOBAL_UNCERTAINTY_ASSIGNED_CONTEXT ( ( #74 ) ) GLOBAL_UNIT_ASSIGNED_CONTEXT ( ( #306, #95, #255 ) ) REPRESENTATION_CONTEXT ( 'NONE', 'WORKASPACE' ) );
#126 = AXIS2_PLACEMENT_3D ( 'NONE', #242, #99, #29 ) ;
#127 = ORIENTED_EDGE ( 'NONE', *, *, #245, .T. ) ;
#128 =( LENGTH_UNIT ( ) NAMED_UNIT ( * ) SI_UNIT ( $, .METRE. ) );
#129 = MECHANICAL_DESIGN_GEOMETRIC_PRESENTATION_REPRESENTATION (  '', ( #198 ), #72 ) ;
#130 =( CONVERSION_BASED_UNIT ( 'INCH', #24 ) LENGTH_UNIT ( ) NAMED_UNIT ( #280 ) );
#131 = DIRECTION ( 'NONE',  ( 1.000000000000000000, 3.498990854706726443E-17, 0.000000000000000000 ) ) ;
#132 = SURFACE_STYLE_FILL_AREA ( #124 ) ;
#133 = AXIS2_PLACEMENT_3D ( 'NONE', #80, #2, #193 ) ;
#134 = AXIS2_PLACEMENT_3D ( 'NONE', #231, #204, #89 ) ;
#135 = FILL_AREA_STYLE_COLOUR ( '', #266 ) ;
#136 = CARTESIAN_POINT ( 'NONE',  ( 0.000000000000000000, 1.250000000000000000, 0.000000000000000000 ) ) ;
#137 = EDGE_LOOP ( 'NONE', ( #276, #159, #52, #265 ) ) ;
#138 = AXIS2_PLACEMENT_3D ( 'NONE', #218, #292, #167 ) ;
#139 = STYLED_ITEM ( 'NONE', ( #145 ), #224 ) ;
#140 = SURFACE_SIDE_STYLE ('',( #208 ) ) ;
#141 = CARTESIAN_POINT ( 'NONE',  ( 0.000000000000000000, 1.250000000000000000, -0.1250000000000000278 ) ) ;
#142 = COLOUR_RGB ( '',1.000000000000000000, 0.000000000000000000, 0.000000000000000000 ) ;
#143 = SURFACE_STYLE_FILL_AREA ( #121 ) ;
#144 = AXIS2_PLACEMENT_3D ( 'NONE', #86, #228, #179 ) ;
#145 = PRESENTATION_STYLE_ASSIGNMENT (( #148 ) ) ;
#146 = ADVANCED_FACE ( 'NONE', ( #4 ), #271, .T. ) ;
#147 = LENGTH_MEASURE_WITH_UNIT ( LENGTH_MEASURE( 0.02539999999999999897 ), #303 );
#148 = SURFACE_STYLE_USAGE ( .BOTH. , #176 ) ;
#149 = UNCERTAINTY_MEASURE_WITH_UNIT (LENGTH_MEASURE( 1.000000000000000082E-05 ), #291, 'distance_accuracy_value', 'NONE');
#150 = CYLINDRICAL_SURFACE ( 'NONE', #225, 0.1250000000000000278 ) ;
#151 =( NAMED_UNIT ( * ) SI_UNIT ( $, .STERADIAN. ) SOLID_ANGLE_UNIT ( ) );
#152 = APPLICATION_CONTEXT ( 'automotive_design' ) ;
#153 = ADVANCED_FACE ( 'NONE', ( #109 ), #256, .T. ) ;
#154 = DIRECTION ( 'NONE',  ( 3.498990854706726443E-17, -1.000000000000000000, 0.000000000000000000 ) ) ;
#155 = DIRECTION ( 'NONE',  ( -0.000000000000000000, -1.000000000000000000, -0.000000000000000000 ) ) ;
#156 = CARTESIAN_POINT ( 'NONE',  ( 0.000000000000000000, 0.000000000000000000, 0.000000000000000000 ) ) ;
#157 = SURFACE_STYLE_USAGE ( .BOTH. , #182 ) ;
#158 = EDGE_LOOP ( 'NONE', ( #88, #119 ) ) ;
#159 = ORIENTED_EDGE ( 'NONE', *, *, #289, .T. ) ;
#160 = PRESENTATION_LAYER_ASSIGNMENT (  '', '', ( #254 ) ) ;
#161 = EDGE_CURVE ( 'NONE', #190, #162, #186, .T. ) ;
#162 = VERTEX_POINT ( 'NONE', #118 ) ;
#163 = DIRECTION ( 'NONE',  ( -0.000000000000000000, -1.000000000000000000, -0.000000000000000000 ) ) ;
#164 = ORIENTED_EDGE ( 'NONE', *, *, #161, .T. ) ;
#165 = COLOUR_RGB ( '',1.000000000000000000, 0.000000000000000000, 0.000000000000000000 ) ;
#166 = FILL_AREA_STYLE_COLOUR ( '', #165 ) ;
#167 = DIRECTION ( 'NONE',  ( -1.000000000000000000, 0.000000000000000000, 0.000000000000000000 ) ) ;
#168 = DIRECTION ( 'NONE',  ( -3.498990854706726443E-17, 1.000000000000000000, -0.000000000000000000 ) ) ;
#169 =( NAMED_UNIT ( * ) SI_UNIT ( $, .STERADIAN. ) SOLID_ANGLE_UNIT ( ) );
#170 = DIRECTION ( 'NONE',  ( -3.498990854706726443E-17, 1.000000000000000000, -0.000000000000000000 ) ) ;
#171 = EDGE_CURVE ( 'NONE', #239, #6, #197, .T. ) ;
#172 = VECTOR ( 'NONE', #114, 39.37007874015748143 ) ;
#173 = PLANE ( 'NONE',  #94 ) ;
#174 = PRESENTATION_LAYER_ASSIGNMENT (  '', '', ( #139 ) ) ;
#175 = VERTEX_POINT ( 'NONE', #210 ) ;
#176 = SURFACE_SIDE_STYLE ('',( #275 ) ) ;
#177 = AXIS2_PLACEMENT_3D ( 'NONE', #259, #22, #92 ) ;
#178 = UNCERTAINTY_MEASURE_WITH_UNIT (LENGTH_MEASURE( 1.000000000000000082E-05 ), #17, 'distance_accuracy_value', 'NONE');
#179 = DIRECTION ( 'NONE',  ( 0.000000000000000000, 0.000000000000000000, -1.000000000000000000 ) ) ;
#180 = DIRECTION ( 'NONE',  ( 0.000000000000000000, -1.000000000000000000, -0.000000000000000000 ) ) ;
#181 = AXIS2_PLACEMENT_3D ( 'NONE', #192, #96, #112 ) ;
#182 = SURFACE_SIDE_STYLE ('',( #286 ) ) ;
#183 = FILL_AREA_STYLE ('',( #135 ) ) ;
#184 = EDGE_LOOP ( 'NONE', ( #260, #19 ) ) ;
#185 = MECHANICAL_DESIGN_GEOMETRIC_PRESENTATION_REPRESENTATION (  '', ( #254 ), #277 ) ;
#186 = LINE ( 'NONE', #115, #14 ) ;
#187 = APPLICATION_PROTOCOL_DEFINITION ( 'draft international standard', 'automotive_design', 1998, #279 ) ;
#188 = COLOUR_RGB ( '',0.7921568627450980005, 0.8196078431372548767, 0.9333333333333333481 ) ;
#189 = DIRECTION ( 'NONE',  ( -3.498990854706726443E-17, 1.000000000000000000, -0.000000000000000000 ) ) ;
#190 = VERTEX_POINT ( 'NONE', #103 ) ;
#191 = LINE ( 'NONE', #37, #235 ) ;
#192 = CARTESIAN_POINT ( 'NONE',  ( 0.000000000000000000, 0.000000000000000000, 0.000000000000000000 ) ) ;
#193 = DIRECTION ( 'NONE',  ( -1.000000000000000000, 0.000000000000000000, 0.000000000000000000 ) ) ;
#194 =( GEOMETRIC_REPRESENTATION_CONTEXT ( 3 ) GLOBAL_UNCERTAINTY_ASSIGNED_CONTEXT ( ( #93 ) ) GLOBAL_UNIT_ASSIGNED_CONTEXT ( ( #64, #56, #269 ) ) REPRESENTATION_CONTEXT ( 'NONE', 'WORKASPACE' ) );
#195 = CIRCLE ( 'NONE', #177, 0.1250000000000000278 ) ;
#196 = EDGE_CURVE ( 'NONE', #175, #162, #282, .T. ) ;
#197 = CIRCLE ( 'NONE', #212, 0.1250000000000000555 ) ;
#198 = STYLED_ITEM ( 'NONE', ( #270 ), #222 ) ;
#199 =( NAMED_UNIT ( * ) PLANE_ANGLE_UNIT ( ) SI_UNIT ( $, .RADIAN. ) );
#200 = CARTESIAN_POINT ( 'NONE',  ( 0.000000000000000000, 0.000000000000000000, 0.000000000000000000 ) ) ;
#201 = PRESENTATION_LAYER_ASSIGNMENT (  '', '', ( #71 ) ) ;
#202 = CIRCLE ( 'NONE', #134, 0.1250000000000000278 ) ;
#203 = EDGE_CURVE ( 'NONE', #205, #75, #28, .T. ) ;
#204 = DIRECTION ( 'NONE',  ( -0.000000000000000000, -1.000000000000000000, -0.000000000000000000 ) ) ;
#205 = VERTEX_POINT ( 'NONE', #3 ) ;
#206 = LENGTH_MEASURE_WITH_UNIT ( LENGTH_MEASURE( 0.02539999999999999897 ), #25 );
#207 = SURFACE_SIDE_STYLE ('',( #143 ) ) ;
#208 = SURFACE_STYLE_FILL_AREA ( #39 ) ;
#209 = DIRECTION ( 'NONE',  ( -1.000000000000000000, 0.000000000000000000, 0.000000000000000000 ) ) ;
#210 = CARTESIAN_POINT ( 'NONE',  ( 0.000000000000000000, 0.000000000000000000, -0.1250000000000000000 ) ) ;
#211 = CARTESIAN_POINT ( 'NONE',  ( -0.1250000000000001110, 3.000000000000000444, 0.000000000000000000 ) ) ;
#212 = AXIS2_PLACEMENT_3D ( 'NONE', #32, #168, #27 ) ;
#213 = DIRECTION ( 'NONE',  ( 0.000000000000000000, 0.000000000000000000, 1.000000000000000000 ) ) ;
#214 = DIRECTION ( 'NONE',  ( -3.498990854706726443E-17, 1.000000000000000000, 0.000000000000000000 ) ) ;
#215 = ADVANCED_FACE ( 'NONE', ( #238 ), #294, .T. ) ;
#216 = DIRECTION ( 'NONE',  ( -3.498990854706726443E-17, 1.000000000000000000, -0.000000000000000000 ) ) ;
#217 = PRESENTATION_STYLE_ASSIGNMENT (( #263 ) ) ;
#218 = CARTESIAN_POINT ( 'NONE',  ( 0.000000000000000000, 1.250000000000000000, 0.000000000000000000 ) ) ;
#219 =( CONVERSION_BASED_UNIT ( 'INCH', #221 ) LENGTH_UNIT ( ) NAMED_UNIT ( #305 ) );
#220 = SURFACE_STYLE_USAGE ( .BOTH. , #13 ) ;
#221 = LENGTH_MEASURE_WITH_UNIT ( LENGTH_MEASURE( 0.02539999999999999897 ), #16 );
#222 = MANIFOLD_SOLID_BREP ( 'Revolve - Tool Body (Straight Shanked)', #105 ) ;
#223 = STYLED_ITEM ( 'NONE', ( #51 ), #153 ) ;
#224 = MANIFOLD_SOLID_BREP ( 'Revolve - Cutting Edge', #83 ) ;
#225 = AXIS2_PLACEMENT_3D ( 'NONE', #232, #252, #87 ) ;
#226 = EDGE_CURVE ( 'NONE', #205, #239, #191, .T. ) ;
#227 = EDGE_LOOP ( 'NONE', ( #127, #164, #9, #116 ) ) ;
#228 = DIRECTION ( 'NONE',  ( -0.000000000000000000, -1.000000000000000000, -0.000000000000000000 ) ) ;
#229 = DIMENSIONAL_EXPONENTS ( 1.000000000000000000, 0.000000000000000000, 0.000000000000000000, 0.000000000000000000, 0.000000000000000000, 0.000000000000000000, 0.000000000000000000 ) ;
#230 =( NAMED_UNIT ( * ) PLANE_ANGLE_UNIT ( ) SI_UNIT ( $, .RADIAN. ) );
#231 = CARTESIAN_POINT ( 'NONE',  ( 0.000000000000000000, 1.250000000000000000, 0.000000000000000000 ) ) ;
#232 = CARTESIAN_POINT ( 'NONE',  ( -6.123233995736772199E-17, 3.000000000000000444, 0.000000000000000000 ) ) ;
#233 = DIRECTION ( 'NONE',  ( 0.000000000000000000, 0.000000000000000000, -1.000000000000000000 ) ) ;
#234 = DIRECTION ( 'NONE',  ( 0.000000000000000000, 0.000000000000000000, -1.000000000000000000 ) ) ;
#235 = VECTOR ( 'NONE', #216, 39.37007874015748143 ) ;
#236 = PRODUCT_DEFINITION_CONTEXT ( 'detailed design', #152, 'design' ) ;
#237 = DIRECTION ( 'NONE',  ( 1.000000000000000000, 0.000000000000000000, 0.000000000000000000 ) ) ;
#238 = FACE_OUTER_BOUND ( 'NONE', #82, .T. ) ;
#239 = VERTEX_POINT ( 'NONE', #102 ) ;
#240 = ADVANCED_FACE ( 'NONE', ( #299 ), #104, .T. ) ;
#241 = AXIS2_PLACEMENT_3D ( 'NONE', #73, #154, #131 ) ;
#242 = CARTESIAN_POINT ( 'NONE',  ( 0.000000000000000000, 1.250000000000000000, 0.000000000000000000 ) ) ;
#243 = EDGE_LOOP ( 'NONE', ( #26, #287 ) ) ;
#244 = LENGTH_MEASURE_WITH_UNIT ( LENGTH_MEASURE( 0.02539999999999999897 ), #58 );
#245 = EDGE_CURVE ( 'NONE', #122, #190, #202, .T. ) ;
#246 =( NAMED_UNIT ( * ) PLANE_ANGLE_UNIT ( ) SI_UNIT ( $, .RADIAN. ) );
#247 = ORIENTED_EDGE ( 'NONE', *, *, #59, .F. ) ;
#248 = ORIENTED_EDGE ( 'NONE', *, *, #226, .F. ) ;
#249 = SURFACE_STYLE_FILL_AREA ( #123 ) ;
#250 = FILL_AREA_STYLE ('',( #84 ) ) ;
#251 =( GEOMETRIC_REPRESENTATION_CONTEXT ( 3 ) GLOBAL_UNCERTAINTY_ASSIGNED_CONTEXT ( ( #281 ) ) GLOBAL_UNIT_ASSIGNED_CONTEXT ( ( #79, #264, #54 ) ) REPRESENTATION_CONTEXT ( 'NONE', 'WORKASPACE' ) );
#252 = DIRECTION ( 'NONE',  ( -3.498990854706726443E-17, 1.000000000000000000, -0.000000000000000000 ) ) ;
#253 = AXIS2_PLACEMENT_3D ( 'NONE', #284, #155, #258 ) ;
#254 = STYLED_ITEM ( 'NONE', ( #45 ), #240 ) ;
#255 =( NAMED_UNIT ( * ) SI_UNIT ( $, .STERADIAN. ) SOLID_ANGLE_UNIT ( ) );
#256 = CYLINDRICAL_SURFACE ( 'NONE', #253, 0.1250000000000000000 ) ;
#257 = ADVANCED_FACE ( 'NONE', ( #47 ), #70, .F. ) ;
#258 = DIRECTION ( 'NONE',  ( 0.000000000000000000, 0.000000000000000000, -1.000000000000000000 ) ) ;
#259 = CARTESIAN_POINT ( 'NONE',  ( 0.000000000000000000, 1.250000000000000000, 0.000000000000000000 ) ) ;
#260 = ORIENTED_EDGE ( 'NONE', *, *, #69, .F. ) ;
#261 =( NAMED_UNIT ( * ) SI_UNIT ( $, .STERADIAN. ) SOLID_ANGLE_UNIT ( ) );
#262 = ORIENTED_EDGE ( 'NONE', *, *, #245, .F. ) ;
#263 = SURFACE_STYLE_USAGE ( .BOTH. , #207 ) ;
#264 =( NAMED_UNIT ( * ) PLANE_ANGLE_UNIT ( ) SI_UNIT ( $, .RADIAN. ) );
#265 = ORIENTED_EDGE ( 'NONE', *, *, #278, .F. ) ;
#266 = COLOUR_RGB ( '',1.000000000000000000, 0.000000000000000000, 0.000000000000000000 ) ;
#267 =( LENGTH_UNIT ( ) NAMED_UNIT ( * ) SI_UNIT ( $, .METRE. ) );
#268 = CARTESIAN_POINT ( 'NONE',  ( -0.1250000000000000278, 1.250000000000000000, 0.000000000000000000 ) ) ;
#269 =( NAMED_UNIT ( * ) SI_UNIT ( $, .STERADIAN. ) SOLID_ANGLE_UNIT ( ) );
#270 = PRESENTATION_STYLE_ASSIGNMENT (( #8 ) ) ;
#271 = PLANE ( 'NONE',  #5 ) ;
#272 = MECHANICAL_DESIGN_GEOMETRIC_PRESENTATION_REPRESENTATION (  '', ( #223 ), #125 ) ;
#273 = LINE ( 'NONE', #100, #36 ) ;
#274 = PRESENTATION_STYLE_ASSIGNMENT (( #220 ) ) ;
#275 = SURFACE_STYLE_FILL_AREA ( #250 ) ;
#276 = ORIENTED_EDGE ( 'NONE', *, *, #161, .F. ) ;
#277 =( GEOMETRIC_REPRESENTATION_CONTEXT ( 3 ) GLOBAL_UNCERTAINTY_ASSIGNED_CONTEXT ( ( #178 ) ) GLOBAL_UNIT_ASSIGNED_CONTEXT ( ( #17, #199, #151 ) ) REPRESENTATION_CONTEXT ( 'NONE', 'WORKASPACE' ) );
#278 = EDGE_CURVE ( 'NONE', #162, #175, #302, .T. ) ;
#279 = APPLICATION_CONTEXT ( 'automotive_design' ) ;
#280 = DIMENSIONAL_EXPONENTS ( 1.000000000000000000, 0.000000000000000000, 0.000000000000000000, 0.000000000000000000, 0.000000000000000000, 0.000000000000000000, 0.000000000000000000 ) ;
#281 = UNCERTAINTY_MEASURE_WITH_UNIT (LENGTH_MEASURE( 1.000000000000000082E-05 ), #79, 'distance_accuracy_value', 'NONE');
#282 = CIRCLE ( 'NONE', #181, 0.1250000000000000000 ) ;
#283 = PRODUCT_DEFINITION_FORMATION_WITH_SPECIFIED_SOURCE ( 'ANY', '', #308, .NOT_KNOWN. ) ;
#284 = CARTESIAN_POINT ( 'NONE',  ( 0.000000000000000000, 0.000000000000000000, 0.000000000000000000 ) ) ;
#285 = ORIENTED_EDGE ( 'NONE', *, *, #65, .F. ) ;
#286 = SURFACE_STYLE_FILL_AREA ( #183 ) ;
#287 = ORIENTED_EDGE ( 'NONE', *, *, #278, .T. ) ;
#288 = CIRCLE ( 'NONE', #138, 0.1250000000000000278 ) ;
#289 = EDGE_CURVE ( 'NONE', #190, #122, #195, .T. ) ;
#290 = PRODUCT_CONTEXT ( 'NONE', #279, 'mechanical' ) ;
#291 =( CONVERSION_BASED_UNIT ( 'INCH', #244 ) LENGTH_UNIT ( ) NAMED_UNIT ( #31 ) );
#292 = DIRECTION ( 'NONE',  ( -3.498990854706726443E-17, 1.000000000000000000, -0.000000000000000000 ) ) ;
#293 = COLOUR_RGB ( '',0.7921568627450980005, 0.8196078431372548767, 0.9333333333333333481 ) ;
#294 = PLANE ( 'NONE',  #126 ) ;
#295 = CARTESIAN_POINT ( 'NONE',  ( 7.651835625825819045E-35, 1.250000000000000000, 0.000000000000000000 ) ) ;
#296 = APPLICATION_PROTOCOL_DEFINITION ( 'draft international standard', 'automotive_design', 1998, #152 ) ;
#297 = LENGTH_MEASURE_WITH_UNIT ( LENGTH_MEASURE( 0.02539999999999999897 ), #267 );
#298 = LINE ( 'NONE', #101, #172 ) ;
#299 = FACE_OUTER_BOUND ( 'NONE', #227, .T. ) ;
#300 = DIRECTION ( 'NONE',  ( -1.000000000000000000, -3.498990854706726443E-17, 0.000000000000000000 ) ) ;
#301 = PRESENTATION_LAYER_ASSIGNMENT (  '', '', ( #85 ) ) ;
#302 = CIRCLE ( 'NONE', #7, 0.1250000000000000000 ) ;
#303 =( LENGTH_UNIT ( ) NAMED_UNIT ( * ) SI_UNIT ( $, .METRE. ) );
#304 = COLOUR_RGB ( '',1.000000000000000000, 0.000000000000000000, 0.000000000000000000 ) ;
#305 = DIMENSIONAL_EXPONENTS ( 1.000000000000000000, 0.000000000000000000, 0.000000000000000000, 0.000000000000000000, 0.000000000000000000, 0.000000000000000000, 0.000000000000000000 ) ;
#306 =( CONVERSION_BASED_UNIT ( 'INCH', #206 ) LENGTH_UNIT ( ) NAMED_UNIT ( #15 ) );
#307 = FACE_OUTER_BOUND ( 'NONE', #35, .T. ) ;
#308 = PRODUCT ( '03197', '03197', '', ( #290 ) ) ;
#309 = ADVANCED_FACE ( 'NONE', ( #307 ), #150, .T. ) ;
ENDSEC;
END-ISO-10303-21;
