ISO-10303-21;
HEADER;
FILE_DESCRIPTION (( 'STEP AP214' ),
    '1' );
FILE_NAME ('Micro_GEC-312-2-020.STEP',
    '2021-09-03T17:18:37',
    ( '' ),
    ( '' ),
    'SwSTEP 2.0',
    'SolidWorks 2020',
    '' );
FILE_SCHEMA (( 'AUTOMOTIVE_DESIGN' ));
ENDSEC;

DATA;
#1 = CARTESIAN_POINT ( 'NONE',  ( -0.1560937499999998923, 1.912553868355905422E-17, 0.8129999999999999449 ) ) ;
#2 = ORIENTED_EDGE ( 'NONE', *, *, #178, .T. ) ;
#3 = PRESENTATION_STYLE_ASSIGNMENT (( #158 ) ) ;
#4 = DIRECTION ( 'NONE',  ( -1.000000000000000000, 0.0000000000000000000, 0.0000000000000000000 ) ) ;
#5 = AXIS2_PLACEMENT_3D ( 'NONE', #123, #152, #150 ) ;
#6 = CARTESIAN_POINT ( 'NONE',  ( 0.1412499999999994871, 1.821662113731684786E-17, 2.500000000000000000 ) ) ;
#7 = VERTEX_POINT ( 'NONE', #116 ) ;
#8 = PRODUCT_CONTEXT ( 'NONE', #117, 'mechanical' ) ;
#9 = CARTESIAN_POINT ( 'NONE',  ( 0.1560937500000000866, 0.0000000000000000000, 0.8129999999999999449 ) ) ;
#10 = DIRECTION ( 'NONE',  ( -1.224646799147353207E-16, -0.0000000000000000000, -1.000000000000000000 ) ) ;
#11 = AXIS2_PLACEMENT_3D ( 'NONE', #107, #10, #115 ) ;
#12 = LINE ( 'NONE', #120, #174 ) ;
#13 = STYLED_ITEM ( 'NONE', ( #3 ), #207 ) ;
#14 = DIRECTION ( 'NONE',  ( -1.000000000000000000, 0.0000000000000000000, 1.224646799147353207E-16 ) ) ;
#15 = DIRECTION ( 'NONE',  ( 1.000000000000000000, 0.0000000000000000000, 0.0000000000000000000 ) ) ;
#16 = DIRECTION ( 'NONE',  ( 0.0000000000000000000, 0.0000000000000000000, 1.000000000000000000 ) ) ;
#17 = DIRECTION ( 'NONE',  ( 1.224646799147353207E-16, 0.0000000000000000000, 1.000000000000000000 ) ) ;
#18 = EDGE_CURVE ( 'NONE', #51, #82, #72, .T. ) ;
#19 = AXIS2_PLACEMENT_3D ( 'NONE', #351, #76, #215 ) ;
#20 = DIRECTION ( 'NONE',  ( -1.224646799147353207E-16, -0.0000000000000000000, -1.000000000000000000 ) ) ;
#21 = FACE_OUTER_BOUND ( 'NONE', #38, .T. ) ;
#22 = UNCERTAINTY_MEASURE_WITH_UNIT (LENGTH_MEASURE( 1.000000000000000082E-05 ), #87, 'distance_accuracy_value', 'NONE');
#23 = VERTEX_POINT ( 'NONE', #245 ) ;
#24 = EDGE_LOOP ( 'NONE', ( #36, #57, #173, #68 ) ) ;
#25 = ORIENTED_EDGE ( 'NONE', *, *, #314, .F. ) ;
#26 = DIRECTION ( 'NONE',  ( -1.224646799147353207E-16, -0.0000000000000000000, -1.000000000000000000 ) ) ;
#27 = CIRCLE ( 'NONE', #204, 0.1360937499999999578 ) ;
#28 = AXIS2_PLACEMENT_3D ( 'NONE', #251, #100, #257 ) ;
#29 =( GEOMETRIC_REPRESENTATION_CONTEXT ( 3 ) GLOBAL_UNCERTAINTY_ASSIGNED_CONTEXT ( ( #121 ) ) GLOBAL_UNIT_ASSIGNED_CONTEXT ( ( #224, #318, #137 ) ) REPRESENTATION_CONTEXT ( 'NONE', 'WORKASPACE' ) );
#30 = CARTESIAN_POINT ( 'NONE',  ( 0.1562500000000000000, 1.913510623667739463E-17, 2.500000000000000000 ) ) ;
#31 = ORIENTED_EDGE ( 'NONE', *, *, #292, .T. ) ;
#32 = DIRECTION ( 'NONE',  ( 1.000000000000000000, 0.0000000000000000000, 0.0000000000000000000 ) ) ;
#33 = DIMENSIONAL_EXPONENTS ( 1.000000000000000000, 0.0000000000000000000, 0.0000000000000000000, 0.0000000000000000000, 0.0000000000000000000, 0.0000000000000000000, 0.0000000000000000000 ) ;
#34 = EDGE_CURVE ( 'NONE', #161, #307, #12, .T. ) ;
#35 = DIRECTION ( 'NONE',  ( 1.000000000000000000, 0.0000000000000000000, 0.0000000000000000000 ) ) ;
#36 = ORIENTED_EDGE ( 'NONE', *, *, #67, .F. ) ;
#37 = VECTOR ( 'NONE', #50, 39.37007874015748143 ) ;
#38 = EDGE_LOOP ( 'NONE', ( #281, #89, #320, #189 ) ) ;
#39 = CARTESIAN_POINT ( 'NONE',  ( 0.0000000000000000000, 0.0000000000000000000, 0.0000000000000000000 ) ) ;
#40 = ORIENTED_EDGE ( 'NONE', *, *, #191, .T. ) ;
#41 = EDGE_CURVE ( 'NONE', #7, #307, #279, .T. ) ;
#42 = DIRECTION ( 'NONE',  ( 0.7071067811865410224, 8.659560562354852739E-17, -0.7071067811865539010 ) ) ;
#43 = AXIS2_PLACEMENT_3D ( 'NONE', #306, #119, #35 ) ;
#44 = EDGE_LOOP ( 'NONE', ( #25, #79, #159, #300 ) ) ;
#45 = AXIS2_PLACEMENT_3D ( 'NONE', #171, #248, #46 ) ;
#46 = DIRECTION ( 'NONE',  ( 1.000000000000000000, 0.0000000000000000000, 0.0000000000000000000 ) ) ;
#47 = DIRECTION ( 'NONE',  ( 1.000000000000000000, 0.0000000000000000000, 0.0000000000000000000 ) ) ;
#48 = DIRECTION ( 'NONE',  ( 0.1736481776669314137, 0.0000000000000000000, 0.9848077530122077983 ) ) ;
#49 = DIRECTION ( 'NONE',  ( -1.000000000000000000, 0.0000000000000000000, 0.0000000000000000000 ) ) ;
#50 = DIRECTION ( 'NONE',  ( -1.224646799147353207E-16, -0.0000000000000000000, -1.000000000000000000 ) ) ;
#51 = VERTEX_POINT ( 'NONE', #211 ) ;
#52 = CIRCLE ( 'NONE', #184, 0.1412499999999994871 ) ;
#53 = ORIENTED_EDGE ( 'NONE', *, *, #333, .F. ) ;
#54 = EDGE_CURVE ( 'NONE', #205, #23, #217, .T. ) ;
#55 = ORIENTED_EDGE ( 'NONE', *, *, #34, .T. ) ;
#56 = SURFACE_SIDE_STYLE ('',( #155 ) ) ;
#57 = ORIENTED_EDGE ( 'NONE', *, *, #131, .T. ) ;
#58 = CIRCLE ( 'NONE', #43, 0.1562500000000000000 ) ;
#59 = ORIENTED_EDGE ( 'NONE', *, *, #41, .F. ) ;
#60 = FACE_OUTER_BOUND ( 'NONE', #44, .T. ) ;
#61 = ORIENTED_EDGE ( 'NONE', *, *, #260, .F. ) ;
#62 =( CONVERSION_BASED_UNIT ( 'INCH', #302 ) LENGTH_UNIT ( ) NAMED_UNIT ( #210 ) );
#63 = CARTESIAN_POINT ( 'NONE',  ( -0.1412499999999994871, 0.0000000000000000000, 2.500000000000000000 ) ) ;
#64 = EDGE_LOOP ( 'NONE', ( #53, #132, #135, #350 ) ) ;
#65 = AXIS2_PLACEMENT_3D ( 'NONE', #163, #336, #94 ) ;
#66 = AXIS2_PLACEMENT_3D ( 'NONE', #188, #180, #348 ) ;
#67 = EDGE_CURVE ( 'NONE', #82, #51, #27, .T. ) ;
#68 = ORIENTED_EDGE ( 'NONE', *, *, #191, .F. ) ;
#69 = DIRECTION ( 'NONE',  ( -1.000000000000000000, 1.224646799147353947E-16, 0.0000000000000000000 ) ) ;
#70 = VERTEX_POINT ( 'NONE', #6 ) ;
#71 = DIRECTION ( 'NONE',  ( -0.0000000000000000000, -0.0000000000000000000, -1.000000000000000000 ) ) ;
#72 = CIRCLE ( 'NONE', #262, 0.1360937499999999578 ) ;
#73 = EDGE_CURVE ( 'NONE', #106, #70, #52, .T. ) ;
#74 = CARTESIAN_POINT ( 'NONE',  ( 0.0000000000000000000, 0.0000000000000000000, 0.0000000000000000000 ) ) ;
#75 = FACE_OUTER_BOUND ( 'NONE', #346, .T. ) ;
#76 = DIRECTION ( 'NONE',  ( 0.0000000000000000000, 0.0000000000000000000, 1.000000000000000000 ) ) ;
#77 = ORIENTED_EDGE ( 'NONE', *, *, #233, .T. ) ;
#78 = CIRCLE ( 'NONE', #315, 0.01999999999999999001 ) ;
#79 = ORIENTED_EDGE ( 'NONE', *, *, #165, .T. ) ;
#80 = ORIENTED_EDGE ( 'NONE', *, *, #18, .T. ) ;
#81 = FACE_OUTER_BOUND ( 'NONE', #325, .T. ) ;
#82 = VERTEX_POINT ( 'NONE', #88 ) ;
#83 = VECTOR ( 'NONE', #48, 39.37007874015748143 ) ;
#84 = COLOUR_RGB ( '',0.7921568627450980005, 0.8196078431372548767, 0.9333333333333333481 ) ;
#85 = PRODUCT ( 'Micro_GEC-312-2-020', 'Micro_GEC-312-2-020', '', ( #8 ) ) ;
#86 = CARTESIAN_POINT ( 'NONE',  ( 2.449293598294706769E-18, 0.0000000000000000000, 0.0000000000000000000 ) ) ;
#87 =( CONVERSION_BASED_UNIT ( 'INCH', #213 ) LENGTH_UNIT ( ) NAMED_UNIT ( #33 ) );
#88 = CARTESIAN_POINT ( 'NONE',  ( -0.1360937499999999578, 1.789132433129335716E-17, 0.0000000000000000000 ) ) ;
#89 = ORIENTED_EDGE ( 'NONE', *, *, #314, .T. ) ;
#90 = ADVANCED_FACE ( 'NONE', ( #193 ), #280, .T. ) ;
#91 = FACE_OUTER_BOUND ( 'NONE', #64, .T. ) ;
#92 = AXIS2_PLACEMENT_3D ( 'NONE', #146, #341, #49 ) ;
#93 = CIRCLE ( 'NONE', #66, 0.1562500000000000000 ) ;
#94 = DIRECTION ( 'NONE',  ( 1.000000000000000000, 0.0000000000000000000, 0.0000000000000000000 ) ) ;
#95 = DIRECTION ( 'NONE',  ( 1.224646799147353207E-16, 1.000000000000000000, -0.0000000000000000000 ) ) ;
#96 = FILL_AREA_STYLE ('',( #126 ) ) ;
#97 = CIRCLE ( 'NONE', #11, 0.1560937499999999756 ) ;
#98 = CARTESIAN_POINT ( 'NONE',  ( 0.1560937500000000866, 0.0000000000000000000, 0.8129999999999999449 ) ) ;
#99 = FACE_OUTER_BOUND ( 'NONE', #24, .T. ) ;
#100 = DIRECTION ( 'NONE',  ( 1.224646799147353207E-16, 0.0000000000000000000, 1.000000000000000000 ) ) ;
#101 = EDGE_CURVE ( 'NONE', #161, #113, #97, .T. ) ;
#102 = EDGE_CURVE ( 'NONE', #297, #319, #58, .T. ) ;
#103 = DIMENSIONAL_EXPONENTS ( 1.000000000000000000, 0.0000000000000000000, 0.0000000000000000000, 0.0000000000000000000, 0.0000000000000000000, 0.0000000000000000000, 0.0000000000000000000 ) ;
#104 = AXIS2_PLACEMENT_3D ( 'NONE', #39, #192, #339 ) ;
#105 = CIRCLE ( 'NONE', #19, 0.1412499999999994871 ) ;
#106 = VERTEX_POINT ( 'NONE', #63 ) ;
#107 = CARTESIAN_POINT ( 'NONE',  ( 9.956378477067980482E-17, 0.0000000000000000000, 0.8129999999999999449 ) ) ;
#108 = ADVANCED_FACE ( 'NONE', ( #142 ), #256, .T. ) ;
#109 = ORIENTED_EDGE ( 'NONE', *, *, #18, .F. ) ;
#110 = COLOUR_RGB ( '',0.7921568627450980005, 0.8196078431372548767, 0.9333333333333333481 ) ;
#111 = AXIS2_PLACEMENT_3D ( 'NONE', #273, #160, #301 ) ;
#112 = CARTESIAN_POINT ( 'NONE',  ( 0.0000000000000000000, 0.0000000000000000000, 2.500000000000000000 ) ) ;
#113 = VERTEX_POINT ( 'NONE', #9 ) ;
#114 = ADVANCED_FACE ( 'NONE', ( #91 ), #321, .T. ) ;
#115 = DIRECTION ( 'NONE',  ( -1.000000000000000000, 0.0000000000000000000, 0.0000000000000000000 ) ) ;
#116 = CARTESIAN_POINT ( 'NONE',  ( 0.1562500000000001110, 1.913510623667740388E-17, 0.8138861377843152889 ) ) ;
#117 = APPLICATION_CONTEXT ( 'automotive_design' ) ;
#118 = AXIS2_PLACEMENT_3D ( 'NONE', #170, #145, #247 ) ;
#119 = DIRECTION ( 'NONE',  ( 0.0000000000000000000, 0.0000000000000000000, -1.000000000000000000 ) ) ;
#120 = CARTESIAN_POINT ( 'NONE',  ( -0.1560937499999998923, 1.911597113044071690E-17, 0.8129999999999999449 ) ) ;
#121 = UNCERTAINTY_MEASURE_WITH_UNIT (LENGTH_MEASURE( 1.000000000000000082E-05 ), #224, 'distance_accuracy_value', 'NONE');
#122 = PRESENTATION_STYLE_ASSIGNMENT (( #287 ) ) ;
#123 = CARTESIAN_POINT ( 'NONE',  ( 0.0000000000000000000, 0.0000000000000000000, 2.500000000000000000 ) ) ;
#124 = LENGTH_MEASURE_WITH_UNIT ( LENGTH_MEASURE( 0.02539999999999999897 ), #198 );
#125 = VECTOR ( 'NONE', #239, 39.37007874015748854 ) ;
#126 = FILL_AREA_STYLE_COLOUR ( '', #110 ) ;
#127 = ADVANCED_FACE ( 'NONE', ( #60 ), #282, .T. ) ;
#128 = CYLINDRICAL_SURFACE ( 'NONE', #212, 0.1560937499999999478 ) ;
#129 = LINE ( 'NONE', #164, #250 ) ;
#130 = VECTOR ( 'NONE', #71, 39.37007874015748143 ) ;
#131 = EDGE_CURVE ( 'NONE', #82, #205, #78, .T. ) ;
#132 = ORIENTED_EDGE ( 'NONE', *, *, #195, .T. ) ;
#133 = PRODUCT_DEFINITION_CONTEXT ( 'detailed design', #303, 'design' ) ;
#134 = ORIENTED_EDGE ( 'NONE', *, *, #195, .F. ) ;
#135 = ORIENTED_EDGE ( 'NONE', *, *, #292, .F. ) ;
#136 = FILL_AREA_STYLE ('',( #326 ) ) ;
#137 =( NAMED_UNIT ( * ) SI_UNIT ( $, .STERADIAN. ) SOLID_ANGLE_UNIT ( ) );
#138 = LINE ( 'NONE', #327, #125 ) ;
#139 = DIRECTION ( 'NONE',  ( 1.000000000000000000, 0.0000000000000000000, 0.0000000000000000000 ) ) ;
#140 =( LENGTH_UNIT ( ) NAMED_UNIT ( * ) SI_UNIT ( $, .METRE. ) );
#141 = AXIS2_PLACEMENT_3D ( 'NONE', #166, #278, #276 ) ;
#142 = FACE_OUTER_BOUND ( 'NONE', #208, .T. ) ;
#143 = ORIENTED_EDGE ( 'NONE', *, *, #149, .T. ) ;
#144 = DIRECTION ( 'NONE',  ( -0.0000000000000000000, -0.0000000000000000000, -1.000000000000000000 ) ) ;
#145 = DIRECTION ( 'NONE',  ( 0.0000000000000000000, 0.0000000000000000000, 1.000000000000000000 ) ) ;
#146 = CARTESIAN_POINT ( 'NONE',  ( 0.0000000000000000000, 0.0000000000000000000, 2.500000000000000000 ) ) ;
#147 = AXIS2_PLACEMENT_3D ( 'NONE', #151, #17, #47 ) ;
#148 = ORIENTED_EDGE ( 'NONE', *, *, #165, .F. ) ;
#149 = EDGE_CURVE ( 'NONE', #297, #7, #271, .T. ) ;
#150 = DIRECTION ( 'NONE',  ( -1.000000000000000000, 0.0000000000000000000, 0.0000000000000000000 ) ) ;
#151 = CARTESIAN_POINT ( 'NONE',  ( 9.956378477067980482E-17, 0.0000000000000000000, 0.8129999999999999449 ) ) ;
#152 = DIRECTION ( 'NONE',  ( -0.0000000000000000000, -0.0000000000000000000, -1.000000000000000000 ) ) ;
#153 = VECTOR ( 'NONE', #42, 39.37007874015748854 ) ;
#154 = CARTESIAN_POINT ( 'NONE',  ( 0.1360937499999999578, 0.0000000000000000000, 0.02000000000000000042 ) ) ;
#155 = SURFACE_STYLE_FILL_AREA ( #136 ) ;
#156 = AXIS2_PLACEMENT_3D ( 'NONE', #340, #216, #15 ) ;
#157 =( GEOMETRIC_REPRESENTATION_CONTEXT ( 3 ) GLOBAL_UNCERTAINTY_ASSIGNED_CONTEXT ( ( #22 ) ) GLOBAL_UNIT_ASSIGNED_CONTEXT ( ( #87, #181, #293 ) ) REPRESENTATION_CONTEXT ( 'NONE', 'WORKASPACE' ) );
#158 = SURFACE_STYLE_USAGE ( .BOTH. , #56 ) ;
#159 = ORIENTED_EDGE ( 'NONE', *, *, #187, .T. ) ;
#160 = DIRECTION ( 'NONE',  ( -0.0000000000000000000, -0.0000000000000000000, -1.000000000000000000 ) ) ;
#161 = VERTEX_POINT ( 'NONE', #1 ) ;
#162 = APPLICATION_PROTOCOL_DEFINITION ( 'draft international standard', 'automotive_design', 1998, #117 ) ;
#163 = CARTESIAN_POINT ( 'NONE',  ( 2.449293598294707154E-18, 0.0000000000000000000, 0.02000000000000000389 ) ) ;
#164 = CARTESIAN_POINT ( 'NONE',  ( 0.1560937499999999478, 1.911597113044071073E-17, -1.911597113044071073E-17 ) ) ;
#165 = EDGE_CURVE ( 'NONE', #113, #161, #249, .T. ) ;
#166 = CARTESIAN_POINT ( 'NONE',  ( 9.956378477067980482E-17, 0.0000000000000000000, 0.8129999999999999449 ) ) ;
#167 = PRESENTATION_LAYER_ASSIGNMENT (  '', '', ( #316 ) ) ;
#168 = ORIENTED_EDGE ( 'NONE', *, *, #101, .F. ) ;
#169 =( NAMED_UNIT ( * ) PLANE_ANGLE_UNIT ( ) SI_UNIT ( $, .RADIAN. ) );
#170 = CARTESIAN_POINT ( 'NONE',  ( 0.0000000000000000000, 0.0000000000000000000, 2.500000000000000000 ) ) ;
#171 = CARTESIAN_POINT ( 'NONE',  ( 0.0000000000000000000, 0.0000000000000000000, 0.0000000000000000000 ) ) ;
#172 = LINE ( 'NONE', #225, #37 ) ;
#173 = ORIENTED_EDGE ( 'NONE', *, *, #305, .F. ) ;
#174 = VECTOR ( 'NONE', #220, 39.37007874015747433 ) ;
#175 = SURFACE_SIDE_STYLE ('',( #317 ) ) ;
#176 = DIRECTION ( 'NONE',  ( 0.0000000000000000000, -1.000000000000000000, 0.0000000000000000000 ) ) ;
#177 = LINE ( 'NONE', #98, #83 ) ;
#178 = EDGE_CURVE ( 'NONE', #106, #319, #138, .T. ) ;
#179 = CARTESIAN_POINT ( 'NONE',  ( -0.1562500000000000000, 0.0000000000000000000, 2.500000000000000000 ) ) ;
#180 = DIRECTION ( 'NONE',  ( -1.224646799147353207E-16, -0.0000000000000000000, -1.000000000000000000 ) ) ;
#181 =( NAMED_UNIT ( * ) PLANE_ANGLE_UNIT ( ) SI_UNIT ( $, .RADIAN. ) );
#182 = ORIENTED_EDGE ( 'NONE', *, *, #41, .T. ) ;
#183 = PRODUCT_DEFINITION ( 'UNKNOWN', '', #206, #133 ) ;
#184 = AXIS2_PLACEMENT_3D ( 'NONE', #112, #214, #331 ) ;
#185 = ORIENTED_EDGE ( 'NONE', *, *, #102, .F. ) ;
#186 = ORIENTED_EDGE ( 'NONE', *, *, #54, .F. ) ;
#187 = EDGE_CURVE ( 'NONE', #161, #205, #172, .T. ) ;
#188 = CARTESIAN_POINT ( 'NONE',  ( 9.967230535079632947E-17, 0.0000000000000000000, 0.8138861377843152889 ) ) ;
#189 = ORIENTED_EDGE ( 'NONE', *, *, #187, .F. ) ;
#190 = DIRECTION ( 'NONE',  ( -0.0000000000000000000, -0.0000000000000000000, -1.000000000000000000 ) ) ;
#191 = EDGE_CURVE ( 'NONE', #51, #23, #194, .T. ) ;
#192 = DIRECTION ( 'NONE',  ( -1.224646799147353207E-16, -0.0000000000000000000, -1.000000000000000000 ) ) ;
#193 = FACE_OUTER_BOUND ( 'NONE', #294, .T. ) ;
#194 = CIRCLE ( 'NONE', #230, 0.02000000000000000042 ) ;
#195 = EDGE_CURVE ( 'NONE', #70, #297, #288, .T. ) ;
#196 = FACE_OUTER_BOUND ( 'NONE', #323, .T. ) ;
#197 = AXIS2_PLACEMENT_3D ( 'NONE', #335, #242, #244 ) ;
#198 =( LENGTH_UNIT ( ) NAMED_UNIT ( * ) SI_UNIT ( $, .METRE. ) );
#199 = ADVANCED_FACE ( 'NONE', ( #289 ), #347, .T. ) ;
#200 = FACE_OUTER_BOUND ( 'NONE', #209, .T. ) ;
#201 = LINE ( 'NONE', #179, #130 ) ;
#202 = CARTESIAN_POINT ( 'NONE',  ( -0.1560937499999999478, 0.0000000000000000000, 0.02000000000000000389 ) ) ;
#203 = ORIENTED_EDGE ( 'NONE', *, *, #333, .T. ) ;
#204 = AXIS2_PLACEMENT_3D ( 'NONE', #86, #190, #139 ) ;
#205 = VERTEX_POINT ( 'NONE', #202 ) ;
#206 = PRODUCT_DEFINITION_FORMATION_WITH_SPECIFIED_SOURCE ( 'ANY', '', #85, .NOT_KNOWN. ) ;
#207 = ADVANCED_BREP_SHAPE_REPRESENTATION ( 'Micro_GEC-312-2-020', ( #266, #45 ), #157 ) ;
#208 = EDGE_LOOP ( 'NONE', ( #269, #109, #40, #186 ) ) ;
#209 = EDGE_LOOP ( 'NONE', ( #324, #148, #329, #182 ) ) ;
#210 = DIMENSIONAL_EXPONENTS ( 1.000000000000000000, 0.0000000000000000000, 0.0000000000000000000, 0.0000000000000000000, 0.0000000000000000000, 0.0000000000000000000, 0.0000000000000000000 ) ;
#211 = CARTESIAN_POINT ( 'NONE',  ( 0.1360937499999999578, 0.0000000000000000000, 0.0000000000000000000 ) ) ;
#212 = AXIS2_PLACEMENT_3D ( 'NONE', #74, #20, #14 ) ;
#213 = LENGTH_MEASURE_WITH_UNIT ( LENGTH_MEASURE( 0.02539999999999999897 ), #140 );
#214 = DIRECTION ( 'NONE',  ( 0.0000000000000000000, 0.0000000000000000000, 1.000000000000000000 ) ) ;
#215 = DIRECTION ( 'NONE',  ( 1.000000000000000000, 0.0000000000000000000, 0.0000000000000000000 ) ) ;
#216 = DIRECTION ( 'NONE',  ( -1.224646799147353207E-16, -0.0000000000000000000, -1.000000000000000000 ) ) ;
#217 = CIRCLE ( 'NONE', #65, 0.1560937499999999478 ) ;
#218 = AXIS2_PLACEMENT_3D ( 'NONE', #311, #16, #222 ) ;
#219 = DIRECTION ( 'NONE',  ( 0.0000000000000000000, 0.0000000000000000000, -1.000000000000000000 ) ) ;
#220 = DIRECTION ( 'NONE',  ( -0.1736481776669312194, 2.126576849575783625E-17, 0.9848077530122080203 ) ) ;
#221 = PLANE ( 'NONE',  #218 ) ;
#222 = DIRECTION ( 'NONE',  ( 1.000000000000000000, 0.0000000000000000000, -0.0000000000000000000 ) ) ;
#223 = ADVANCED_FACE ( 'NONE', ( #226 ), #255, .T. ) ;
#224 =( CONVERSION_BASED_UNIT ( 'INCH', #124 ) LENGTH_UNIT ( ) NAMED_UNIT ( #103 ) );
#225 = CARTESIAN_POINT ( 'NONE',  ( -0.1560937499999999478, 0.0000000000000000000, 1.911597113044071073E-17 ) ) ;
#226 = FACE_OUTER_BOUND ( 'NONE', #272, .T. ) ;
#227 = CLOSED_SHELL ( 'NONE', ( #240, #254, #229, #114, #274, #223, #90, #199, #265, #127, #246, #108 ) ) ;
#228 = CARTESIAN_POINT ( 'NONE',  ( -0.1562500000000000000, 0.0000000000000000000, 2.484999999999999432 ) ) ;
#229 = ADVANCED_FACE ( 'NONE', ( #196 ), #286, .T. ) ;
#230 = AXIS2_PLACEMENT_3D ( 'NONE', #154, #176, #284 ) ;
#231 = AXIS2_PLACEMENT_3D ( 'NONE', #261, #298, #32 ) ;
#232 = ORIENTED_EDGE ( 'NONE', *, *, #102, .T. ) ;
#233 = EDGE_CURVE ( 'NONE', #319, #307, #201, .T. ) ;
#234 = VECTOR ( 'NONE', #236, 39.37007874015748143 ) ;
#235 = CARTESIAN_POINT ( 'NONE',  ( -0.1562499999999999167, 0.0000000000000000000, 0.8138861377843152889 ) ) ;
#236 = DIRECTION ( 'NONE',  ( -0.0000000000000000000, -0.0000000000000000000, -1.000000000000000000 ) ) ;
#237 = ORIENTED_EDGE ( 'NONE', *, *, #349, .T. ) ;
#238 =( LENGTH_UNIT ( ) NAMED_UNIT ( * ) SI_UNIT ( $, .METRE. ) );
#239 = DIRECTION ( 'NONE',  ( -0.7071067811865410224, 0.0000000000000000000, -0.7071067811865539010 ) ) ;
#240 = ADVANCED_FACE ( 'NONE', ( #99 ), #328, .T. ) ;
#241 = ORIENTED_EDGE ( 'NONE', *, *, #73, .F. ) ;
#242 = DIRECTION ( 'NONE',  ( 0.0000000000000000000, 0.0000000000000000000, 1.000000000000000000 ) ) ;
#243 = ORIENTED_EDGE ( 'NONE', *, *, #233, .F. ) ;
#244 = DIRECTION ( 'NONE',  ( 1.000000000000000000, 0.0000000000000000000, 0.0000000000000000000 ) ) ;
#245 = CARTESIAN_POINT ( 'NONE',  ( 0.1560937499999999478, 1.911597113044071073E-17, 0.02000000000000000389 ) ) ;
#246 = ADVANCED_FACE ( 'NONE', ( #75 ), #221, .F. ) ;
#247 = DIRECTION ( 'NONE',  ( 1.000000000000000000, 0.0000000000000000000, -0.0000000000000000000 ) ) ;
#248 = DIRECTION ( 'NONE',  ( 0.0000000000000000000, 0.0000000000000000000, 1.000000000000000000 ) ) ;
#249 = CIRCLE ( 'NONE', #141, 0.1560937499999999756 ) ;
#250 = VECTOR ( 'NONE', #26, 39.37007874015748143 ) ;
#251 = CARTESIAN_POINT ( 'NONE',  ( 9.956378477067980482E-17, 0.0000000000000000000, 0.8129999999999999449 ) ) ;
#252 = CARTESIAN_POINT ( 'NONE',  ( 2.449293598294706769E-18, 0.0000000000000000000, 0.0000000000000000000 ) ) ;
#253 = CARTESIAN_POINT ( 'NONE',  ( 2.449293598294706769E-18, 0.0000000000000000000, 0.02000000000000000042 ) ) ;
#254 = ADVANCED_FACE ( 'NONE', ( #21 ), #128, .T. ) ;
#255 = CYLINDRICAL_SURFACE ( 'NONE', #5, 0.1562500000000000000 ) ;
#256 = TOROIDAL_SURFACE ( 'NONE', #197, 0.1360937499999999578, 0.02000000000000000042 ) ;
#257 = DIRECTION ( 'NONE',  ( 1.000000000000000000, 0.0000000000000000000, 0.0000000000000000000 ) ) ;
#258 = CONICAL_SURFACE ( 'NONE', #147, 0.1560937499999999756, 0.1745329251994339192 ) ;
#259 = DIRECTION ( 'NONE',  ( 1.000000000000000000, 0.0000000000000000000, 0.0000000000000000000 ) ) ;
#260 = EDGE_CURVE ( 'NONE', #113, #7, #177, .T. ) ;
#261 = CARTESIAN_POINT ( 'NONE',  ( 0.0000000000000000000, 0.0000000000000000000, 2.484999999999999432 ) ) ;
#262 = AXIS2_PLACEMENT_3D ( 'NONE', #252, #144, #285 ) ;
#263 = ORIENTED_EDGE ( 'NONE', *, *, #349, .F. ) ;
#264 = UNCERTAINTY_MEASURE_WITH_UNIT (LENGTH_MEASURE( 1.000000000000000082E-05 ), #62, 'distance_accuracy_value', 'NONE');
#265 = ADVANCED_FACE ( 'NONE', ( #200 ), #258, .T. ) ;
#266 = MANIFOLD_SOLID_BREP ( 'Fillet1', #227 ) ;
#267 = ORIENTED_EDGE ( 'NONE', *, *, #73, .T. ) ;
#268 = CARTESIAN_POINT ( 'NONE',  ( 0.1562500000000000000, 1.913510623667739463E-17, 2.484999999999999432 ) ) ;
#269 = ORIENTED_EDGE ( 'NONE', *, *, #131, .F. ) ;
#270 = CIRCLE ( 'NONE', #312, 0.1560937499999999478 ) ;
#271 = LINE ( 'NONE', #30, #234 ) ;
#272 = EDGE_LOOP ( 'NONE', ( #345, #232, #77, #59 ) ) ;
#273 = CARTESIAN_POINT ( 'NONE',  ( 0.0000000000000000000, 0.0000000000000000000, 2.500000000000000000 ) ) ;
#274 = ADVANCED_FACE ( 'NONE', ( #81 ), #343, .T. ) ;
#275 = PRODUCT_DEFINITION_SHAPE ( 'NONE', 'NONE',  #183 ) ;
#276 = DIRECTION ( 'NONE',  ( -1.000000000000000000, 0.0000000000000000000, 0.0000000000000000000 ) ) ;
#277 = DIRECTION ( 'NONE',  ( 0.0000000000000000000, 0.0000000000000000000, 1.000000000000000000 ) ) ;
#278 = DIRECTION ( 'NONE',  ( -1.224646799147353207E-16, -0.0000000000000000000, -1.000000000000000000 ) ) ;
#279 = CIRCLE ( 'NONE', #156, 0.1562500000000000000 ) ;
#280 = PLANE ( 'NONE',  #118 ) ;
#281 = ORIENTED_EDGE ( 'NONE', *, *, #101, .T. ) ;
#282 = CYLINDRICAL_SURFACE ( 'NONE', #104, 0.1560937499999999478 ) ;
#283 = SHAPE_DEFINITION_REPRESENTATION ( #275, #207 ) ;
#284 = DIRECTION ( 'NONE',  ( 0.0000000000000000000, 0.0000000000000000000, -1.000000000000000000 ) ) ;
#285 = DIRECTION ( 'NONE',  ( 1.000000000000000000, 0.0000000000000000000, 0.0000000000000000000 ) ) ;
#286 = CONICAL_SURFACE ( 'NONE', #28, 0.1560937499999999756, 0.1745329251994339192 ) ;
#287 = SURFACE_STYLE_USAGE ( .BOTH. , #175 ) ;
#288 = LINE ( 'NONE', #313, #153 ) ;
#289 = FACE_OUTER_BOUND ( 'NONE', #334, .T. ) ;
#290 = DIRECTION ( 'NONE',  ( 0.0000000000000000000, 0.0000000000000000000, 1.000000000000000000 ) ) ;
#291 = PRESENTATION_LAYER_ASSIGNMENT (  '', '', ( #13 ) ) ;
#292 = EDGE_CURVE ( 'NONE', #319, #297, #338, .T. ) ;
#293 =( NAMED_UNIT ( * ) SI_UNIT ( $, .STERADIAN. ) SOLID_ANGLE_UNIT ( ) );
#294 = EDGE_LOOP ( 'NONE', ( #267, #203 ) ) ;
#295 = AXIS2_PLACEMENT_3D ( 'NONE', #309, #219, #4 ) ;
#296 = ORIENTED_EDGE ( 'NONE', *, *, #67, .T. ) ;
#297 = VERTEX_POINT ( 'NONE', #268 ) ;
#298 = DIRECTION ( 'NONE',  ( 0.0000000000000000000, 0.0000000000000000000, -1.000000000000000000 ) ) ;
#299 = MECHANICAL_DESIGN_GEOMETRIC_PRESENTATION_REPRESENTATION (  '', ( #13 ), #322 ) ;
#300 = ORIENTED_EDGE ( 'NONE', *, *, #54, .T. ) ;
#301 = DIRECTION ( 'NONE',  ( -1.000000000000000000, 0.0000000000000000000, 0.0000000000000000000 ) ) ;
#302 = LENGTH_MEASURE_WITH_UNIT ( LENGTH_MEASURE( 0.02539999999999999897 ), #238 );
#303 = APPLICATION_CONTEXT ( 'automotive_design' ) ;
#304 = APPLICATION_PROTOCOL_DEFINITION ( 'draft international standard', 'automotive_design', 1998, #303 ) ;
#305 = EDGE_CURVE ( 'NONE', #23, #205, #270, .T. ) ;
#306 = CARTESIAN_POINT ( 'NONE',  ( 0.0000000000000000000, 0.0000000000000000000, 2.484999999999999432 ) ) ;
#307 = VERTEX_POINT ( 'NONE', #235 ) ;
#308 = MECHANICAL_DESIGN_GEOMETRIC_PRESENTATION_REPRESENTATION (  '', ( #316 ), #29 ) ;
#309 = CARTESIAN_POINT ( 'NONE',  ( 0.0000000000000000000, 0.0000000000000000000, 2.500000000000000000 ) ) ;
#310 = CARTESIAN_POINT ( 'NONE',  ( -0.1360937499999999578, 1.666667753214600666E-17, 0.02000000000000000042 ) ) ;
#311 = CARTESIAN_POINT ( 'NONE',  ( 0.0000000000000000000, 0.0000000000000000000, 0.0000000000000000000 ) ) ;
#312 = AXIS2_PLACEMENT_3D ( 'NONE', #330, #277, #344 ) ;
#313 = CARTESIAN_POINT ( 'NONE',  ( 0.1412499999999994871, 1.729813603795630110E-17, 2.500000000000000000 ) ) ;
#314 = EDGE_CURVE ( 'NONE', #113, #23, #129, .T. ) ;
#315 = AXIS2_PLACEMENT_3D ( 'NONE', #310, #95, #69 ) ;
#316 = STYLED_ITEM ( 'NONE', ( #122 ), #266 ) ;
#317 = SURFACE_STYLE_FILL_AREA ( #96 ) ;
#318 =( NAMED_UNIT ( * ) PLANE_ANGLE_UNIT ( ) SI_UNIT ( $, .RADIAN. ) );
#319 = VERTEX_POINT ( 'NONE', #228 ) ;
#320 = ORIENTED_EDGE ( 'NONE', *, *, #305, .T. ) ;
#321 = CONICAL_SURFACE ( 'NONE', #295, 0.1412499999999994871, 0.7853981633974391752 ) ;
#322 =( GEOMETRIC_REPRESENTATION_CONTEXT ( 3 ) GLOBAL_UNCERTAINTY_ASSIGNED_CONTEXT ( ( #264 ) ) GLOBAL_UNIT_ASSIGNED_CONTEXT ( ( #62, #169, #332 ) ) REPRESENTATION_CONTEXT ( 'NONE', 'WORKASPACE' ) );
#323 = EDGE_LOOP ( 'NONE', ( #168, #55, #237, #61 ) ) ;
#324 = ORIENTED_EDGE ( 'NONE', *, *, #34, .F. ) ;
#325 = EDGE_LOOP ( 'NONE', ( #31, #143, #263, #243 ) ) ;
#326 = FILL_AREA_STYLE_COLOUR ( '', #84 ) ;
#327 = CARTESIAN_POINT ( 'NONE',  ( -0.1412499999999994871, 0.0000000000000000000, 2.500000000000000000 ) ) ;
#328 = TOROIDAL_SURFACE ( 'NONE', #337, 0.1360937499999999578, 0.02000000000000000042 ) ;
#329 = ORIENTED_EDGE ( 'NONE', *, *, #260, .T. ) ;
#330 = CARTESIAN_POINT ( 'NONE',  ( 2.449293598294707154E-18, 0.0000000000000000000, 0.02000000000000000389 ) ) ;
#331 = DIRECTION ( 'NONE',  ( 1.000000000000000000, 0.0000000000000000000, 0.0000000000000000000 ) ) ;
#332 =( NAMED_UNIT ( * ) SI_UNIT ( $, .STERADIAN. ) SOLID_ANGLE_UNIT ( ) );
#333 = EDGE_CURVE ( 'NONE', #70, #106, #105, .T. ) ;
#334 = EDGE_LOOP ( 'NONE', ( #134, #241, #2, #185 ) ) ;
#335 = CARTESIAN_POINT ( 'NONE',  ( 2.449293598294706769E-18, 0.0000000000000000000, 0.02000000000000000042 ) ) ;
#336 = DIRECTION ( 'NONE',  ( 0.0000000000000000000, 0.0000000000000000000, 1.000000000000000000 ) ) ;
#337 = AXIS2_PLACEMENT_3D ( 'NONE', #253, #290, #259 ) ;
#338 = CIRCLE ( 'NONE', #231, 0.1562500000000000000 ) ;
#339 = DIRECTION ( 'NONE',  ( -1.000000000000000000, 0.0000000000000000000, 1.224646799147353207E-16 ) ) ;
#340 = CARTESIAN_POINT ( 'NONE',  ( 9.967230535079632947E-17, 0.0000000000000000000, 0.8138861377843152889 ) ) ;
#341 = DIRECTION ( 'NONE',  ( 0.0000000000000000000, 0.0000000000000000000, -1.000000000000000000 ) ) ;
#342 = PRODUCT_RELATED_PRODUCT_CATEGORY ( 'part', '', ( #85 ) ) ;
#343 = CYLINDRICAL_SURFACE ( 'NONE', #111, 0.1562500000000000000 ) ;
#344 = DIRECTION ( 'NONE',  ( 1.000000000000000000, 0.0000000000000000000, 0.0000000000000000000 ) ) ;
#345 = ORIENTED_EDGE ( 'NONE', *, *, #149, .F. ) ;
#346 = EDGE_LOOP ( 'NONE', ( #80, #296 ) ) ;
#347 = CONICAL_SURFACE ( 'NONE', #92, 0.1412499999999994871, 0.7853981633974391752 ) ;
#348 = DIRECTION ( 'NONE',  ( 1.000000000000000000, 0.0000000000000000000, 0.0000000000000000000 ) ) ;
#349 = EDGE_CURVE ( 'NONE', #307, #7, #93, .T. ) ;
#350 = ORIENTED_EDGE ( 'NONE', *, *, #178, .F. ) ;
#351 = CARTESIAN_POINT ( 'NONE',  ( 0.0000000000000000000, 0.0000000000000000000, 2.500000000000000000 ) ) ;
ENDSEC;
END-ISO-10303-21;
