ISO-10303-21;
HEADER;
FILE_DESCRIPTION (( 'STEP AP214' ),
    '1' );
FILE_NAME ('23250.STEP',
    '2023-06-22T16:43:52',
    ( '' ),
    ( '' ),
    'SwSTEP 2.0',
    'SolidWorks 2023',
    '' );
FILE_SCHEMA (( 'AUTOMOTIVE_DESIGN' ));
ENDSEC;

DATA;
#1 = DIMENSIONAL_EXPONENTS ( 1.000000000000000000, 0.000000000000000000, 0.000000000000000000, 0.000000000000000000, 0.000000000000000000, 0.000000000000000000, 0.000000000000000000 ) ;
#2 =( NAMED_UNIT ( * ) PLANE_ANGLE_UNIT ( ) SI_UNIT ( $, .RADIAN. ) );
#3 = CARTESIAN_POINT ( 'NONE',  ( 0.000000000000000000, 0.000000000000000000, 0.000000000000000000 ) ) ;
#4 = AXIS2_PLACEMENT_3D ( 'NONE', #47, #169, #149 ) ;
#5 = EDGE_LOOP ( 'NONE', ( #48, #97 ) ) ;
#6 = COLOUR_RGB ( '',1.000000000000000000, 0.000000000000000000, 0.000000000000000000 ) ;
#7 = FILL_AREA_STYLE ('',( #43 ) ) ;
#8 = COLOUR_RGB ( '',1.000000000000000000, 0.000000000000000000, 0.000000000000000000 ) ;
#9 = EDGE_CURVE ( 'NONE', #94, #217, #233, .T. ) ;
#10 = DIMENSIONAL_EXPONENTS ( 1.000000000000000000, 0.000000000000000000, 0.000000000000000000, 0.000000000000000000, 0.000000000000000000, 0.000000000000000000, 0.000000000000000000 ) ;
#11 = ORIENTED_EDGE ( 'NONE', *, *, #209, .F. ) ;
#12 = CLOSED_SHELL ( 'NONE', ( #212, #53, #59, #246 ) ) ;
#13 = MECHANICAL_DESIGN_GEOMETRIC_PRESENTATION_REPRESENTATION (  '', ( #278 ), #227 ) ;
#14 = DIRECTION ( 'NONE',  ( -2.578203787678636417E-17, 1.000000000000000000, -0.000000000000000000 ) ) ;
#15 = DIRECTION ( 'NONE',  ( 0.000000000000000000, 0.000000000000000000, -1.000000000000000000 ) ) ;
#16 = CARTESIAN_POINT ( 'NONE',  ( 3.827021247335478926E-17, 0.000000000000000000, 0.3125000000000000000 ) ) ;
#17 = SURFACE_STYLE_FILL_AREA ( #7 ) ;
#18 =( CONVERSION_BASED_UNIT ( 'INCH', #194 ) LENGTH_UNIT ( ) NAMED_UNIT ( #207 ) );
#19 = DIRECTION ( 'NONE',  ( -1.000000000000000000, -2.578203787678636417E-17, 0.000000000000000000 ) ) ;
#20 = AXIS2_PLACEMENT_3D ( 'NONE', #86, #38, #300 ) ;
#21 = VERTEX_POINT ( 'NONE', #90 ) ;
#22 = LENGTH_MEASURE_WITH_UNIT ( LENGTH_MEASURE( 0.02539999999999999897 ), #42 );
#23 = DIRECTION ( 'NONE',  ( 0.000000000000000000, -1.000000000000000000, -0.000000000000000000 ) ) ;
#24 =( NAMED_UNIT ( * ) SI_UNIT ( $, .STERADIAN. ) SOLID_ANGLE_UNIT ( ) );
#25 = DIRECTION ( 'NONE',  ( -0.000000000000000000, -1.000000000000000000, -0.000000000000000000 ) ) ;
#26 = DIRECTION ( 'NONE',  ( -2.578203787678636109E-17, 1.000000000000000000, -0.000000000000000000 ) ) ;
#27 = FILL_AREA_STYLE ('',( #261 ) ) ;
#28 = STYLED_ITEM ( 'NONE', ( #33 ), #269 ) ;
#29 = EDGE_LOOP ( 'NONE', ( #54, #101 ) ) ;
#30 = ORIENTED_EDGE ( 'NONE', *, *, #32, .T. ) ;
#31 = DIRECTION ( 'NONE',  ( 0.000000000000000000, 0.000000000000000000, -1.000000000000000000 ) ) ;
#32 = EDGE_CURVE ( 'NONE', #94, #21, #188, .T. ) ;
#33 = PRESENTATION_STYLE_ASSIGNMENT (( #70 ) ) ;
#34 = MECHANICAL_DESIGN_GEOMETRIC_PRESENTATION_REPRESENTATION (  '', ( #126 ), #49 ) ;
#35 = CARTESIAN_POINT ( 'NONE',  ( 0.3125000000000000000, 3.500000000000000000, 3.827021247335478926E-17 ) ) ;
#36 = MECHANICAL_DESIGN_GEOMETRIC_PRESENTATION_REPRESENTATION (  '', ( #267 ), #81 ) ;
#37 = PRODUCT_DEFINITION_FORMATION_WITH_SPECIFIED_SOURCE ( 'ANY', '', #208, .NOT_KNOWN. ) ;
#38 = DIRECTION ( 'NONE',  ( -0.000000000000000000, -1.000000000000000000, -0.000000000000000000 ) ) ;
#39 = PLANE ( 'NONE',  #241 ) ;
#40 = PLANE ( 'NONE',  #214 ) ;
#41 = FILL_AREA_STYLE ('',( #301 ) ) ;
#42 =( LENGTH_UNIT ( ) NAMED_UNIT ( * ) SI_UNIT ( $, .METRE. ) );
#43 = FILL_AREA_STYLE_COLOUR ( '', #228 ) ;
#44 = EDGE_CURVE ( 'NONE', #21, #94, #192, .T. ) ;
#45 = ORIENTED_EDGE ( 'NONE', *, *, #298, .T. ) ;
#46 = SURFACE_SIDE_STYLE ('',( #95 ) ) ;
#47 = CARTESIAN_POINT ( 'NONE',  ( -6.123233995736759873E-17, 3.500000000000000000, 0.000000000000000000 ) ) ;
#48 = ORIENTED_EDGE ( 'NONE', *, *, #236, .F. ) ;
#49 =( GEOMETRIC_REPRESENTATION_CONTEXT ( 3 ) GLOBAL_UNCERTAINTY_ASSIGNED_CONTEXT ( ( #187 ) ) GLOBAL_UNIT_ASSIGNED_CONTEXT ( ( #18, #157, #24 ) ) REPRESENTATION_CONTEXT ( 'NONE', 'WORKASPACE' ) );
#50 = PLANE ( 'NONE',  #292 ) ;
#51 = SURFACE_SIDE_STYLE ('',( #263 ) ) ;
#52 = EDGE_LOOP ( 'NONE', ( #168, #79 ) ) ;
#53 = ADVANCED_FACE ( 'NONE', ( #250 ), #39, .F. ) ;
#54 = ORIENTED_EDGE ( 'NONE', *, *, #284, .T. ) ;
#55 = DIRECTION ( 'NONE',  ( -1.000000000000000000, 0.000000000000000000, 0.000000000000000000 ) ) ;
#56 = PRODUCT_CONTEXT ( 'NONE', #183, 'mechanical' ) ;
#57 = CIRCLE ( 'NONE', #205, 0.3125000000000000000 ) ;
#58 = ADVANCED_BREP_SHAPE_REPRESENTATION ( '23250', ( #251, #254, #85 ), #179 ) ;
#59 = ADVANCED_FACE ( 'NONE', ( #216 ), #147, .T. ) ;
#60 = CARTESIAN_POINT ( 'NONE',  ( -6.123233995736759873E-17, 3.500000000000000000, 0.000000000000000000 ) ) ;
#61 = DIRECTION ( 'NONE',  ( -2.578203787678636109E-17, 1.000000000000000000, -0.000000000000000000 ) ) ;
#62 = COLOUR_RGB ( '',0.7921568627450980005, 0.8196078431372548767, 0.9333333333333333481 ) ;
#63 = CIRCLE ( 'NONE', #249, 0.3125000000000000000 ) ;
#64 =( CONVERSION_BASED_UNIT ( 'INCH', #213 ) LENGTH_UNIT ( ) NAMED_UNIT ( #1 ) );
#65 = EDGE_LOOP ( 'NONE', ( #178, #158 ) ) ;
#66 =( GEOMETRIC_REPRESENTATION_CONTEXT ( 3 ) GLOBAL_UNCERTAINTY_ASSIGNED_CONTEXT ( ( #93 ) ) GLOBAL_UNIT_ASSIGNED_CONTEXT ( ( #77, #243, #173 ) ) REPRESENTATION_CONTEXT ( 'NONE', 'WORKASPACE' ) );
#67 =( GEOMETRIC_REPRESENTATION_CONTEXT ( 3 ) GLOBAL_UNCERTAINTY_ASSIGNED_CONTEXT ( ( #296 ) ) GLOBAL_UNIT_ASSIGNED_CONTEXT ( ( #186, #102, #211 ) ) REPRESENTATION_CONTEXT ( 'NONE', 'WORKASPACE' ) );
#68 =( NAMED_UNIT ( * ) SI_UNIT ( $, .STERADIAN. ) SOLID_ANGLE_UNIT ( ) );
#69 = ORIENTED_EDGE ( 'NONE', *, *, #116, .F. ) ;
#70 = SURFACE_STYLE_USAGE ( .BOTH. , #99 ) ;
#71 =( NAMED_UNIT ( * ) PLANE_ANGLE_UNIT ( ) SI_UNIT ( $, .RADIAN. ) );
#72 =( NAMED_UNIT ( * ) SI_UNIT ( $, .STERADIAN. ) SOLID_ANGLE_UNIT ( ) );
#73 = DIRECTION ( 'NONE',  ( -0.000000000000000000, -1.000000000000000000, -0.000000000000000000 ) ) ;
#74 = MECHANICAL_DESIGN_GEOMETRIC_PRESENTATION_REPRESENTATION (  '', ( #28 ), #66 ) ;
#75 = CARTESIAN_POINT ( 'NONE',  ( -6.123233995736759873E-17, 3.500000000000000000, 0.000000000000000000 ) ) ;
#76 = SURFACE_STYLE_FILL_AREA ( #27 ) ;
#77 =( CONVERSION_BASED_UNIT ( 'INCH', #156 ) LENGTH_UNIT ( ) NAMED_UNIT ( #185 ) );
#78 =( CONVERSION_BASED_UNIT ( 'INCH', #288 ) LENGTH_UNIT ( ) NAMED_UNIT ( #138 ) );
#79 = ORIENTED_EDGE ( 'NONE', *, *, #224, .T. ) ;
#80 = CIRCLE ( 'NONE', #303, 0.3125000000000000555 ) ;
#81 =( GEOMETRIC_REPRESENTATION_CONTEXT ( 3 ) GLOBAL_UNCERTAINTY_ASSIGNED_CONTEXT ( ( #87 ) ) GLOBAL_UNIT_ASSIGNED_CONTEXT ( ( #130, #71, #128 ) ) REPRESENTATION_CONTEXT ( 'NONE', 'WORKASPACE' ) );
#82 = CARTESIAN_POINT ( 'NONE',  ( 3.827021247335478926E-17, 1.125000000000000000, 0.3125000000000000000 ) ) ;
#83 = DIMENSIONAL_EXPONENTS ( 1.000000000000000000, 0.000000000000000000, 0.000000000000000000, 0.000000000000000000, 0.000000000000000000, 0.000000000000000000, 0.000000000000000000 ) ;
#84 = DIRECTION ( 'NONE',  ( -0.000000000000000000, -1.000000000000000000, -0.000000000000000000 ) ) ;
#85 = AXIS2_PLACEMENT_3D ( 'NONE', #136, #111, #201 ) ;
#86 = CARTESIAN_POINT ( 'NONE',  ( 0.000000000000000000, 0.000000000000000000, 0.000000000000000000 ) ) ;
#87 = UNCERTAINTY_MEASURE_WITH_UNIT (LENGTH_MEASURE( 1.000000000000000082E-05 ), #130, 'distance_accuracy_value', 'NONE');
#88 = DIRECTION ( 'NONE',  ( -1.000000000000000000, 0.000000000000000000, 0.000000000000000000 ) ) ;
#89 = FACE_OUTER_BOUND ( 'NONE', #52, .T. ) ;
#90 = CARTESIAN_POINT ( 'NONE',  ( 0.3125000000000000000, 1.125000000000000222, 3.827021247335478926E-17 ) ) ;
#91 = PRESENTATION_LAYER_ASSIGNMENT (  '', '', ( #267 ) ) ;
#92 = PRESENTATION_LAYER_ASSIGNMENT (  '', '', ( #126 ) ) ;
#93 = UNCERTAINTY_MEASURE_WITH_UNIT (LENGTH_MEASURE( 1.000000000000000082E-05 ), #77, 'distance_accuracy_value', 'NONE');
#94 = VERTEX_POINT ( 'NONE', #258 ) ;
#95 = SURFACE_STYLE_FILL_AREA ( #190 ) ;
#96 = FACE_OUTER_BOUND ( 'NONE', #29, .T. ) ;
#97 = ORIENTED_EDGE ( 'NONE', *, *, #283, .F. ) ;
#98 = VECTOR ( 'NONE', #182, 39.37007874015748143 ) ;
#99 = SURFACE_SIDE_STYLE ('',( #145 ) ) ;
#100 = FACE_OUTER_BOUND ( 'NONE', #5, .T. ) ;
#101 = ORIENTED_EDGE ( 'NONE', *, *, #209, .T. ) ;
#102 =( NAMED_UNIT ( * ) PLANE_ANGLE_UNIT ( ) SI_UNIT ( $, .RADIAN. ) );
#103 = SURFACE_SIDE_STYLE ('',( #17 ) ) ;
#104 = ORIENTED_EDGE ( 'NONE', *, *, #247, .T. ) ;
#105 = LENGTH_MEASURE_WITH_UNIT ( LENGTH_MEASURE( 0.02539999999999999897 ), #293 );
#106 = PLANE ( 'NONE',  #118 ) ;
#107 = DIRECTION ( 'NONE',  ( -2.578203787678636109E-17, 1.000000000000000000, -0.000000000000000000 ) ) ;
#108 = DIRECTION ( 'NONE',  ( -2.578203787678636417E-17, 1.000000000000000000, 0.000000000000000000 ) ) ;
#109 = ORIENTED_EDGE ( 'NONE', *, *, #44, .T. ) ;
#110 =( LENGTH_UNIT ( ) NAMED_UNIT ( * ) SI_UNIT ( $, .METRE. ) );
#111 = DIRECTION ( 'NONE',  ( 0.000000000000000000, 0.000000000000000000, 1.000000000000000000 ) ) ;
#112 = CARTESIAN_POINT ( 'NONE',  ( -6.123233995736759873E-17, 3.500000000000000000, 0.000000000000000000 ) ) ;
#113 = AXIS2_PLACEMENT_3D ( 'NONE', #120, #119, #88 ) ;
#114 = CIRCLE ( 'NONE', #160, 0.3125000000000000000 ) ;
#115 = CARTESIAN_POINT ( 'NONE',  ( 0.000000000000000000, 0.000000000000000000, -0.3125000000000000000 ) ) ;
#116 = EDGE_CURVE ( 'NONE', #308, #219, #57, .T. ) ;
#117 = PRESENTATION_LAYER_ASSIGNMENT (  '', '', ( #28 ) ) ;
#118 = AXIS2_PLACEMENT_3D ( 'NONE', #124, #198, #244 ) ;
#119 = DIRECTION ( 'NONE',  ( -2.578203787678636109E-17, 1.000000000000000000, -0.000000000000000000 ) ) ;
#120 = CARTESIAN_POINT ( 'NONE',  ( 0.000000000000000000, 1.125000000000000222, 0.000000000000000000 ) ) ;
#121 = VECTOR ( 'NONE', #139, 39.37007874015748143 ) ;
#122 = CARTESIAN_POINT ( 'NONE',  ( 0.000000000000000000, 1.125000000000000000, -0.3125000000000000000 ) ) ;
#123 = CARTESIAN_POINT ( 'NONE',  ( 0.3125000000000000000, 3.500000000000000000, 0.000000000000000000 ) ) ;
#124 = CARTESIAN_POINT ( 'NONE',  ( 0.000000000000000000, 1.125000000000000000, 0.000000000000000000 ) ) ;
#125 = PRESENTATION_LAYER_ASSIGNMENT (  '', '', ( #171 ) ) ;
#126 = STYLED_ITEM ( 'NONE', ( #129 ), #184 ) ;
#127 = PRESENTATION_STYLE_ASSIGNMENT (( #148 ) ) ;
#128 =( NAMED_UNIT ( * ) SI_UNIT ( $, .STERADIAN. ) SOLID_ANGLE_UNIT ( ) );
#129 = PRESENTATION_STYLE_ASSIGNMENT (( #177 ) ) ;
#130 =( CONVERSION_BASED_UNIT ( 'INCH', #282 ) LENGTH_UNIT ( ) NAMED_UNIT ( #10 ) );
#131 = DIRECTION ( 'NONE',  ( 0.000000000000000000, 0.000000000000000000, -1.000000000000000000 ) ) ;
#132 = DIRECTION ( 'NONE',  ( -1.000000000000000000, 0.000000000000000000, 0.000000000000000000 ) ) ;
#133 = CARTESIAN_POINT ( 'NONE',  ( 0.000000000000000000, 0.000000000000000000, -0.3125000000000000000 ) ) ;
#134 = PRESENTATION_STYLE_ASSIGNMENT (( #172 ) ) ;
#135 = APPLICATION_CONTEXT ( 'automotive_design' ) ;
#136 = CARTESIAN_POINT ( 'NONE',  ( 0.000000000000000000, 0.000000000000000000, 0.000000000000000000 ) ) ;
#137 = ORIENTED_EDGE ( 'NONE', *, *, #283, .T. ) ;
#138 = DIMENSIONAL_EXPONENTS ( 1.000000000000000000, 0.000000000000000000, 0.000000000000000000, 0.000000000000000000, 0.000000000000000000, 0.000000000000000000, 0.000000000000000000 ) ;
#139 = DIRECTION ( 'NONE',  ( -2.578203787678636417E-17, 1.000000000000000000, -0.000000000000000000 ) ) ;
#140 = AXIS2_PLACEMENT_3D ( 'NONE', #60, #161, #248 ) ;
#141 = LINE ( 'NONE', #115, #98 ) ;
#142 = ORIENTED_EDGE ( 'NONE', *, *, #223, .F. ) ;
#143 = UNCERTAINTY_MEASURE_WITH_UNIT (LENGTH_MEASURE( 1.000000000000000082E-05 ), #64, 'distance_accuracy_value', 'NONE');
#144 = CARTESIAN_POINT ( 'NONE',  ( 1.038614807937572903E-34, 1.125000000000000000, 0.000000000000000000 ) ) ;
#145 = SURFACE_STYLE_FILL_AREA ( #41 ) ;
#146 = DIRECTION ( 'NONE',  ( 0.000000000000000000, 0.000000000000000000, -1.000000000000000000 ) ) ;
#147 = CYLINDRICAL_SURFACE ( 'NONE', #4, 0.3125000000000000000 ) ;
#148 = SURFACE_STYLE_USAGE ( .BOTH. , #255 ) ;
#149 = DIRECTION ( 'NONE',  ( -1.000000000000000000, 0.000000000000000000, 0.000000000000000000 ) ) ;
#150 = EDGE_LOOP ( 'NONE', ( #193, #109, #264, #11 ) ) ;
#151 = VECTOR ( 'NONE', #14, 39.37007874015748143 ) ;
#152 = AXIS2_PLACEMENT_3D ( 'NONE', #309, #306, #159 ) ;
#153 = FILL_AREA_STYLE_COLOUR ( '', #165 ) ;
#154 =( LENGTH_UNIT ( ) NAMED_UNIT ( * ) SI_UNIT ( $, .METRE. ) );
#155 = ORIENTED_EDGE ( 'NONE', *, *, #9, .F. ) ;
#156 = LENGTH_MEASURE_WITH_UNIT ( LENGTH_MEASURE( 0.02539999999999999897 ), #225 );
#157 =( NAMED_UNIT ( * ) PLANE_ANGLE_UNIT ( ) SI_UNIT ( $, .RADIAN. ) );
#158 = ORIENTED_EDGE ( 'NONE', *, *, #44, .F. ) ;
#159 = DIRECTION ( 'NONE',  ( 0.000000000000000000, 0.000000000000000000, -1.000000000000000000 ) ) ;
#160 = AXIS2_PLACEMENT_3D ( 'NONE', #302, #73, #15 ) ;
#161 = DIRECTION ( 'NONE',  ( -2.578203787678636109E-17, 1.000000000000000000, -0.000000000000000000 ) ) ;
#162 = CLOSED_SHELL ( 'NONE', ( #200, #184, #269, #204 ) ) ;
#163 = STYLED_ITEM ( 'NONE', ( #134 ), #200 ) ;
#164 = DIRECTION ( 'NONE',  ( -1.000000000000000000, 0.000000000000000000, 0.000000000000000000 ) ) ;
#165 = COLOUR_RGB ( '',0.7921568627450980005, 0.8196078431372548767, 0.9333333333333333481 ) ;
#166 = PRODUCT_DEFINITION_SHAPE ( 'NONE', 'NONE',  #295 ) ;
#167 = PRODUCT_DEFINITION_CONTEXT ( 'detailed design', #135, 'design' ) ;
#168 = ORIENTED_EDGE ( 'NONE', *, *, #116, .T. ) ;
#169 = DIRECTION ( 'NONE',  ( -2.578203787678636109E-17, 1.000000000000000000, -0.000000000000000000 ) ) ;
#170 = DIRECTION ( 'NONE',  ( 1.000000000000000000, 2.578203787678636417E-17, 0.000000000000000000 ) ) ;
#171 = STYLED_ITEM ( 'NONE', ( #127 ), #251 ) ;
#172 = SURFACE_STYLE_USAGE ( .BOTH. , #307 ) ;
#173 =( NAMED_UNIT ( * ) SI_UNIT ( $, .STERADIAN. ) SOLID_ANGLE_UNIT ( ) );
#174 = PRESENTATION_STYLE_ASSIGNMENT (( #257 ) ) ;
#175 = EDGE_LOOP ( 'NONE', ( #30, #45, #266, #155 ) ) ;
#176 =( NAMED_UNIT ( * ) SI_UNIT ( $, .STERADIAN. ) SOLID_ANGLE_UNIT ( ) );
#177 = SURFACE_STYLE_USAGE ( .BOTH. , #51 ) ;
#178 = ORIENTED_EDGE ( 'NONE', *, *, #32, .F. ) ;
#179 =( GEOMETRIC_REPRESENTATION_CONTEXT ( 3 ) GLOBAL_UNCERTAINTY_ASSIGNED_CONTEXT ( ( #271 ) ) GLOBAL_UNIT_ASSIGNED_CONTEXT ( ( #220, #2, #176 ) ) REPRESENTATION_CONTEXT ( 'NONE', 'WORKASPACE' ) );
#180 = LINE ( 'NONE', #268, #121 ) ;
#181 = PRESENTATION_LAYER_ASSIGNMENT (  '', '', ( #163 ) ) ;
#182 = DIRECTION ( 'NONE',  ( -0.000000000000000000, -1.000000000000000000, -0.000000000000000000 ) ) ;
#183 = APPLICATION_CONTEXT ( 'automotive_design' ) ;
#184 = ADVANCED_FACE ( 'NONE', ( #100 ), #106, .T. ) ;
#185 = DIMENSIONAL_EXPONENTS ( 1.000000000000000000, 0.000000000000000000, 0.000000000000000000, 0.000000000000000000, 0.000000000000000000, 0.000000000000000000, 0.000000000000000000 ) ;
#186 =( CONVERSION_BASED_UNIT ( 'INCH', #22 ) LENGTH_UNIT ( ) NAMED_UNIT ( #83 ) );
#187 = UNCERTAINTY_MEASURE_WITH_UNIT (LENGTH_MEASURE( 1.000000000000000082E-05 ), #18, 'distance_accuracy_value', 'NONE');
#188 = CIRCLE ( 'NONE', #113, 0.3125000000000000000 ) ;
#189 = DIRECTION ( 'NONE',  ( 2.578203787678636417E-17, -1.000000000000000000, 0.000000000000000000 ) ) ;
#190 = FILL_AREA_STYLE ('',( #275 ) ) ;
#191 =( LENGTH_UNIT ( ) NAMED_UNIT ( * ) SI_UNIT ( $, .METRE. ) );
#192 = CIRCLE ( 'NONE', #273, 0.3125000000000000000 ) ;
#193 = ORIENTED_EDGE ( 'NONE', *, *, #298, .F. ) ;
#194 = LENGTH_MEASURE_WITH_UNIT ( LENGTH_MEASURE( 0.02539999999999999897 ), #154 );
#195 = EDGE_LOOP ( 'NONE', ( #280, #104, #69, #142 ) ) ;
#196 = DIRECTION ( 'NONE',  ( 0.000000000000000000, 0.000000000000000000, -1.000000000000000000 ) ) ;
#197 = FACE_OUTER_BOUND ( 'NONE', #195, .T. ) ;
#198 = DIRECTION ( 'NONE',  ( 0.000000000000000000, 1.000000000000000000, 0.000000000000000000 ) ) ;
#199 =( NAMED_UNIT ( * ) PLANE_ANGLE_UNIT ( ) SI_UNIT ( $, .RADIAN. ) );
#200 = ADVANCED_FACE ( 'NONE', ( #197 ), #287, .T. ) ;
#201 = DIRECTION ( 'NONE',  ( 1.000000000000000000, 0.000000000000000000, 0.000000000000000000 ) ) ;
#202 = MECHANICAL_DESIGN_GEOMETRIC_PRESENTATION_REPRESENTATION (  '', ( #171 ), #67 ) ;
#203 = SHAPE_DEFINITION_REPRESENTATION ( #166, #58 ) ;
#204 = ADVANCED_FACE ( 'NONE', ( #89 ), #40, .T. ) ;
#205 = AXIS2_PLACEMENT_3D ( 'NONE', #304, #239, #131 ) ;
#206 = CARTESIAN_POINT ( 'NONE',  ( 0.000000000000000000, 0.000000000000000000, 0.000000000000000000 ) ) ;
#207 = DIMENSIONAL_EXPONENTS ( 1.000000000000000000, 0.000000000000000000, 0.000000000000000000, 0.000000000000000000, 0.000000000000000000, 0.000000000000000000, 0.000000000000000000 ) ;
#208 = PRODUCT ( '23250', '23250', '', ( #56 ) ) ;
#209 = EDGE_CURVE ( 'NONE', #222, #217, #80, .T. ) ;
#210 = UNCERTAINTY_MEASURE_WITH_UNIT (LENGTH_MEASURE( 1.000000000000000082E-05 ), #78, 'distance_accuracy_value', 'NONE');
#211 =( NAMED_UNIT ( * ) SI_UNIT ( $, .STERADIAN. ) SOLID_ANGLE_UNIT ( ) );
#212 = ADVANCED_FACE ( 'NONE', ( #221 ), #229, .T. ) ;
#213 = LENGTH_MEASURE_WITH_UNIT ( LENGTH_MEASURE( 0.02539999999999999897 ), #259 );
#214 = AXIS2_PLACEMENT_3D ( 'NONE', #285, #23, #196 ) ;
#215 = SURFACE_STYLE_FILL_AREA ( #256 ) ;
#216 = FACE_OUTER_BOUND ( 'NONE', #150, .T. ) ;
#217 = VERTEX_POINT ( 'NONE', #270 ) ;
#218 = CYLINDRICAL_SURFACE ( 'NONE', #253, 0.3125000000000000000 ) ;
#219 = VERTEX_POINT ( 'NONE', #294 ) ;
#220 =( CONVERSION_BASED_UNIT ( 'INCH', #105 ) LENGTH_UNIT ( ) NAMED_UNIT ( #230 ) );
#221 = FACE_OUTER_BOUND ( 'NONE', #175, .T. ) ;
#222 = VERTEX_POINT ( 'NONE', #35 ) ;
#223 = EDGE_CURVE ( 'NONE', #240, #308, #141, .T. ) ;
#224 = EDGE_CURVE ( 'NONE', #219, #308, #63, .T. ) ;
#225 =( LENGTH_UNIT ( ) NAMED_UNIT ( * ) SI_UNIT ( $, .METRE. ) );
#226 =( GEOMETRIC_REPRESENTATION_CONTEXT ( 3 ) GLOBAL_UNCERTAINTY_ASSIGNED_CONTEXT ( ( #210 ) ) GLOBAL_UNIT_ASSIGNED_CONTEXT ( ( #78, #199, #72 ) ) REPRESENTATION_CONTEXT ( 'NONE', 'WORKASPACE' ) );
#227 =( GEOMETRIC_REPRESENTATION_CONTEXT ( 3 ) GLOBAL_UNCERTAINTY_ASSIGNED_CONTEXT ( ( #143 ) ) GLOBAL_UNIT_ASSIGNED_CONTEXT ( ( #64, #279, #68 ) ) REPRESENTATION_CONTEXT ( 'NONE', 'WORKASPACE' ) );
#228 = COLOUR_RGB ( '',1.000000000000000000, 0.000000000000000000, 0.000000000000000000 ) ;
#229 = CYLINDRICAL_SURFACE ( 'NONE', #140, 0.3125000000000000000 ) ;
#230 = DIMENSIONAL_EXPONENTS ( 1.000000000000000000, 0.000000000000000000, 0.000000000000000000, 0.000000000000000000, 0.000000000000000000, 0.000000000000000000, 0.000000000000000000 ) ;
#231 = CIRCLE ( 'NONE', #152, 0.3125000000000000000 ) ;
#232 = MECHANICAL_DESIGN_GEOMETRIC_PRESENTATION_REPRESENTATION (  '', ( #163 ), #226 ) ;
#233 = LINE ( 'NONE', #299, #151 ) ;
#234 = DIRECTION ( 'NONE',  ( -0.000000000000000000, -1.000000000000000000, -0.000000000000000000 ) ) ;
#235 = LINE ( 'NONE', #16, #274 ) ;
#236 = EDGE_CURVE ( 'NONE', #240, #289, #114, .T. ) ;
#237 = SURFACE_STYLE_USAGE ( .BOTH. , #46 ) ;
#238 = COLOUR_RGB ( '',1.000000000000000000, 0.000000000000000000, 0.000000000000000000 ) ;
#239 = DIRECTION ( 'NONE',  ( -0.000000000000000000, -1.000000000000000000, -0.000000000000000000 ) ) ;
#240 = VERTEX_POINT ( 'NONE', #122 ) ;
#241 = AXIS2_PLACEMENT_3D ( 'NONE', #144, #108, #19 ) ;
#242 = PRODUCT_RELATED_PRODUCT_CATEGORY ( 'part', '', ( #208 ) ) ;
#243 =( NAMED_UNIT ( * ) PLANE_ANGLE_UNIT ( ) SI_UNIT ( $, .RADIAN. ) );
#244 = DIRECTION ( 'NONE',  ( 0.000000000000000000, -0.000000000000000000, 1.000000000000000000 ) ) ;
#245 = PRESENTATION_LAYER_ASSIGNMENT (  '', '', ( #278 ) ) ;
#246 = ADVANCED_FACE ( 'NONE', ( #96 ), #50, .F. ) ;
#247 = EDGE_CURVE ( 'NONE', #289, #219, #235, .T. ) ;
#248 = DIRECTION ( 'NONE',  ( -1.000000000000000000, 0.000000000000000000, 0.000000000000000000 ) ) ;
#249 = AXIS2_PLACEMENT_3D ( 'NONE', #206, #84, #146 ) ;
#250 = FACE_OUTER_BOUND ( 'NONE', #65, .T. ) ;
#251 = MANIFOLD_SOLID_BREP ( 'Revolve - Cutting Edge', #162 ) ;
#252 = ORIENTED_EDGE ( 'NONE', *, *, #224, .F. ) ;
#253 = AXIS2_PLACEMENT_3D ( 'NONE', #3, #25, #31 ) ;
#254 = MANIFOLD_SOLID_BREP ( 'Revolve - Tool Body (Straight Shanked)', #12 ) ;
#255 = SURFACE_SIDE_STYLE ('',( #215 ) ) ;
#256 = FILL_AREA_STYLE ('',( #153 ) ) ;
#257 = SURFACE_STYLE_USAGE ( .BOTH. , #103 ) ;
#258 = CARTESIAN_POINT ( 'NONE',  ( -0.3125000000000000000, 1.125000000000000222, 0.000000000000000000 ) ) ;
#259 =( LENGTH_UNIT ( ) NAMED_UNIT ( * ) SI_UNIT ( $, .METRE. ) );
#260 = FILL_AREA_STYLE_COLOUR ( '', #8 ) ;
#261 = FILL_AREA_STYLE_COLOUR ( '', #238 ) ;
#262 = ORIENTED_EDGE ( 'NONE', *, *, #247, .F. ) ;
#263 = SURFACE_STYLE_FILL_AREA ( #305 ) ;
#264 = ORIENTED_EDGE ( 'NONE', *, *, #9, .T. ) ;
#265 = APPLICATION_PROTOCOL_DEFINITION ( 'draft international standard', 'automotive_design', 1998, #183 ) ;
#266 = ORIENTED_EDGE ( 'NONE', *, *, #284, .F. ) ;
#267 = STYLED_ITEM ( 'NONE', ( #174 ), #204 ) ;
#268 = CARTESIAN_POINT ( 'NONE',  ( 0.3124999999999999445, 3.500000000000000000, 3.827021247335478926E-17 ) ) ;
#269 = ADVANCED_FACE ( 'NONE', ( #281 ), #218, .T. ) ;
#270 = CARTESIAN_POINT ( 'NONE',  ( -0.3125000000000001665, 3.500000000000000000, 0.000000000000000000 ) ) ;
#271 = UNCERTAINTY_MEASURE_WITH_UNIT (LENGTH_MEASURE( 1.000000000000000082E-05 ), #220, 'distance_accuracy_value', 'NONE');
#272 = CARTESIAN_POINT ( 'NONE',  ( 0.000000000000000000, 1.125000000000000222, 0.000000000000000000 ) ) ;
#273 = AXIS2_PLACEMENT_3D ( 'NONE', #272, #61, #164 ) ;
#274 = VECTOR ( 'NONE', #234, 39.37007874015748143 ) ;
#275 = FILL_AREA_STYLE_COLOUR ( '', #62 ) ;
#276 = EDGE_LOOP ( 'NONE', ( #262, #137, #297, #252 ) ) ;
#277 = PRESENTATION_STYLE_ASSIGNMENT (( #237 ) ) ;
#278 = STYLED_ITEM ( 'NONE', ( #277 ), #254 ) ;
#279 =( NAMED_UNIT ( * ) PLANE_ANGLE_UNIT ( ) SI_UNIT ( $, .RADIAN. ) );
#280 = ORIENTED_EDGE ( 'NONE', *, *, #236, .T. ) ;
#281 = FACE_OUTER_BOUND ( 'NONE', #276, .T. ) ;
#282 = LENGTH_MEASURE_WITH_UNIT ( LENGTH_MEASURE( 0.02539999999999999897 ), #191 );
#283 = EDGE_CURVE ( 'NONE', #289, #240, #231, .T. ) ;
#284 = EDGE_CURVE ( 'NONE', #217, #222, #291, .T. ) ;
#285 = CARTESIAN_POINT ( 'NONE',  ( 0.000000000000000000, 0.000000000000000000, 0.000000000000000000 ) ) ;
#286 = AXIS2_PLACEMENT_3D ( 'NONE', #112, #107, #55 ) ;
#287 = CYLINDRICAL_SURFACE ( 'NONE', #20, 0.3125000000000000000 ) ;
#288 = LENGTH_MEASURE_WITH_UNIT ( LENGTH_MEASURE( 0.02539999999999999897 ), #110 );
#289 = VERTEX_POINT ( 'NONE', #82 ) ;
#290 = APPLICATION_PROTOCOL_DEFINITION ( 'draft international standard', 'automotive_design', 1998, #135 ) ;
#291 = CIRCLE ( 'NONE', #286, 0.3125000000000000555 ) ;
#292 = AXIS2_PLACEMENT_3D ( 'NONE', #123, #189, #170 ) ;
#293 =( LENGTH_UNIT ( ) NAMED_UNIT ( * ) SI_UNIT ( $, .METRE. ) );
#294 = CARTESIAN_POINT ( 'NONE',  ( 3.827021247335478926E-17, 0.000000000000000000, 0.3125000000000000000 ) ) ;
#295 = PRODUCT_DEFINITION ( 'UNKNOWN', '', #37, #167 ) ;
#296 = UNCERTAINTY_MEASURE_WITH_UNIT (LENGTH_MEASURE( 1.000000000000000082E-05 ), #186, 'distance_accuracy_value', 'NONE');
#297 = ORIENTED_EDGE ( 'NONE', *, *, #223, .T. ) ;
#298 = EDGE_CURVE ( 'NONE', #21, #222, #180, .T. ) ;
#299 = CARTESIAN_POINT ( 'NONE',  ( -0.3125000000000000555, 3.500000000000000000, 0.000000000000000000 ) ) ;
#300 = DIRECTION ( 'NONE',  ( 0.000000000000000000, 0.000000000000000000, -1.000000000000000000 ) ) ;
#301 = FILL_AREA_STYLE_COLOUR ( '', #6 ) ;
#302 = CARTESIAN_POINT ( 'NONE',  ( 0.000000000000000000, 1.125000000000000000, 0.000000000000000000 ) ) ;
#303 = AXIS2_PLACEMENT_3D ( 'NONE', #75, #26, #132 ) ;
#304 = CARTESIAN_POINT ( 'NONE',  ( 0.000000000000000000, 0.000000000000000000, 0.000000000000000000 ) ) ;
#305 = FILL_AREA_STYLE ('',( #260 ) ) ;
#306 = DIRECTION ( 'NONE',  ( -0.000000000000000000, -1.000000000000000000, -0.000000000000000000 ) ) ;
#307 = SURFACE_SIDE_STYLE ('',( #76 ) ) ;
#308 = VERTEX_POINT ( 'NONE', #133 ) ;
#309 = CARTESIAN_POINT ( 'NONE',  ( 0.000000000000000000, 1.125000000000000000, 0.000000000000000000 ) ) ;
ENDSEC;
END-ISO-10303-21;
