ISO-10303-21;
HEADER;
FILE_DESCRIPTION (( 'STEP AP214' ),
    '1' );
FILE_NAME ('Micro_AEMM-080-3.STEP',
    '2022-03-15T14:29:03',
    ( '' ),
    ( '' ),
    'SwSTEP 2.0',
    'SolidWorks 2022',
    '' );
FILE_SCHEMA (( 'AUTOMOTIVE_DESIGN' ));
ENDSEC;

DATA;
#1 = CARTESIAN_POINT ( 'NONE',  ( 1.061811779920977108E-16, 0.000000000000000000, 0.8670351162965940217 ) ) ;
#2 = ADVANCED_FACE ( 'NONE', ( #150 ), #240, .T. ) ;
#3 = CARTESIAN_POINT ( 'NONE',  ( -0.1573230194999999942, 0.000000000000000000, 3.853302645257433254E-17 ) ) ;
#4 = ORIENTED_EDGE ( 'NONE', *, *, #179, .F. ) ;
#5 = COLOUR_RGB ( '',0.7921568627450980005, 0.8196078431372548767, 0.9333333333333333481 ) ;
#6 = PRESENTATION_LAYER_ASSIGNMENT (  '', '', ( #28 ) ) ;
#7 = EDGE_CURVE ( 'NONE', #168, #152, #203, .T. ) ;
#8 = SHAPE_DEFINITION_REPRESENTATION ( #162, #121 ) ;
#9 = VERTEX_POINT ( 'NONE', #82 ) ;
#10 = DIRECTION ( 'NONE',  ( 1.000000000000000000, 0.000000000000000000, 0.000000000000000000 ) ) ;
#11 = DIRECTION ( 'NONE',  ( 0.000000000000000000, 0.000000000000000000, 1.000000000000000000 ) ) ;
#12 = FACE_OUTER_BOUND ( 'NONE', #218, .T. ) ;
#13 = APPLICATION_CONTEXT ( 'automotive_design' ) ;
#14 = DIRECTION ( 'NONE',  ( -1.000000000000000000, 0.000000000000000000, 1.224646799147353454E-16 ) ) ;
#15 = ORIENTED_EDGE ( 'NONE', *, *, #69, .T. ) ;
#16 = CARTESIAN_POINT ( 'NONE',  ( 0.000000000000000000, 0.000000000000000000, 2.480315000000000047 ) ) ;
#17 = CLOSED_SHELL ( 'NONE', ( #106, #285, #41, #236, #2, #225, #31, #278, #194, #175 ) ) ;
#18 = CARTESIAN_POINT ( 'NONE',  ( 0.000000000000000000, 0.000000000000000000, 0.000000000000000000 ) ) ;
#19 = CARTESIAN_POINT ( 'NONE',  ( 0.1573230195000000220, 1.926651322628716935E-17, -1.926651322628716935E-17 ) ) ;
#20 = UNCERTAINTY_MEASURE_WITH_UNIT (LENGTH_MEASURE( 1.000000000000000082E-05 ), #209, 'distance_accuracy_value', 'NONE');
#21 = FILL_AREA_STYLE_COLOUR ( '', #5 ) ;
#22 = SURFACE_SIDE_STYLE ('',( #230 ) ) ;
#23 = ORIENTED_EDGE ( 'NONE', *, *, #263, .T. ) ;
#24 = AXIS2_PLACEMENT_3D ( 'NONE', #185, #65, #157 ) ;
#25 = CONICAL_SURFACE ( 'NONE', #165, 0.1573230195000000220, 0.1745329251994338360 ) ;
#26 = DIRECTION ( 'NONE',  ( 1.000000000000000000, 0.000000000000000000, 0.000000000000000000 ) ) ;
#27 = ORIENTED_EDGE ( 'NONE', *, *, #207, .T. ) ;
#28 = STYLED_ITEM ( 'NONE', ( #258 ), #121 ) ;
#29 = EDGE_LOOP ( 'NONE', ( #78, #118, #211, #143 ) ) ;
#30 = CARTESIAN_POINT ( 'NONE',  ( 0.000000000000000000, 0.000000000000000000, 2.480315000000000047 ) ) ;
#31 = ADVANCED_FACE ( 'NONE', ( #12 ), #146, .T. ) ;
#32 = ORIENTED_EDGE ( 'NONE', *, *, #163, .F. ) ;
#33 = CARTESIAN_POINT ( 'NONE',  ( 1.061811779920977108E-16, 0.000000000000000000, 0.8670351162965940217 ) ) ;
#34 = VERTEX_POINT ( 'NONE', #80 ) ;
#35 = DIRECTION ( 'NONE',  ( 0.1736481776669313304, 0.000000000000000000, 0.9848077530122077983 ) ) ;
#36 = EDGE_CURVE ( 'NONE', #134, #242, #221, .T. ) ;
#37 = FACE_OUTER_BOUND ( 'NONE', #234, .T. ) ;
#38 = VECTOR ( 'NONE', #129, 39.37007874015748854 ) ;
#39 = CARTESIAN_POINT ( 'NONE',  ( 0.000000000000000000, 0.000000000000000000, 0.000000000000000000 ) ) ;
#40 = FACE_OUTER_BOUND ( 'NONE', #145, .T. ) ;
#41 = ADVANCED_FACE ( 'NONE', ( #217 ), #191, .T. ) ;
#42 = DIRECTION ( 'NONE',  ( -0.000000000000000000, -0.000000000000000000, -1.000000000000000000 ) ) ;
#43 = AXIS2_PLACEMENT_3D ( 'NONE', #123, #213, #189 ) ;
#44 = PRODUCT_RELATED_PRODUCT_CATEGORY ( 'part', '', ( #53 ) ) ;
#45 = STYLED_ITEM ( 'NONE', ( #156 ), #200 ) ;
#46 =( GEOMETRIC_REPRESENTATION_CONTEXT ( 3 ) GLOBAL_UNCERTAINTY_ASSIGNED_CONTEXT ( ( #101 ) ) GLOBAL_UNIT_ASSIGNED_CONTEXT ( ( #294, #270, #113 ) ) REPRESENTATION_CONTEXT ( 'NONE', 'WORKASPACE' ) );
#47 = APPLICATION_PROTOCOL_DEFINITION ( 'draft international standard', 'automotive_design', 1998, #111 ) ;
#48 = LENGTH_MEASURE_WITH_UNIT ( LENGTH_MEASURE( 0.02539999999999999897 ), #167 );
#49 = ORIENTED_EDGE ( 'NONE', *, *, #84, .F. ) ;
#50 = ORIENTED_EDGE ( 'NONE', *, *, #7, .F. ) ;
#51 = DIRECTION ( 'NONE',  ( -1.224646799147353207E-16, -0.000000000000000000, -1.000000000000000000 ) ) ;
#52 = VERTEX_POINT ( 'NONE', #283 ) ;
#53 = PRODUCT ( 'Micro_AEMM-080-3', 'Micro_AEMM-080-3', '', ( #282 ) ) ;
#54 = LINE ( 'NONE', #181, #198 ) ;
#55 = AXIS2_PLACEMENT_3D ( 'NONE', #79, #260, #180 ) ;
#56 = DIRECTION ( 'NONE',  ( -1.224646799147353207E-16, -0.000000000000000000, -1.000000000000000000 ) ) ;
#57 = EDGE_CURVE ( 'NONE', #149, #286, #255, .T. ) ;
#58 = DIRECTION ( 'NONE',  ( -1.224646799147353207E-16, -0.000000000000000000, -1.000000000000000000 ) ) ;
#59 = CARTESIAN_POINT ( 'NONE',  ( 0.000000000000000000, 0.000000000000000000, 0.000000000000000000 ) ) ;
#60 = ORIENTED_EDGE ( 'NONE', *, *, #207, .F. ) ;
#61 =( GEOMETRIC_REPRESENTATION_CONTEXT ( 3 ) GLOBAL_UNCERTAINTY_ASSIGNED_CONTEXT ( ( #20 ) ) GLOBAL_UNIT_ASSIGNED_CONTEXT ( ( #209, #119, #277 ) ) REPRESENTATION_CONTEXT ( 'NONE', 'WORKASPACE' ) );
#62 = VECTOR ( 'NONE', #244, 39.37007874015748143 ) ;
#63 = ORIENTED_EDGE ( 'NONE', *, *, #110, .T. ) ;
#64 = VECTOR ( 'NONE', #76, 39.37007874015747433 ) ;
#65 = DIRECTION ( 'NONE',  ( 0.000000000000000000, 0.000000000000000000, -1.000000000000000000 ) ) ;
#66 = DIRECTION ( 'NONE',  ( 1.000000000000000000, 0.000000000000000000, -0.000000000000000000 ) ) ;
#67 = CARTESIAN_POINT ( 'NONE',  ( 0.1574805000000000788, 1.928579902531248645E-17, 0.8670351162965940217 ) ) ;
#68 = AXIS2_PLACEMENT_3D ( 'NONE', #18, #136, #108 ) ;
#69 = EDGE_CURVE ( 'NONE', #34, #152, #153, .T. ) ;
#70 = LINE ( 'NONE', #223, #139 ) ;
#71 = SURFACE_STYLE_USAGE ( .BOTH. , #226 ) ;
#72 = DIRECTION ( 'NONE',  ( -1.000000000000000000, 0.000000000000000000, 0.000000000000000000 ) ) ;
#73 = EDGE_LOOP ( 'NONE', ( #120, #151, #15, #50 ) ) ;
#74 = DIRECTION ( 'NONE',  ( 0.000000000000000000, 0.000000000000000000, 1.000000000000000000 ) ) ;
#75 = ORIENTED_EDGE ( 'NONE', *, *, #247, .T. ) ;
#76 = DIRECTION ( 'NONE',  ( -0.1736481776669311639, 2.126576849575782392E-17, 0.9848077530122080203 ) ) ;
#77 = FILL_AREA_STYLE ('',( #281 ) ) ;
#78 = ORIENTED_EDGE ( 'NONE', *, *, #124, .T. ) ;
#79 = CARTESIAN_POINT ( 'NONE',  ( 0.000000000000000000, 0.000000000000000000, 2.480315000000000047 ) ) ;
#80 = CARTESIAN_POINT ( 'NONE',  ( -0.1574804999999999955, 0.000000000000000000, 2.465314999999999923 ) ) ;
#81 = CARTESIAN_POINT ( 'NONE',  ( 1.060718027907086782E-16, 0.000000000000000000, 0.8661419999999999675 ) ) ;
#82 = CARTESIAN_POINT ( 'NONE',  ( -0.1424804999999990940, 0.000000000000000000, 2.480315000000000047 ) ) ;
#83 = DIRECTION ( 'NONE',  ( -1.000000000000000000, 0.000000000000000000, 0.000000000000000000 ) ) ;
#84 = EDGE_CURVE ( 'NONE', #9, #134, #154, .T. ) ;
#85 = MECHANICAL_DESIGN_GEOMETRIC_PRESENTATION_REPRESENTATION (  '', ( #45 ), #46 ) ;
#86 = DIRECTION ( 'NONE',  ( -1.000000000000000000, 0.000000000000000000, 0.000000000000000000 ) ) ;
#87 = AXIS2_PLACEMENT_3D ( 'NONE', #248, #137, #208 ) ;
#88 = DIRECTION ( 'NONE',  ( 0.000000000000000000, 0.000000000000000000, 1.000000000000000000 ) ) ;
#89 = CYLINDRICAL_SURFACE ( 'NONE', #68, 0.1573230195000000220 ) ;
#90 = AXIS2_PLACEMENT_3D ( 'NONE', #59, #238, #10 ) ;
#91 = PLANE ( 'NONE',  #87 ) ;
#92 = LINE ( 'NONE', #117, #64 ) ;
#93 = DIMENSIONAL_EXPONENTS ( 1.000000000000000000, 0.000000000000000000, 0.000000000000000000, 0.000000000000000000, 0.000000000000000000, 0.000000000000000000, 0.000000000000000000 ) ;
#94 = DIRECTION ( 'NONE',  ( 1.224646799147353207E-16, 0.000000000000000000, 1.000000000000000000 ) ) ;
#95 = ORIENTED_EDGE ( 'NONE', *, *, #57, .T. ) ;
#96 = EDGE_CURVE ( 'NONE', #52, #252, #287, .T. ) ;
#97 =( NAMED_UNIT ( * ) SI_UNIT ( $, .STERADIAN. ) SOLID_ANGLE_UNIT ( ) );
#98 = AXIS2_PLACEMENT_3D ( 'NONE', #295, #202, #160 ) ;
#99 = AXIS2_PLACEMENT_3D ( 'NONE', #249, #229, #86 ) ;
#100 = ORIENTED_EDGE ( 'NONE', *, *, #254, .F. ) ;
#101 = UNCERTAINTY_MEASURE_WITH_UNIT (LENGTH_MEASURE( 1.000000000000000082E-05 ), #294, 'distance_accuracy_value', 'NONE');
#102 = DIRECTION ( 'NONE',  ( -1.000000000000000000, 0.000000000000000000, 0.000000000000000000 ) ) ;
#103 = DIRECTION ( 'NONE',  ( -1.224646799147353207E-16, -0.000000000000000000, -1.000000000000000000 ) ) ;
#104 = ORIENTED_EDGE ( 'NONE', *, *, #273, .T. ) ;
#105 = DIRECTION ( 'NONE',  ( -1.000000000000000000, 0.000000000000000000, 1.224646799147353454E-16 ) ) ;
#106 = ADVANCED_FACE ( 'NONE', ( #197 ), #288, .T. ) ;
#107 = FILL_AREA_STYLE ('',( #21 ) ) ;
#108 = DIRECTION ( 'NONE',  ( -1.000000000000000000, 0.000000000000000000, 1.224646799147353454E-16 ) ) ;
#109 =( LENGTH_UNIT ( ) NAMED_UNIT ( * ) SI_UNIT ( $, .METRE. ) );
#110 = EDGE_CURVE ( 'NONE', #9, #34, #259, .T. ) ;
#111 = APPLICATION_CONTEXT ( 'automotive_design' ) ;
#112 = CARTESIAN_POINT ( 'NONE',  ( -0.1574804999999998845, 0.000000000000000000, 0.8670351162965940217 ) ) ;
#113 =( NAMED_UNIT ( * ) SI_UNIT ( $, .STERADIAN. ) SOLID_ANGLE_UNIT ( ) );
#114 = PRODUCT_DEFINITION_CONTEXT ( 'detailed design', #13, 'design' ) ;
#115 = AXIS2_PLACEMENT_3D ( 'NONE', #33, #196, #289 ) ;
#116 = EDGE_CURVE ( 'NONE', #242, #168, #54, .T. ) ;
#117 = CARTESIAN_POINT ( 'NONE',  ( -0.1573230194999999387, 1.926651322628716935E-17, 0.8661419999999999675 ) ) ;
#118 = ORIENTED_EDGE ( 'NONE', *, *, #116, .T. ) ;
#119 =( NAMED_UNIT ( * ) PLANE_ANGLE_UNIT ( ) SI_UNIT ( $, .RADIAN. ) );
#120 = ORIENTED_EDGE ( 'NONE', *, *, #116, .F. ) ;
#121 = ADVANCED_BREP_SHAPE_REPRESENTATION ( 'Micro_AEMM-080-3', ( #200, #90 ), #228 ) ;
#122 = VECTOR ( 'NONE', #291, 39.37007874015748854 ) ;
#123 = CARTESIAN_POINT ( 'NONE',  ( 1.060718027907086782E-16, 0.000000000000000000, 0.8661419999999999675 ) ) ;
#124 = EDGE_CURVE ( 'NONE', #34, #242, #193, .T. ) ;
#125 = ORIENTED_EDGE ( 'NONE', *, *, #96, .F. ) ;
#126 =( NAMED_UNIT ( * ) PLANE_ANGLE_UNIT ( ) SI_UNIT ( $, .RADIAN. ) );
#127 = AXIS2_PLACEMENT_3D ( 'NONE', #1, #190, #26 ) ;
#128 = COLOUR_RGB ( '',0.7921568627450980005, 0.8196078431372548767, 0.9333333333333333481 ) ;
#129 = DIRECTION ( 'NONE',  ( 0.7071067811865627828, 8.659560562355118980E-17, -0.7071067811865321406 ) ) ;
#130 = EDGE_LOOP ( 'NONE', ( #212, #75 ) ) ;
#131 = ORIENTED_EDGE ( 'NONE', *, *, #187, .F. ) ;
#132 = MECHANICAL_DESIGN_GEOMETRIC_PRESENTATION_REPRESENTATION (  '', ( #28 ), #61 ) ;
#133 = CARTESIAN_POINT ( 'NONE',  ( -0.1574804999999999955, 0.000000000000000000, 2.480315000000000047 ) ) ;
#134 = VERTEX_POINT ( 'NONE', #206 ) ;
#135 = DIRECTION ( 'NONE',  ( -1.224646799147353207E-16, -0.000000000000000000, -1.000000000000000000 ) ) ;
#136 = DIRECTION ( 'NONE',  ( -1.224646799147353207E-16, -0.000000000000000000, -1.000000000000000000 ) ) ;
#137 = DIRECTION ( 'NONE',  ( 0.000000000000000000, 0.000000000000000000, 1.000000000000000000 ) ) ;
#138 = DIMENSIONAL_EXPONENTS ( 1.000000000000000000, 0.000000000000000000, 0.000000000000000000, 0.000000000000000000, 0.000000000000000000, 0.000000000000000000, 0.000000000000000000 ) ;
#139 = VECTOR ( 'NONE', #35, 39.37007874015748143 ) ;
#140 = CARTESIAN_POINT ( 'NONE',  ( 0.1573230195000001330, 0.000000000000000000, 0.8661419999999999675 ) ) ;
#141 = ORIENTED_EDGE ( 'NONE', *, *, #163, .T. ) ;
#142 = DIRECTION ( 'NONE',  ( 1.000000000000000000, 0.000000000000000000, 0.000000000000000000 ) ) ;
#143 = ORIENTED_EDGE ( 'NONE', *, *, #69, .F. ) ;
#144 = DIRECTION ( 'NONE',  ( 1.000000000000000000, 0.000000000000000000, 0.000000000000000000 ) ) ;
#145 = EDGE_LOOP ( 'NONE', ( #60, #253, #192, #125 ) ) ;
#146 = CONICAL_SURFACE ( 'NONE', #55, 0.1424804999999990940, 0.7853981633974699283 ) ;
#147 =( LENGTH_UNIT ( ) NAMED_UNIT ( * ) SI_UNIT ( $, .METRE. ) );
#148 = ORIENTED_EDGE ( 'NONE', *, *, #96, .T. ) ;
#149 = VERTEX_POINT ( 'NONE', #188 ) ;
#150 = FACE_OUTER_BOUND ( 'NONE', #73, .T. ) ;
#151 = ORIENTED_EDGE ( 'NONE', *, *, #187, .T. ) ;
#152 = VERTEX_POINT ( 'NONE', #112 ) ;
#153 = LINE ( 'NONE', #133, #62 ) ;
#154 = CIRCLE ( 'NONE', #246, 0.1424804999999990940 ) ;
#155 = DIRECTION ( 'NONE',  ( 0.000000000000000000, 0.000000000000000000, -1.000000000000000000 ) ) ;
#156 = PRESENTATION_STYLE_ASSIGNMENT (( #71 ) ) ;
#157 = DIRECTION ( 'NONE',  ( 1.000000000000000000, 0.000000000000000000, 0.000000000000000000 ) ) ;
#158 = AXIS2_PLACEMENT_3D ( 'NONE', #261, #58, #105 ) ;
#159 = PRODUCT_DEFINITION_FORMATION_WITH_SPECIFIED_SOURCE ( 'ANY', '', #53, .NOT_KNOWN. ) ;
#160 = DIRECTION ( 'NONE',  ( -1.000000000000000000, 0.000000000000000000, 1.224646799147353454E-16 ) ) ;
#161 = FACE_OUTER_BOUND ( 'NONE', #130, .T. ) ;
#162 = PRODUCT_DEFINITION_SHAPE ( 'NONE', 'NONE',  #299 ) ;
#163 = EDGE_CURVE ( 'NONE', #252, #52, #227, .T. ) ;
#164 = AXIS2_PLACEMENT_3D ( 'NONE', #169, #272, #72 ) ;
#165 = AXIS2_PLACEMENT_3D ( 'NONE', #170, #94, #142 ) ;
#166 = ORIENTED_EDGE ( 'NONE', *, *, #124, .F. ) ;
#167 =( LENGTH_UNIT ( ) NAMED_UNIT ( * ) SI_UNIT ( $, .METRE. ) );
#168 = VERTEX_POINT ( 'NONE', #67 ) ;
#169 = CARTESIAN_POINT ( 'NONE',  ( 1.060718027907086782E-16, 0.000000000000000000, 0.8661419999999999675 ) ) ;
#170 = CARTESIAN_POINT ( 'NONE',  ( 1.060718027907086782E-16, 0.000000000000000000, 0.8661419999999999675 ) ) ;
#171 = ORIENTED_EDGE ( 'NONE', *, *, #57, .F. ) ;
#172 = FACE_OUTER_BOUND ( 'NONE', #237, .T. ) ;
#173 = ORIENTED_EDGE ( 'NONE', *, *, #7, .T. ) ;
#174 = APPLICATION_PROTOCOL_DEFINITION ( 'draft international standard', 'automotive_design', 1998, #13 ) ;
#175 = ADVANCED_FACE ( 'NONE', ( #37 ), #296, .F. ) ;
#176 = DIRECTION ( 'NONE',  ( 1.000000000000000000, 0.000000000000000000, 0.000000000000000000 ) ) ;
#177 = CARTESIAN_POINT ( 'NONE',  ( 0.000000000000000000, 0.000000000000000000, 2.480315000000000047 ) ) ;
#178 = DIRECTION ( 'NONE',  ( -0.000000000000000000, -0.000000000000000000, -1.000000000000000000 ) ) ;
#179 = EDGE_CURVE ( 'NONE', #286, #168, #70, .T. ) ;
#180 = DIRECTION ( 'NONE',  ( -1.000000000000000000, 0.000000000000000000, 0.000000000000000000 ) ) ;
#181 = CARTESIAN_POINT ( 'NONE',  ( 0.1574804999999999955, 1.928579902531247412E-17, 2.480315000000000047 ) ) ;
#182 = AXIS2_PLACEMENT_3D ( 'NONE', #16, #74, #144 ) ;
#183 = VECTOR ( 'NONE', #135, 39.37007874015748143 ) ;
#184 = DIRECTION ( 'NONE',  ( 1.000000000000000000, 0.000000000000000000, 0.000000000000000000 ) ) ;
#185 = CARTESIAN_POINT ( 'NONE',  ( 0.000000000000000000, 0.000000000000000000, 2.465314999999999923 ) ) ;
#186 = SURFACE_STYLE_FILL_AREA ( #107 ) ;
#187 = EDGE_CURVE ( 'NONE', #242, #34, #250, .T. ) ;
#188 = CARTESIAN_POINT ( 'NONE',  ( -0.1573230194999999387, 1.927615612579982019E-17, 0.8661419999999999675 ) ) ;
#189 = DIRECTION ( 'NONE',  ( 1.000000000000000000, 0.000000000000000000, 0.000000000000000000 ) ) ;
#190 = DIRECTION ( 'NONE',  ( -1.224646799147353207E-16, -0.000000000000000000, -1.000000000000000000 ) ) ;
#191 = CONICAL_SURFACE ( 'NONE', #245, 0.1424804999999990940, 0.7853981633974699283 ) ;
#192 = ORIENTED_EDGE ( 'NONE', *, *, #254, .T. ) ;
#193 = CIRCLE ( 'NONE', #222, 0.1574804999999999955 ) ;
#194 = ADVANCED_FACE ( 'NONE', ( #40 ), #89, .T. ) ;
#195 = CARTESIAN_POINT ( 'NONE',  ( 0.1424804999999990940, 1.744882882659133128E-17, 2.480315000000000047 ) ) ;
#196 = DIRECTION ( 'NONE',  ( -1.224646799147353207E-16, -0.000000000000000000, -1.000000000000000000 ) ) ;
#197 = FACE_OUTER_BOUND ( 'NONE', #241, .T. ) ;
#198 = VECTOR ( 'NONE', #42, 39.37007874015748143 ) ;
#199 = ORIENTED_EDGE ( 'NONE', *, *, #247, .F. ) ;
#200 = MANIFOLD_SOLID_BREP ( 'Cut-Revolve1', #17 ) ;
#201 = CARTESIAN_POINT ( 'NONE',  ( -0.1424804999999990940, 0.000000000000000000, 2.480315000000000047 ) ) ;
#202 = DIRECTION ( 'NONE',  ( -1.224646799147353207E-16, -0.000000000000000000, -1.000000000000000000 ) ) ;
#203 = CIRCLE ( 'NONE', #115, 0.1574804999999999955 ) ;
#204 = LENGTH_MEASURE_WITH_UNIT ( LENGTH_MEASURE( 0.02539999999999999897 ), #109 );
#205 = CARTESIAN_POINT ( 'NONE',  ( 0.000000000000000000, 0.000000000000000000, 2.465314999999999923 ) ) ;
#206 = CARTESIAN_POINT ( 'NONE',  ( 0.1424804999999990940, 1.836731392595189962E-17, 2.480315000000000047 ) ) ;
#207 = EDGE_CURVE ( 'NONE', #286, #52, #224, .T. ) ;
#208 = DIRECTION ( 'NONE',  ( 1.000000000000000000, 0.000000000000000000, -0.000000000000000000 ) ) ;
#209 =( CONVERSION_BASED_UNIT ( 'INCH', #48 ) LENGTH_UNIT ( ) NAMED_UNIT ( #93 ) );
#210 = SURFACE_STYLE_USAGE ( .BOTH. , #22 ) ;
#211 = ORIENTED_EDGE ( 'NONE', *, *, #263, .F. ) ;
#212 = ORIENTED_EDGE ( 'NONE', *, *, #84, .T. ) ;
#213 = DIRECTION ( 'NONE',  ( 1.224646799147353207E-16, 0.000000000000000000, 1.000000000000000000 ) ) ;
#214 = EDGE_LOOP ( 'NONE', ( #199, #257, #166, #239 ) ) ;
#215 = PRESENTATION_LAYER_ASSIGNMENT (  '', '', ( #45 ) ) ;
#216 = CIRCLE ( 'NONE', #127, 0.1574804999999999955 ) ;
#217 = FACE_OUTER_BOUND ( 'NONE', #214, .T. ) ;
#218 = EDGE_LOOP ( 'NONE', ( #219, #49, #63, #131 ) ) ;
#219 = ORIENTED_EDGE ( 'NONE', *, *, #36, .F. ) ;
#220 = CARTESIAN_POINT ( 'NONE',  ( 2.359467375330272285E-33, 0.000000000000000000, 1.926651322628716627E-17 ) ) ;
#221 = LINE ( 'NONE', #195, #38 ) ;
#222 = AXIS2_PLACEMENT_3D ( 'NONE', #205, #268, #184 ) ;
#223 = CARTESIAN_POINT ( 'NONE',  ( 0.1573230195000001330, 0.000000000000000000, 0.8661419999999999675 ) ) ;
#224 = LINE ( 'NONE', #19, #183 ) ;
#225 = ADVANCED_FACE ( 'NONE', ( #161 ), #91, .T. ) ;
#226 = SURFACE_SIDE_STYLE ('',( #186 ) ) ;
#227 = CIRCLE ( 'NONE', #98, 0.1573230194999999942 ) ;
#228 =( GEOMETRIC_REPRESENTATION_CONTEXT ( 3 ) GLOBAL_UNCERTAINTY_ASSIGNED_CONTEXT ( ( #284 ) ) GLOBAL_UNIT_ASSIGNED_CONTEXT ( ( #235, #126, #97 ) ) REPRESENTATION_CONTEXT ( 'NONE', 'WORKASPACE' ) );
#229 = DIRECTION ( 'NONE',  ( -0.000000000000000000, -0.000000000000000000, -1.000000000000000000 ) ) ;
#230 = SURFACE_STYLE_FILL_AREA ( #77 ) ;
#231 = ORIENTED_EDGE ( 'NONE', *, *, #290, .F. ) ;
#232 = LINE ( 'NONE', #233, #293 ) ;
#233 = CARTESIAN_POINT ( 'NONE',  ( -0.1573230195000000220, 0.000000000000000000, 1.926651322628716935E-17 ) ) ;
#234 = EDGE_LOOP ( 'NONE', ( #141, #148 ) ) ;
#235 =( CONVERSION_BASED_UNIT ( 'INCH', #279 ) LENGTH_UNIT ( ) NAMED_UNIT ( #138 ) );
#236 = ADVANCED_FACE ( 'NONE', ( #298 ), #271, .T. ) ;
#237 = EDGE_LOOP ( 'NONE', ( #274, #231, #276, #173 ) ) ;
#238 = DIRECTION ( 'NONE',  ( 0.000000000000000000, 0.000000000000000000, 1.000000000000000000 ) ) ;
#239 = ORIENTED_EDGE ( 'NONE', *, *, #110, .F. ) ;
#240 = CYLINDRICAL_SURFACE ( 'NONE', #243, 0.1574804999999999955 ) ;
#241 = EDGE_LOOP ( 'NONE', ( #95, #27, #32, #100 ) ) ;
#242 = VERTEX_POINT ( 'NONE', #267 ) ;
#243 = AXIS2_PLACEMENT_3D ( 'NONE', #177, #178, #264 ) ;
#244 = DIRECTION ( 'NONE',  ( -0.000000000000000000, -0.000000000000000000, -1.000000000000000000 ) ) ;
#245 = AXIS2_PLACEMENT_3D ( 'NONE', #262, #155, #83 ) ;
#246 = AXIS2_PLACEMENT_3D ( 'NONE', #30, #11, #176 ) ;
#247 = EDGE_CURVE ( 'NONE', #134, #9, #266, .T. ) ;
#248 = CARTESIAN_POINT ( 'NONE',  ( 0.000000000000000000, 0.000000000000000000, 2.480315000000000047 ) ) ;
#249 = CARTESIAN_POINT ( 'NONE',  ( 0.000000000000000000, 0.000000000000000000, 2.480315000000000047 ) ) ;
#250 = CIRCLE ( 'NONE', #24, 0.1574804999999999955 ) ;
#251 = EDGE_LOOP ( 'NONE', ( #171, #104, #23, #4 ) ) ;
#252 = VERTEX_POINT ( 'NONE', #3 ) ;
#253 = ORIENTED_EDGE ( 'NONE', *, *, #290, .T. ) ;
#254 = EDGE_CURVE ( 'NONE', #149, #252, #232, .T. ) ;
#255 = CIRCLE ( 'NONE', #280, 0.1573230195000000220 ) ;
#256 = CONICAL_SURFACE ( 'NONE', #43, 0.1573230195000000220, 0.1745329251994338360 ) ;
#257 = ORIENTED_EDGE ( 'NONE', *, *, #36, .T. ) ;
#258 = PRESENTATION_STYLE_ASSIGNMENT (( #210 ) ) ;
#259 = LINE ( 'NONE', #201, #122 ) ;
#260 = DIRECTION ( 'NONE',  ( 0.000000000000000000, 0.000000000000000000, -1.000000000000000000 ) ) ;
#261 = CARTESIAN_POINT ( 'NONE',  ( 0.000000000000000000, 0.000000000000000000, 0.000000000000000000 ) ) ;
#262 = CARTESIAN_POINT ( 'NONE',  ( 0.000000000000000000, 0.000000000000000000, 2.480315000000000047 ) ) ;
#263 = EDGE_CURVE ( 'NONE', #152, #168, #216, .T. ) ;
#264 = DIRECTION ( 'NONE',  ( -1.000000000000000000, 0.000000000000000000, 0.000000000000000000 ) ) ;
#265 = AXIS2_PLACEMENT_3D ( 'NONE', #39, #88, #66 ) ;
#266 = CIRCLE ( 'NONE', #182, 0.1424804999999990940 ) ;
#267 = CARTESIAN_POINT ( 'NONE',  ( 0.1574804999999999955, 1.928579902531247412E-17, 2.465314999999999923 ) ) ;
#268 = DIRECTION ( 'NONE',  ( 0.000000000000000000, 0.000000000000000000, -1.000000000000000000 ) ) ;
#269 = AXIS2_PLACEMENT_3D ( 'NONE', #220, #103, #14 ) ;
#270 =( NAMED_UNIT ( * ) PLANE_ANGLE_UNIT ( ) SI_UNIT ( $, .RADIAN. ) );
#271 = CYLINDRICAL_SURFACE ( 'NONE', #99, 0.1574804999999999955 ) ;
#272 = DIRECTION ( 'NONE',  ( -1.224646799147353207E-16, -0.000000000000000000, -1.000000000000000000 ) ) ;
#273 = EDGE_CURVE ( 'NONE', #149, #152, #92, .T. ) ;
#274 = ORIENTED_EDGE ( 'NONE', *, *, #273, .F. ) ;
#275 = FACE_OUTER_BOUND ( 'NONE', #251, .T. ) ;
#276 = ORIENTED_EDGE ( 'NONE', *, *, #179, .T. ) ;
#277 =( NAMED_UNIT ( * ) SI_UNIT ( $, .STERADIAN. ) SOLID_ANGLE_UNIT ( ) );
#278 = ADVANCED_FACE ( 'NONE', ( #172 ), #256, .T. ) ;
#279 = LENGTH_MEASURE_WITH_UNIT ( LENGTH_MEASURE( 0.02539999999999999897 ), #147 );
#280 = AXIS2_PLACEMENT_3D ( 'NONE', #81, #56, #102 ) ;
#281 = FILL_AREA_STYLE_COLOUR ( '', #128 ) ;
#282 = PRODUCT_CONTEXT ( 'NONE', #111, 'mechanical' ) ;
#283 = CARTESIAN_POINT ( 'NONE',  ( 0.1573230194999999942, 1.926651322628716627E-17, 3.791200677927629740E-33 ) ) ;
#284 = UNCERTAINTY_MEASURE_WITH_UNIT (LENGTH_MEASURE( 1.000000000000000082E-05 ), #235, 'distance_accuracy_value', 'NONE');
#285 = ADVANCED_FACE ( 'NONE', ( #275 ), #25, .T. ) ;
#286 = VERTEX_POINT ( 'NONE', #140 ) ;
#287 = CIRCLE ( 'NONE', #269, 0.1573230194999999942 ) ;
#288 = CYLINDRICAL_SURFACE ( 'NONE', #158, 0.1573230195000000220 ) ;
#289 = DIRECTION ( 'NONE',  ( 1.000000000000000000, 0.000000000000000000, 0.000000000000000000 ) ) ;
#290 = EDGE_CURVE ( 'NONE', #286, #149, #292, .T. ) ;
#291 = DIRECTION ( 'NONE',  ( -0.7071067811865627828, 0.000000000000000000, -0.7071067811865321406 ) ) ;
#292 = CIRCLE ( 'NONE', #164, 0.1573230195000000220 ) ;
#293 = VECTOR ( 'NONE', #51, 39.37007874015748143 ) ;
#294 =( CONVERSION_BASED_UNIT ( 'INCH', #204 ) LENGTH_UNIT ( ) NAMED_UNIT ( #297 ) );
#295 = CARTESIAN_POINT ( 'NONE',  ( 2.359467375330272285E-33, 0.000000000000000000, 1.926651322628716627E-17 ) ) ;
#296 = PLANE ( 'NONE',  #265 ) ;
#297 = DIMENSIONAL_EXPONENTS ( 1.000000000000000000, 0.000000000000000000, 0.000000000000000000, 0.000000000000000000, 0.000000000000000000, 0.000000000000000000, 0.000000000000000000 ) ;
#298 = FACE_OUTER_BOUND ( 'NONE', #29, .T. ) ;
#299 = PRODUCT_DEFINITION ( 'UNKNOWN', '', #159, #114 ) ;
ENDSEC;
END-ISO-10303-21;
