ISO-10303-21;
HEADER;
FILE_DESCRIPTION (( 'STEP AP214' ),
    '1' );
FILE_NAME ('59765.STEP',
    '2023-07-24T15:35:51',
    ( '' ),
    ( '' ),
    'SwSTEP 2.0',
    'SolidWorks 2023',
    '' );
FILE_SCHEMA (( 'AUTOMOTIVE_DESIGN' ));
ENDSEC;

DATA;
#1 = PRODUCT_DEFINITION_CONTEXT ( 'detailed design', #336, 'design' ) ;
#2 = FILL_AREA_STYLE ('',( #366 ) ) ;
#3 = AXIS2_PLACEMENT_3D ( 'NONE', #265, #209, #15 ) ;
#4 = ORIENTED_EDGE ( 'NONE', *, *, #346, .T. ) ;
#5 = EDGE_CURVE ( 'NONE', #185, #246, #202, .T. ) ;
#6 = ADVANCED_FACE ( 'NONE', ( #268 ), #24, .T. ) ;
#7 = DIRECTION ( 'NONE',  ( 0.000000000000000000, 0.000000000000000000, -1.000000000000000000 ) ) ;
#8 =( GEOMETRIC_REPRESENTATION_CONTEXT ( 3 ) GLOBAL_UNCERTAINTY_ASSIGNED_CONTEXT ( ( #141 ) ) GLOBAL_UNIT_ASSIGNED_CONTEXT ( ( #173, #201, #112 ) ) REPRESENTATION_CONTEXT ( 'NONE', 'WORKASPACE' ) );
#9 =( GEOMETRIC_REPRESENTATION_CONTEXT ( 3 ) GLOBAL_UNCERTAINTY_ASSIGNED_CONTEXT ( ( #66 ) ) GLOBAL_UNIT_ASSIGNED_CONTEXT ( ( #274, #367, #343 ) ) REPRESENTATION_CONTEXT ( 'NONE', 'WORKASPACE' ) );
#10 = VERTEX_POINT ( 'NONE', #183 ) ;
#11 = DIRECTION ( 'NONE',  ( -0.000000000000000000, -1.000000000000000000, -0.000000000000000000 ) ) ;
#12 = ORIENTED_EDGE ( 'NONE', *, *, #253, .T. ) ;
#13 = CARTESIAN_POINT ( 'NONE',  ( 0.000000000000000000, 0.000000000000000000, 0.000000000000000000 ) ) ;
#14 = STYLED_ITEM ( 'NONE', ( #307 ), #159 ) ;
#15 = DIRECTION ( 'NONE',  ( 1.000000000000000000, 0.000000000000000000, 0.000000000000000000 ) ) ;
#16 = PRESENTATION_STYLE_ASSIGNMENT (( #210 ) ) ;
#17 = LINE ( 'NONE', #361, #239 ) ;
#18 = EDGE_LOOP ( 'NONE', ( #86, #206 ) ) ;
#19 =( NAMED_UNIT ( * ) PLANE_ANGLE_UNIT ( ) SI_UNIT ( $, .RADIAN. ) );
#20 = FACE_OUTER_BOUND ( 'NONE', #122, .T. ) ;
#21 = CARTESIAN_POINT ( 'NONE',  ( 6.071532165918824830E-15, 50.00000000000000000, 0.000000000000000000 ) ) ;
#22 = AXIS2_PLACEMENT_3D ( 'NONE', #212, #160, #219 ) ;
#23 = DIRECTION ( 'NONE',  ( 1.217753221838294133E-16, -1.000000000000000000, 0.000000000000000000 ) ) ;
#24 = PLANE ( 'NONE',  #224 ) ;
#25 = DIRECTION ( 'NONE',  ( -0.000000000000000000, -1.000000000000000000, -0.000000000000000000 ) ) ;
#26 = CARTESIAN_POINT ( 'NONE',  ( 0.000000000000000000, 1.000000000000000000, 0.000000000000000000 ) ) ;
#27 = EDGE_LOOP ( 'NONE', ( #41, #292 ) ) ;
#28 = EDGE_CURVE ( 'NONE', #332, #10, #252, .T. ) ;
#29 = CARTESIAN_POINT ( 'NONE',  ( 0.000000000000000000, 50.00000000000000000, 0.000000000000000000 ) ) ;
#30 = COLOUR_RGB ( '',1.000000000000000000, 0.000000000000000000, 0.000000000000000000 ) ;
#31 = COLOUR_RGB ( '',1.000000000000000000, 0.000000000000000000, 0.000000000000000000 ) ;
#32 = SURFACE_SIDE_STYLE ('',( #145 ) ) ;
#33 = UNCERTAINTY_MEASURE_WITH_UNIT (LENGTH_MEASURE( 1.000000000000000082E-05 ), #36, 'distance_accuracy_value', 'NONE');
#34 =( NAMED_UNIT ( * ) PLANE_ANGLE_UNIT ( ) SI_UNIT ( $, .RADIAN. ) );
#35 = PRESENTATION_LAYER_ASSIGNMENT (  '', '', ( #365 ) ) ;
#36 =( LENGTH_UNIT ( ) NAMED_UNIT ( * ) SI_UNIT ( .MILLI., .METRE. ) );
#37 = FILL_AREA_STYLE ('',( #135 ) ) ;
#38 = MECHANICAL_DESIGN_GEOMETRIC_PRESENTATION_REPRESENTATION (  '', ( #312 ), #208 ) ;
#39 = FILL_AREA_STYLE ('',( #320 ) ) ;
#40 = DIRECTION ( 'NONE',  ( -1.217753221838294133E-16, 1.000000000000000000, -0.000000000000000000 ) ) ;
#41 = ORIENTED_EDGE ( 'NONE', *, *, #222, .F. ) ;
#42 = PRESENTATION_STYLE_ASSIGNMENT (( #264 ) ) ;
#43 = EDGE_LOOP ( 'NONE', ( #163, #188 ) ) ;
#44 = PLANE ( 'NONE',  #230 ) ;
#45 = AXIS2_PLACEMENT_3D ( 'NONE', #154, #266, #126 ) ;
#46 = DIRECTION ( 'NONE',  ( -1.217753221838294133E-16, 1.000000000000000000, -0.000000000000000000 ) ) ;
#47 = DIRECTION ( 'NONE',  ( 0.000000000000000000, 0.000000000000000000, -1.000000000000000000 ) ) ;
#48 = AXIS2_PLACEMENT_3D ( 'NONE', #166, #176, #47 ) ;
#49 = DIRECTION ( 'NONE',  ( -1.224646799147353454E-16, 0.000000000000000000, -1.000000000000000000 ) ) ;
#50 = PRESENTATION_STYLE_ASSIGNMENT (( #192 ) ) ;
#51 = FILL_AREA_STYLE_COLOUR ( '', #31 ) ;
#52 = AXIS2_PLACEMENT_3D ( 'NONE', #335, #23, #79 ) ;
#53 = CARTESIAN_POINT ( 'NONE',  ( 1.408343819019456176E-15, 1.000000000000000000, 11.50000000000000000 ) ) ;
#54 = FILL_AREA_STYLE_COLOUR ( '', #150 ) ;
#55 = CIRCLE ( 'NONE', #95, 12.49999999999999645 ) ;
#56 = EDGE_CURVE ( 'NONE', #96, #245, #278, .T. ) ;
#57 =( LENGTH_UNIT ( ) NAMED_UNIT ( * ) SI_UNIT ( .MILLI., .METRE. ) );
#58 = STYLED_ITEM ( 'NONE', ( #111 ), #359 ) ;
#59 = EDGE_CURVE ( 'NONE', #127, #96, #91, .T. ) ;
#60 =( NAMED_UNIT ( * ) PLANE_ANGLE_UNIT ( ) SI_UNIT ( $, .RADIAN. ) );
#61 = CIRCLE ( 'NONE', #285, 12.50000000000000355 ) ;
#62 = MECHANICAL_DESIGN_GEOMETRIC_PRESENTATION_REPRESENTATION (  '', ( #365 ), #337 ) ;
#63 = UNCERTAINTY_MEASURE_WITH_UNIT (LENGTH_MEASURE( 1.000000000000000082E-05 ), #94, 'distance_accuracy_value', 'NONE');
#64 = COLOUR_RGB ( '',1.000000000000000000, 0.000000000000000000, 0.000000000000000000 ) ;
#65 = EDGE_CURVE ( 'NONE', #246, #332, #272, .T. ) ;
#66 = UNCERTAINTY_MEASURE_WITH_UNIT (LENGTH_MEASURE( 1.000000000000000082E-05 ), #274, 'distance_accuracy_value', 'NONE');
#67 = PRESENTATION_LAYER_ASSIGNMENT (  '', '', ( #181 ) ) ;
#68 = PRESENTATION_LAYER_ASSIGNMENT (  '', '', ( #58 ) ) ;
#69 = ORIENTED_EDGE ( 'NONE', *, *, #59, .T. ) ;
#70 = ADVANCED_FACE ( 'NONE', ( #231 ), #286, .T. ) ;
#71 = FILL_AREA_STYLE_COLOUR ( '', #149 ) ;
#72 = EDGE_CURVE ( 'NONE', #353, #127, #55, .T. ) ;
#73 = CARTESIAN_POINT ( 'NONE',  ( 0.000000000000000000, 0.000000000000000000, 0.000000000000000000 ) ) ;
#74 = SURFACE_STYLE_FILL_AREA ( #123 ) ;
#75 = TOROIDAL_SURFACE ( 'NONE', #121, 11.50000000000000000, 1.000000000000000444 ) ;
#76 = ORIENTED_EDGE ( 'NONE', *, *, #326, .F. ) ;
#77 = DIRECTION ( 'NONE',  ( 0.000000000000000000, 0.000000000000000000, -1.000000000000000000 ) ) ;
#78 = SURFACE_SIDE_STYLE ('',( #330 ) ) ;
#79 = DIRECTION ( 'NONE',  ( 1.000000000000000000, 1.217753221838294133E-16, 0.000000000000000000 ) ) ;
#80 = LINE ( 'NONE', #193, #308 ) ;
#81 =( LENGTH_UNIT ( ) NAMED_UNIT ( * ) SI_UNIT ( .MILLI., .METRE. ) );
#82 = CARTESIAN_POINT ( 'NONE',  ( 12.50000000000000000, 124.9999999999999858, 1.530808498934191719E-15 ) ) ;
#83 = FACE_OUTER_BOUND ( 'NONE', #128, .T. ) ;
#84 =( GEOMETRIC_REPRESENTATION_CONTEXT ( 3 ) GLOBAL_UNCERTAINTY_ASSIGNED_CONTEXT ( ( #87 ) ) GLOBAL_UNIT_ASSIGNED_CONTEXT ( ( #241, #19, #325 ) ) REPRESENTATION_CONTEXT ( 'NONE', 'WORKASPACE' ) );
#85 = AXIS2_PLACEMENT_3D ( 'NONE', #53, #296, #49 ) ;
#86 = ORIENTED_EDGE ( 'NONE', *, *, #302, .F. ) ;
#87 = UNCERTAINTY_MEASURE_WITH_UNIT (LENGTH_MEASURE( 1.000000000000000082E-05 ), #241, 'distance_accuracy_value', 'NONE');
#88 = CLOSED_SHELL ( 'NONE', ( #277, #180, #198, #235 ) ) ;
#89 = ORIENTED_EDGE ( 'NONE', *, *, #138, .T. ) ;
#90 = EDGE_CURVE ( 'NONE', #185, #237, #80, .T. ) ;
#91 = LINE ( 'NONE', #255, #323 ) ;
#92 = MECHANICAL_DESIGN_GEOMETRIC_PRESENTATION_REPRESENTATION (  '', ( #357 ), #84 ) ;
#93 = AXIS2_PLACEMENT_3D ( 'NONE', #299, #46, #133 ) ;
#94 =( LENGTH_UNIT ( ) NAMED_UNIT ( * ) SI_UNIT ( .MILLI., .METRE. ) );
#95 = AXIS2_PLACEMENT_3D ( 'NONE', #21, #101, #156 ) ;
#96 = VERTEX_POINT ( 'NONE', #186 ) ;
#97 = CYLINDRICAL_SURFACE ( 'NONE', #267, 12.50000000000000000 ) ;
#98 = CARTESIAN_POINT ( 'NONE',  ( 1.530808498934191521E-15, 50.00000000000000000, 12.50000000000000000 ) ) ;
#99 = DIRECTION ( 'NONE',  ( -1.217753221838294133E-16, 1.000000000000000000, -0.000000000000000000 ) ) ;
#100 =( GEOMETRIC_REPRESENTATION_CONTEXT ( 3 ) GLOBAL_UNCERTAINTY_ASSIGNED_CONTEXT ( ( #248 ) ) GLOBAL_UNIT_ASSIGNED_CONTEXT ( ( #153, #234, #216 ) ) REPRESENTATION_CONTEXT ( 'NONE', 'WORKASPACE' ) );
#101 = DIRECTION ( 'NONE',  ( -1.217753221838294133E-16, 1.000000000000000000, -0.000000000000000000 ) ) ;
#102 = AXIS2_PLACEMENT_3D ( 'NONE', #263, #355, #242 ) ;
#103 = APPLICATION_PROTOCOL_DEFINITION ( 'draft international standard', 'automotive_design', 1998, #336 ) ;
#104 = PLANE ( 'NONE',  #52 ) ;
#105 = ORIENTED_EDGE ( 'NONE', *, *, #28, .F. ) ;
#106 = CARTESIAN_POINT ( 'NONE',  ( 0.000000000000000000, 50.00000000000000000, 0.000000000000000000 ) ) ;
#107 = SURFACE_SIDE_STYLE ('',( #134 ) ) ;
#108 = ADVANCED_FACE ( 'NONE', ( #334 ), #97, .T. ) ;
#109 = PRESENTATION_LAYER_ASSIGNMENT (  '', '', ( #14 ) ) ;
#110 = SURFACE_STYLE_FILL_AREA ( #2 ) ;
#111 = PRESENTATION_STYLE_ASSIGNMENT (( #275 ) ) ;
#112 =( NAMED_UNIT ( * ) SI_UNIT ( $, .STERADIAN. ) SOLID_ANGLE_UNIT ( ) );
#113 = EDGE_CURVE ( 'NONE', #245, #96, #61, .T. ) ;
#114 = PRESENTATION_STYLE_ASSIGNMENT (( #118 ) ) ;
#115 =( GEOMETRIC_REPRESENTATION_CONTEXT ( 3 ) GLOBAL_UNCERTAINTY_ASSIGNED_CONTEXT ( ( #347 ) ) GLOBAL_UNIT_ASSIGNED_CONTEXT ( ( #81, #148, #303 ) ) REPRESENTATION_CONTEXT ( 'NONE', 'WORKASPACE' ) );
#116 = VECTOR ( 'NONE', #11, 1000.000000000000000 ) ;
#117 = ORIENTED_EDGE ( 'NONE', *, *, #302, .T. ) ;
#118 = SURFACE_STYLE_USAGE ( .BOTH. , #32 ) ;
#119 = PRESENTATION_LAYER_ASSIGNMENT (  '', '', ( #357 ) ) ;
#120 = DIRECTION ( 'NONE',  ( 0.000000000000000000, -0.000000000000000000, 1.000000000000000000 ) ) ;
#121 = AXIS2_PLACEMENT_3D ( 'NONE', #26, #301, #244 ) ;
#122 = EDGE_LOOP ( 'NONE', ( #175, #139, #309, #314 ) ) ;
#123 = FILL_AREA_STYLE ('',( #71 ) ) ;
#124 = DIRECTION ( 'NONE',  ( -1.217753221838294133E-16, 1.000000000000000000, 0.000000000000000000 ) ) ;
#125 = MANIFOLD_SOLID_BREP ( 'Revolve - Cutting Edge', #340 ) ;
#126 = DIRECTION ( 'NONE',  ( 0.000000000000000000, 0.000000000000000000, -1.000000000000000000 ) ) ;
#127 = VERTEX_POINT ( 'NONE', #298 ) ;
#128 = EDGE_LOOP ( 'NONE', ( #324, #4, #144, #105 ) ) ;
#129 = CYLINDRICAL_SURFACE ( 'NONE', #358, 12.50000000000000000 ) ;
#130 = STYLED_ITEM ( 'NONE', ( #16 ), #125 ) ;
#131 = MANIFOLD_SOLID_BREP ( 'Revolve - Tool Body (Straight Shanked)', #88 ) ;
#132 =( NAMED_UNIT ( * ) PLANE_ANGLE_UNIT ( ) SI_UNIT ( $, .RADIAN. ) );
#133 = DIRECTION ( 'NONE',  ( -1.000000000000000000, 0.000000000000000000, 0.000000000000000000 ) ) ;
#134 = SURFACE_STYLE_FILL_AREA ( #170 ) ;
#135 = FILL_AREA_STYLE_COLOUR ( '', #64 ) ;
#136 = MECHANICAL_DESIGN_GEOMETRIC_PRESENTATION_REPRESENTATION (  '', ( #181 ), #8 ) ;
#137 = AXIS2_PLACEMENT_3D ( 'NONE', #194, #354, #217 ) ;
#138 = EDGE_CURVE ( 'NONE', #10, #152, #213, .T. ) ;
#139 = ORIENTED_EDGE ( 'NONE', *, *, #90, .T. ) ;
#140 = COLOUR_RGB ( '',1.000000000000000000, 0.000000000000000000, 0.000000000000000000 ) ;
#141 = UNCERTAINTY_MEASURE_WITH_UNIT (LENGTH_MEASURE( 1.000000000000000082E-05 ), #173, 'distance_accuracy_value', 'NONE');
#142 = MECHANICAL_DESIGN_GEOMETRIC_PRESENTATION_REPRESENTATION (  '', ( #58 ), #196 ) ;
#143 = CIRCLE ( 'NONE', #85, 1.000000000000000888 ) ;
#144 = ORIENTED_EDGE ( 'NONE', *, *, #138, .F. ) ;
#145 = SURFACE_STYLE_FILL_AREA ( #39 ) ;
#146 = SURFACE_STYLE_USAGE ( .BOTH. , #321 ) ;
#147 = DIRECTION ( 'NONE',  ( -0.000000000000000000, -1.000000000000000000, -0.000000000000000000 ) ) ;
#148 =( NAMED_UNIT ( * ) PLANE_ANGLE_UNIT ( ) SI_UNIT ( $, .RADIAN. ) );
#149 = COLOUR_RGB ( '',0.7921568627450980005, 0.8196078431372548767, 0.9333333333333333481 ) ;
#150 = COLOUR_RGB ( '',1.000000000000000000, 0.000000000000000000, 0.000000000000000000 ) ;
#151 = DIRECTION ( 'NONE',  ( -1.000000000000000000, -1.217753221838294133E-16, 0.000000000000000000 ) ) ;
#152 = VERTEX_POINT ( 'NONE', #169 ) ;
#153 =( LENGTH_UNIT ( ) NAMED_UNIT ( * ) SI_UNIT ( .MILLI., .METRE. ) );
#154 = CARTESIAN_POINT ( 'NONE',  ( 0.000000000000000000, 1.000000000000000000, 0.000000000000000000 ) ) ;
#155 = EDGE_LOOP ( 'NONE', ( #342, #289, #280, #349 ) ) ;
#156 = DIRECTION ( 'NONE',  ( -1.000000000000000000, 0.000000000000000000, 0.000000000000000000 ) ) ;
#157 = ADVANCED_BREP_SHAPE_REPRESENTATION ( '59765', ( #125, #131, #3 ), #115 ) ;
#158 = CARTESIAN_POINT ( 'NONE',  ( 12.50000000000000000, 50.00000000000000000, 1.530808498934192113E-15 ) ) ;
#159 = ADVANCED_FACE ( 'NONE', ( #83 ), #75, .T. ) ;
#160 = DIRECTION ( 'NONE',  ( -0.000000000000000000, -1.000000000000000000, -0.000000000000000000 ) ) ;
#161 = ORIENTED_EDGE ( 'NONE', *, *, #346, .F. ) ;
#162 = CARTESIAN_POINT ( 'NONE',  ( 0.000000000000000000, 50.00000000000000000, 0.000000000000000000 ) ) ;
#163 = ORIENTED_EDGE ( 'NONE', *, *, #56, .T. ) ;
#164 = CARTESIAN_POINT ( 'NONE',  ( 0.000000000000000000, 0.000000000000000000, 0.000000000000000000 ) ) ;
#165 = TOROIDAL_SURFACE ( 'NONE', #22, 11.50000000000000000, 1.000000000000000444 ) ;
#166 = CARTESIAN_POINT ( 'NONE',  ( 0.000000000000000000, 0.000000000000000000, 0.000000000000000000 ) ) ;
#167 = PRODUCT_CONTEXT ( 'NONE', #315, 'mechanical' ) ;
#168 = FILL_AREA_STYLE ('',( #243 ) ) ;
#169 = CARTESIAN_POINT ( 'NONE',  ( 1.469576158976823947E-15, 0.000000000000000000, 11.50000000000000000 ) ) ;
#170 = FILL_AREA_STYLE ('',( #54 ) ) ;
#171 = EDGE_LOOP ( 'NONE', ( #117, #306, #190, #297 ) ) ;
#172 = PRESENTATION_LAYER_ASSIGNMENT (  '', '', ( #177 ) ) ;
#173 =( LENGTH_UNIT ( ) NAMED_UNIT ( * ) SI_UNIT ( .MILLI., .METRE. ) );
#174 = UNCERTAINTY_MEASURE_WITH_UNIT (LENGTH_MEASURE( 1.000000000000000082E-05 ), #57, 'distance_accuracy_value', 'NONE');
#175 = ORIENTED_EDGE ( 'NONE', *, *, #222, .T. ) ;
#176 = DIRECTION ( 'NONE',  ( 0.000000000000000000, -1.000000000000000000, -0.000000000000000000 ) ) ;
#177 = STYLED_ITEM ( 'NONE', ( #341 ), #6 ) ;
#178 = CARTESIAN_POINT ( 'NONE',  ( 0.000000000000000000, 0.000000000000000000, 0.000000000000000000 ) ) ;
#179 = UNCERTAINTY_MEASURE_WITH_UNIT (LENGTH_MEASURE( 1.000000000000000082E-05 ), #313, 'distance_accuracy_value', 'NONE');
#180 = ADVANCED_FACE ( 'NONE', ( #269 ), #44, .F. ) ;
#181 = STYLED_ITEM ( 'NONE', ( #50 ), #131 ) ;
#182 = DIRECTION ( 'NONE',  ( -1.000000000000000000, 0.000000000000000000, 0.000000000000000000 ) ) ;
#183 = CARTESIAN_POINT ( 'NONE',  ( 0.000000000000000000, 0.000000000000000000, -11.50000000000000000 ) ) ;
#184 = EDGE_LOOP ( 'NONE', ( #89, #12 ) ) ;
#185 = VERTEX_POINT ( 'NONE', #98 ) ;
#186 = CARTESIAN_POINT ( 'NONE',  ( -12.50000000000000711, 124.9999999999999858, 0.000000000000000000 ) ) ;
#187 = EDGE_CURVE ( 'NONE', #332, #237, #214, .T. ) ;
#188 = ORIENTED_EDGE ( 'NONE', *, *, #113, .T. ) ;
#189 = DIRECTION ( 'NONE',  ( -1.000000000000000000, 0.000000000000000000, 0.000000000000000000 ) ) ;
#190 = ORIENTED_EDGE ( 'NONE', *, *, #56, .F. ) ;
#191 = DIRECTION ( 'NONE',  ( -0.000000000000000000, -1.000000000000000000, -0.000000000000000000 ) ) ;
#192 = SURFACE_STYLE_USAGE ( .BOTH. , #78 ) ;
#193 = CARTESIAN_POINT ( 'NONE',  ( 1.530808498934191521E-15, 0.000000000000000000, 12.50000000000000000 ) ) ;
#194 = CARTESIAN_POINT ( 'NONE',  ( -3.061616997868379493E-15, 124.9999999999999858, 0.000000000000000000 ) ) ;
#195 = SURFACE_STYLE_USAGE ( .BOTH. , #107 ) ;
#196 =( GEOMETRIC_REPRESENTATION_CONTEXT ( 3 ) GLOBAL_UNCERTAINTY_ASSIGNED_CONTEXT ( ( #179 ) ) GLOBAL_UNIT_ASSIGNED_CONTEXT ( ( #313, #60, #225 ) ) REPRESENTATION_CONTEXT ( 'NONE', 'WORKASPACE' ) );
#197 = DIRECTION ( 'NONE',  ( 0.000000000000000000, 0.000000000000000000, 1.000000000000000000 ) ) ;
#198 = ADVANCED_FACE ( 'NONE', ( #360 ), #220, .T. ) ;
#199 = SURFACE_SIDE_STYLE ('',( #110 ) ) ;
#200 = PRODUCT ( '59765', '59765', '', ( #167 ) ) ;
#201 =( NAMED_UNIT ( * ) PLANE_ANGLE_UNIT ( ) SI_UNIT ( $, .RADIAN. ) );
#202 = CIRCLE ( 'NONE', #369, 12.50000000000000000 ) ;
#203 = EDGE_LOOP ( 'NONE', ( #161, #288, #259, #261 ) ) ;
#204 = FACE_OUTER_BOUND ( 'NONE', #203, .T. ) ;
#205 = COLOUR_RGB ( '',0.7921568627450980005, 0.8196078431372548767, 0.9333333333333333481 ) ;
#206 = ORIENTED_EDGE ( 'NONE', *, *, #72, .F. ) ;
#207 = SURFACE_STYLE_FILL_AREA ( #37 ) ;
#208 =( GEOMETRIC_REPRESENTATION_CONTEXT ( 3 ) GLOBAL_UNCERTAINTY_ASSIGNED_CONTEXT ( ( #63 ) ) GLOBAL_UNIT_ASSIGNED_CONTEXT ( ( #94, #132, #362 ) ) REPRESENTATION_CONTEXT ( 'NONE', 'WORKASPACE' ) );
#209 = DIRECTION ( 'NONE',  ( 0.000000000000000000, 0.000000000000000000, 1.000000000000000000 ) ) ;
#210 = SURFACE_STYLE_USAGE ( .BOTH. , #232 ) ;
#211 = DIRECTION ( 'NONE',  ( -0.000000000000000000, -1.000000000000000000, -0.000000000000000000 ) ) ;
#212 = CARTESIAN_POINT ( 'NONE',  ( 0.000000000000000000, 1.000000000000000000, 0.000000000000000000 ) ) ;
#213 = CIRCLE ( 'NONE', #281, 11.50000000000000000 ) ;
#214 = CIRCLE ( 'NONE', #351, 12.50000000000000000 ) ;
#215 = FACE_OUTER_BOUND ( 'NONE', #43, .T. ) ;
#216 =( NAMED_UNIT ( * ) SI_UNIT ( $, .STERADIAN. ) SOLID_ANGLE_UNIT ( ) );
#217 = DIRECTION ( 'NONE',  ( -1.000000000000000000, 0.000000000000000000, 0.000000000000000000 ) ) ;
#218 = ORIENTED_EDGE ( 'NONE', *, *, #72, .T. ) ;
#219 = DIRECTION ( 'NONE',  ( 0.000000000000000000, 0.000000000000000000, -1.000000000000000000 ) ) ;
#220 = CYLINDRICAL_SURFACE ( 'NONE', #137, 12.49999999999999822 ) ;
#221 = COLOUR_RGB ( '',1.000000000000000000, 0.000000000000000000, 0.000000000000000000 ) ;
#222 = EDGE_CURVE ( 'NONE', #246, #185, #251, .T. ) ;
#223 = SURFACE_SIDE_STYLE ('',( #273 ) ) ;
#224 = AXIS2_PLACEMENT_3D ( 'NONE', #106, #258, #120 ) ;
#225 =( NAMED_UNIT ( * ) SI_UNIT ( $, .STERADIAN. ) SOLID_ANGLE_UNIT ( ) );
#226 = CARTESIAN_POINT ( 'NONE',  ( -3.061616997868379493E-15, 124.9999999999999858, 0.000000000000000000 ) ) ;
#227 =( NAMED_UNIT ( * ) SI_UNIT ( $, .STERADIAN. ) SOLID_ANGLE_UNIT ( ) );
#228 = ORIENTED_EDGE ( 'NONE', *, *, #113, .F. ) ;
#229 = DIRECTION ( 'NONE',  ( -1.217753221838294133E-16, 1.000000000000000000, -0.000000000000000000 ) ) ;
#230 = AXIS2_PLACEMENT_3D ( 'NONE', #260, #124, #151 ) ;
#231 = FACE_OUTER_BOUND ( 'NONE', #184, .T. ) ;
#232 = SURFACE_SIDE_STYLE ('',( #74 ) ) ;
#233 = CARTESIAN_POINT ( 'NONE',  ( 0.000000000000000000, 1.000000000000000000, 0.000000000000000000 ) ) ;
#234 =( NAMED_UNIT ( * ) PLANE_ANGLE_UNIT ( ) SI_UNIT ( $, .RADIAN. ) );
#235 = ADVANCED_FACE ( 'NONE', ( #215 ), #104, .F. ) ;
#236 = CARTESIAN_POINT ( 'NONE',  ( 1.530808498934191521E-15, 1.000000000000000000, 12.50000000000000000 ) ) ;
#237 = VERTEX_POINT ( 'NONE', #236 ) ;
#238 = FILL_AREA_STYLE_COLOUR ( '', #205 ) ;
#239 = VECTOR ( 'NONE', #99, 1000.000000000000000 ) ;
#240 = CYLINDRICAL_SURFACE ( 'NONE', #93, 12.49999999999999822 ) ;
#241 =( LENGTH_UNIT ( ) NAMED_UNIT ( * ) SI_UNIT ( .MILLI., .METRE. ) );
#242 = DIRECTION ( 'NONE',  ( -1.000000000000000000, 0.000000000000000000, 0.000000000000000000 ) ) ;
#243 = FILL_AREA_STYLE_COLOUR ( '', #140 ) ;
#244 = DIRECTION ( 'NONE',  ( 0.000000000000000000, 0.000000000000000000, -1.000000000000000000 ) ) ;
#245 = VERTEX_POINT ( 'NONE', #82 ) ;
#246 = VERTEX_POINT ( 'NONE', #327 ) ;
#247 = CIRCLE ( 'NONE', #310, 11.50000000000000000 ) ;
#248 = UNCERTAINTY_MEASURE_WITH_UNIT (LENGTH_MEASURE( 1.000000000000000082E-05 ), #153, 'distance_accuracy_value', 'NONE');
#249 = AXIS2_PLACEMENT_3D ( 'NONE', #287, #270, #197 ) ;
#250 =( NAMED_UNIT ( * ) SI_UNIT ( $, .STERADIAN. ) SOLID_ANGLE_UNIT ( ) );
#251 = CIRCLE ( 'NONE', #338, 12.50000000000000000 ) ;
#252 = CIRCLE ( 'NONE', #249, 1.000000000000000888 ) ;
#253 = EDGE_CURVE ( 'NONE', #152, #10, #247, .T. ) ;
#254 = EDGE_LOOP ( 'NONE', ( #76, #218, #69, #228 ) ) ;
#255 = CARTESIAN_POINT ( 'NONE',  ( -12.50000000000000178, 124.9999999999999858, 0.000000000000000000 ) ) ;
#256 = CARTESIAN_POINT ( 'NONE',  ( -3.061616997868379493E-15, 124.9999999999999858, 0.000000000000000000 ) ) ;
#257 = CIRCLE ( 'NONE', #102, 12.49999999999999645 ) ;
#258 = DIRECTION ( 'NONE',  ( 0.000000000000000000, 1.000000000000000000, 0.000000000000000000 ) ) ;
#259 = ORIENTED_EDGE ( 'NONE', *, *, #28, .T. ) ;
#260 = CARTESIAN_POINT ( 'NONE',  ( 6.071532165918824830E-15, 50.00000000000000000, 0.000000000000000000 ) ) ;
#261 = ORIENTED_EDGE ( 'NONE', *, *, #253, .F. ) ;
#262 = PRESENTATION_LAYER_ASSIGNMENT (  '', '', ( #312 ) ) ;
#263 = CARTESIAN_POINT ( 'NONE',  ( 6.071532165918824830E-15, 50.00000000000000000, 0.000000000000000000 ) ) ;
#264 = SURFACE_STYLE_USAGE ( .BOTH. , #322 ) ;
#265 = CARTESIAN_POINT ( 'NONE',  ( 0.000000000000000000, 0.000000000000000000, 0.000000000000000000 ) ) ;
#266 = DIRECTION ( 'NONE',  ( -0.000000000000000000, -1.000000000000000000, -0.000000000000000000 ) ) ;
#267 = AXIS2_PLACEMENT_3D ( 'NONE', #164, #25, #328 ) ;
#268 = FACE_OUTER_BOUND ( 'NONE', #27, .T. ) ;
#269 = FACE_OUTER_BOUND ( 'NONE', #18, .T. ) ;
#270 = DIRECTION ( 'NONE',  ( -1.000000000000000000, 0.000000000000000000, 0.000000000000000000 ) ) ;
#271 = MECHANICAL_DESIGN_GEOMETRIC_PRESENTATION_REPRESENTATION (  '', ( #177 ), #370 ) ;
#272 = LINE ( 'NONE', #348, #116 ) ;
#273 = SURFACE_STYLE_FILL_AREA ( #168 ) ;
#274 =( LENGTH_UNIT ( ) NAMED_UNIT ( * ) SI_UNIT ( .MILLI., .METRE. ) );
#275 = SURFACE_STYLE_USAGE ( .BOTH. , #199 ) ;
#276 = SURFACE_STYLE_USAGE ( .BOTH. , #223 ) ;
#277 = ADVANCED_FACE ( 'NONE', ( #293 ), #240, .T. ) ;
#278 = CIRCLE ( 'NONE', #316, 12.50000000000000355 ) ;
#279 = MECHANICAL_DESIGN_GEOMETRIC_PRESENTATION_REPRESENTATION (  '', ( #130 ), #100 ) ;
#280 = ORIENTED_EDGE ( 'NONE', *, *, #65, .T. ) ;
#281 = AXIS2_PLACEMENT_3D ( 'NONE', #13, #295, #311 ) ;
#282 = EDGE_CURVE ( 'NONE', #237, #332, #304, .T. ) ;
#283 = DIRECTION ( 'NONE',  ( -0.000000000000000000, -1.000000000000000000, -0.000000000000000000 ) ) ;
#284 = PRODUCT_DEFINITION_SHAPE ( 'NONE', 'NONE',  #317 ) ;
#285 = AXIS2_PLACEMENT_3D ( 'NONE', #256, #229, #189 ) ;
#286 = PLANE ( 'NONE',  #48 ) ;
#287 = CARTESIAN_POINT ( 'NONE',  ( 0.000000000000000000, 1.000000000000000000, -11.50000000000000000 ) ) ;
#288 = ORIENTED_EDGE ( 'NONE', *, *, #282, .T. ) ;
#289 = ORIENTED_EDGE ( 'NONE', *, *, #5, .T. ) ;
#290 =( NAMED_UNIT ( * ) PLANE_ANGLE_UNIT ( ) SI_UNIT ( $, .RADIAN. ) );
#291 = APPLICATION_PROTOCOL_DEFINITION ( 'draft international standard', 'automotive_design', 1998, #315 ) ;
#292 = ORIENTED_EDGE ( 'NONE', *, *, #5, .F. ) ;
#293 = FACE_OUTER_BOUND ( 'NONE', #171, .T. ) ;
#294 = PRODUCT_RELATED_PRODUCT_CATEGORY ( 'part', '', ( #200 ) ) ;
#295 = DIRECTION ( 'NONE',  ( -0.000000000000000000, -1.000000000000000000, -0.000000000000000000 ) ) ;
#296 = DIRECTION ( 'NONE',  ( 1.000000000000000000, 0.000000000000000000, -1.224646799147353207E-16 ) ) ;
#297 = ORIENTED_EDGE ( 'NONE', *, *, #59, .F. ) ;
#298 = CARTESIAN_POINT ( 'NONE',  ( -12.49999999999999112, 50.00000000000000000, 0.000000000000000000 ) ) ;
#299 = CARTESIAN_POINT ( 'NONE',  ( -3.061616997868379493E-15, 124.9999999999999858, 0.000000000000000000 ) ) ;
#300 = SURFACE_STYLE_FILL_AREA ( #350 ) ;
#301 = DIRECTION ( 'NONE',  ( -0.000000000000000000, -1.000000000000000000, -0.000000000000000000 ) ) ;
#302 = EDGE_CURVE ( 'NONE', #127, #353, #257, .T. ) ;
#303 =( NAMED_UNIT ( * ) SI_UNIT ( $, .STERADIAN. ) SOLID_ANGLE_UNIT ( ) );
#304 = CIRCLE ( 'NONE', #45, 12.50000000000000000 ) ;
#305 = CARTESIAN_POINT ( 'NONE',  ( 0.000000000000000000, 1.000000000000000000, -12.50000000000000000 ) ) ;
#306 = ORIENTED_EDGE ( 'NONE', *, *, #326, .T. ) ;
#307 = PRESENTATION_STYLE_ASSIGNMENT (( #195 ) ) ;
#308 = VECTOR ( 'NONE', #147, 1000.000000000000000 ) ;
#309 = ORIENTED_EDGE ( 'NONE', *, *, #187, .F. ) ;
#310 = AXIS2_PLACEMENT_3D ( 'NONE', #73, #191, #77 ) ;
#311 = DIRECTION ( 'NONE',  ( 0.000000000000000000, 0.000000000000000000, -1.000000000000000000 ) ) ;
#312 = STYLED_ITEM ( 'NONE', ( #352 ), #70 ) ;
#313 =( LENGTH_UNIT ( ) NAMED_UNIT ( * ) SI_UNIT ( .MILLI., .METRE. ) );
#314 = ORIENTED_EDGE ( 'NONE', *, *, #65, .F. ) ;
#315 = APPLICATION_CONTEXT ( 'automotive_design' ) ;
#316 = AXIS2_PLACEMENT_3D ( 'NONE', #226, #318, #182 ) ;
#317 = PRODUCT_DEFINITION ( 'UNKNOWN', '', #319, #1 ) ;
#318 = DIRECTION ( 'NONE',  ( -1.217753221838294133E-16, 1.000000000000000000, -0.000000000000000000 ) ) ;
#319 = PRODUCT_DEFINITION_FORMATION_WITH_SPECIFIED_SOURCE ( 'ANY', '', #200, .NOT_KNOWN. ) ;
#320 = FILL_AREA_STYLE_COLOUR ( '', #221 ) ;
#321 = SURFACE_SIDE_STYLE ('',( #207 ) ) ;
#322 = SURFACE_SIDE_STYLE ('',( #300 ) ) ;
#323 = VECTOR ( 'NONE', #40, 1000.000000000000000 ) ;
#324 = ORIENTED_EDGE ( 'NONE', *, *, #187, .T. ) ;
#325 =( NAMED_UNIT ( * ) SI_UNIT ( $, .STERADIAN. ) SOLID_ANGLE_UNIT ( ) );
#326 = EDGE_CURVE ( 'NONE', #353, #245, #17, .T. ) ;
#327 = CARTESIAN_POINT ( 'NONE',  ( 0.000000000000000000, 50.00000000000000000, -12.50000000000000000 ) ) ;
#328 = DIRECTION ( 'NONE',  ( 0.000000000000000000, 0.000000000000000000, -1.000000000000000000 ) ) ;
#329 = DIRECTION ( 'NONE',  ( 0.000000000000000000, 0.000000000000000000, -1.000000000000000000 ) ) ;
#330 = SURFACE_STYLE_FILL_AREA ( #356 ) ;
#331 = SHAPE_DEFINITION_REPRESENTATION ( #284, #157 ) ;
#332 = VERTEX_POINT ( 'NONE', #305 ) ;
#333 = DIRECTION ( 'NONE',  ( 0.000000000000000000, 0.000000000000000000, -1.000000000000000000 ) ) ;
#334 = FACE_OUTER_BOUND ( 'NONE', #155, .T. ) ;
#335 = CARTESIAN_POINT ( 'NONE',  ( 12.50000000000000000, 124.9999999999999858, 0.000000000000000000 ) ) ;
#336 = APPLICATION_CONTEXT ( 'automotive_design' ) ;
#337 =( GEOMETRIC_REPRESENTATION_CONTEXT ( 3 ) GLOBAL_UNCERTAINTY_ASSIGNED_CONTEXT ( ( #33 ) ) GLOBAL_UNIT_ASSIGNED_CONTEXT ( ( #36, #34, #250 ) ) REPRESENTATION_CONTEXT ( 'NONE', 'WORKASPACE' ) );
#338 = AXIS2_PLACEMENT_3D ( 'NONE', #162, #363, #339 ) ;
#339 = DIRECTION ( 'NONE',  ( 0.000000000000000000, 0.000000000000000000, -1.000000000000000000 ) ) ;
#340 = CLOSED_SHELL ( 'NONE', ( #359, #159, #70, #368, #108, #6 ) ) ;
#341 = PRESENTATION_STYLE_ASSIGNMENT (( #276 ) ) ;
#342 = ORIENTED_EDGE ( 'NONE', *, *, #90, .F. ) ;
#343 =( NAMED_UNIT ( * ) SI_UNIT ( $, .STERADIAN. ) SOLID_ANGLE_UNIT ( ) );
#344 = PRESENTATION_LAYER_ASSIGNMENT (  '', '', ( #130 ) ) ;
#345 = MECHANICAL_DESIGN_GEOMETRIC_PRESENTATION_REPRESENTATION (  '', ( #14 ), #9 ) ;
#346 = EDGE_CURVE ( 'NONE', #237, #152, #143, .T. ) ;
#347 = UNCERTAINTY_MEASURE_WITH_UNIT (LENGTH_MEASURE( 1.000000000000000082E-05 ), #81, 'distance_accuracy_value', 'NONE');
#348 = CARTESIAN_POINT ( 'NONE',  ( 0.000000000000000000, 0.000000000000000000, -12.50000000000000000 ) ) ;
#349 = ORIENTED_EDGE ( 'NONE', *, *, #282, .F. ) ;
#350 = FILL_AREA_STYLE ('',( #51 ) ) ;
#351 = AXIS2_PLACEMENT_3D ( 'NONE', #233, #211, #329 ) ;
#352 = PRESENTATION_STYLE_ASSIGNMENT (( #146 ) ) ;
#353 = VERTEX_POINT ( 'NONE', #158 ) ;
#354 = DIRECTION ( 'NONE',  ( -1.217753221838294133E-16, 1.000000000000000000, -0.000000000000000000 ) ) ;
#355 = DIRECTION ( 'NONE',  ( -1.217753221838294133E-16, 1.000000000000000000, -0.000000000000000000 ) ) ;
#356 = FILL_AREA_STYLE ('',( #238 ) ) ;
#357 = STYLED_ITEM ( 'NONE', ( #42 ), #108 ) ;
#358 = AXIS2_PLACEMENT_3D ( 'NONE', #178, #283, #7 ) ;
#359 = ADVANCED_FACE ( 'NONE', ( #20 ), #129, .T. ) ;
#360 = FACE_OUTER_BOUND ( 'NONE', #254, .T. ) ;
#361 = CARTESIAN_POINT ( 'NONE',  ( 12.49999999999999467, 124.9999999999999858, 1.530808498934191324E-15 ) ) ;
#362 =( NAMED_UNIT ( * ) SI_UNIT ( $, .STERADIAN. ) SOLID_ANGLE_UNIT ( ) );
#363 = DIRECTION ( 'NONE',  ( -0.000000000000000000, -1.000000000000000000, -0.000000000000000000 ) ) ;
#364 = DIRECTION ( 'NONE',  ( -0.000000000000000000, -1.000000000000000000, -0.000000000000000000 ) ) ;
#365 = STYLED_ITEM ( 'NONE', ( #114 ), #368 ) ;
#366 = FILL_AREA_STYLE_COLOUR ( '', #30 ) ;
#367 =( NAMED_UNIT ( * ) PLANE_ANGLE_UNIT ( ) SI_UNIT ( $, .RADIAN. ) );
#368 = ADVANCED_FACE ( 'NONE', ( #204 ), #165, .T. ) ;
#369 = AXIS2_PLACEMENT_3D ( 'NONE', #29, #364, #333 ) ;
#370 =( GEOMETRIC_REPRESENTATION_CONTEXT ( 3 ) GLOBAL_UNCERTAINTY_ASSIGNED_CONTEXT ( ( #174 ) ) GLOBAL_UNIT_ASSIGNED_CONTEXT ( ( #57, #290, #227 ) ) REPRESENTATION_CONTEXT ( 'NONE', 'WORKASPACE' ) );
ENDSEC;
END-ISO-10303-21;
