ISO-10303-21;
HEADER;
FILE_DESCRIPTION (( 'STEP AP214' ),
    '1' );
FILE_NAME ('49405.STEP',
    '2023-06-30T22:02:40',
    ( '' ),
    ( '' ),
    'SwSTEP 2.0',
    'SolidWorks 2023',
    '' );
FILE_SCHEMA (( 'AUTOMOTIVE_DESIGN' ));
ENDSEC;

DATA;
#1 = ADVANCED_FACE ( 'NONE', ( #297 ), #177, .F. ) ;
#2 =( LENGTH_UNIT ( ) NAMED_UNIT ( * ) SI_UNIT ( $, .METRE. ) );
#3 = SURFACE_SIDE_STYLE ('',( #205 ) ) ;
#4 = DIRECTION ( 'NONE',  ( -1.000000000000000000, -1.224646799147353207E-16, 0.000000000000000000 ) ) ;
#5 = PRESENTATION_STYLE_ASSIGNMENT (( #40 ) ) ;
#6 =( CONVERSION_BASED_UNIT ( 'INCH', #101 ) LENGTH_UNIT ( ) NAMED_UNIT ( #89 ) );
#7 = DIRECTION ( 'NONE',  ( -1.224646799147353207E-16, 1.000000000000000000, -0.000000000000000000 ) ) ;
#8 = FACE_OUTER_BOUND ( 'NONE', #188, .T. ) ;
#9 = CARTESIAN_POINT ( 'NONE',  ( -1.224646799147352714E-16, 4.000000000000000000, 0.000000000000000000 ) ) ;
#10 = CARTESIAN_POINT ( 'NONE',  ( -4.592425496802575451E-17, 0.3750000000000000555, 0.000000000000000000 ) ) ;
#11 = DIRECTION ( 'NONE',  ( 0.000000000000000000, 0.000000000000000000, -1.000000000000000000 ) ) ;
#12 = CYLINDRICAL_SURFACE ( 'NONE', #236, 0.3749999999999998335 ) ;
#13 = CIRCLE ( 'NONE', #202, 0.3749999999999999445 ) ;
#14 = ORIENTED_EDGE ( 'NONE', *, *, #85, .F. ) ;
#15 = EDGE_CURVE ( 'NONE', #20, #338, #30, .T. ) ;
#16 = PRODUCT_DEFINITION_CONTEXT ( 'detailed design', #249, 'design' ) ;
#17 = DIRECTION ( 'NONE',  ( -1.224646799147353207E-16, 1.000000000000000000, -0.000000000000000000 ) ) ;
#18 =( CONVERSION_BASED_UNIT ( 'INCH', #19 ) LENGTH_UNIT ( ) NAMED_UNIT ( #174 ) );
#19 = LENGTH_MEASURE_WITH_UNIT ( LENGTH_MEASURE( 0.02539999999999999897 ), #83 );
#20 = VERTEX_POINT ( 'NONE', #306 ) ;
#21 = CIRCLE ( 'NONE', #65, 0.3749999999999998335 ) ;
#22 = FACE_OUTER_BOUND ( 'NONE', #140, .T. ) ;
#23 = CARTESIAN_POINT ( 'NONE',  ( -0.3749999999999999445, 4.000000000000000000, 0.000000000000000000 ) ) ;
#24 = SURFACE_STYLE_FILL_AREA ( #50 ) ;
#25 = ORIENTED_EDGE ( 'NONE', *, *, #315, .F. ) ;
#26 = CARTESIAN_POINT ( 'NONE',  ( -0.3749999999999995559, 1.625000000000000000, 0.000000000000000000 ) ) ;
#27 = EDGE_LOOP ( 'NONE', ( #260, #255, #58, #193 ) ) ;
#28 = UNCERTAINTY_MEASURE_WITH_UNIT (LENGTH_MEASURE( 1.000000000000000082E-05 ), #18, 'distance_accuracy_value', 'NONE');
#29 = VERTEX_POINT ( 'NONE', #215 ) ;
#30 = CIRCLE ( 'NONE', #240, 0.3749999999999996669 ) ;
#31 = COLOUR_RGB ( '',1.000000000000000000, 0.000000000000000000, 0.000000000000000000 ) ;
#32 = PRESENTATION_STYLE_ASSIGNMENT (( #368 ) ) ;
#33 =( LENGTH_UNIT ( ) NAMED_UNIT ( * ) SI_UNIT ( $, .METRE. ) );
#34 = EDGE_CURVE ( 'NONE', #146, #197, #335, .T. ) ;
#35 = AXIS2_PLACEMENT_3D ( 'NONE', #298, #97, #212 ) ;
#36 = CIRCLE ( 'NONE', #126, 0.3749999999999998335 ) ;
#37 = DIMENSIONAL_EXPONENTS ( 1.000000000000000000, 0.000000000000000000, 0.000000000000000000, 0.000000000000000000, 0.000000000000000000, 0.000000000000000000, 0.000000000000000000 ) ;
#38 = PRESENTATION_STYLE_ASSIGNMENT (( #293 ) ) ;
#39 = DIRECTION ( 'NONE',  ( 0.000000000000000000, 0.000000000000000000, -1.000000000000000000 ) ) ;
#40 = SURFACE_STYLE_USAGE ( .BOTH. , #207 ) ;
#41 = DIRECTION ( 'NONE',  ( 1.000000000000000000, 0.000000000000000000, 0.000000000000000000 ) ) ;
#42 = VECTOR ( 'NONE', #179, 39.37007874015748143 ) ;
#43 = DIRECTION ( 'NONE',  ( -1.224646799147353207E-16, 1.000000000000000000, -0.000000000000000000 ) ) ;
#44 = SHAPE_DEFINITION_REPRESENTATION ( #268, #70 ) ;
#45 = FACE_OUTER_BOUND ( 'NONE', #357, .T. ) ;
#46 = ORIENTED_EDGE ( 'NONE', *, *, #289, .F. ) ;
#47 = FILL_AREA_STYLE ('',( #52 ) ) ;
#48 = SURFACE_SIDE_STYLE ('',( #164 ) ) ;
#49 = CARTESIAN_POINT ( 'NONE',  ( -1.224646799147352714E-16, 4.000000000000000000, 0.000000000000000000 ) ) ;
#50 = FILL_AREA_STYLE ('',( #73 ) ) ;
#51 = ORIENTED_EDGE ( 'NONE', *, *, #15, .F. ) ;
#52 = FILL_AREA_STYLE_COLOUR ( '', #167 ) ;
#53 = EDGE_CURVE ( 'NONE', #264, #228, #119, .T. ) ;
#54 = DIRECTION ( 'NONE',  ( -0.000000000000000000, -1.000000000000000000, -0.000000000000000000 ) ) ;
#55 = FACE_OUTER_BOUND ( 'NONE', #241, .T. ) ;
#56 = VERTEX_POINT ( 'NONE', #213 ) ;
#57 = AXIS2_PLACEMENT_3D ( 'NONE', #208, #122, #4 ) ;
#58 = ORIENTED_EDGE ( 'NONE', *, *, #181, .T. ) ;
#59 = ADVANCED_FACE ( 'NONE', ( #22 ), #296, .T. ) ;
#60 = CARTESIAN_POINT ( 'NONE',  ( -2.296212748401288342E-17, 6.829619984160658046E-17, 0.000000000000000000 ) ) ;
#61 = PRESENTATION_LAYER_ASSIGNMENT (  '', '', ( #290 ) ) ;
#62 = SURFACE_STYLE_USAGE ( .BOTH. , #3 ) ;
#63 = CARTESIAN_POINT ( 'NONE',  ( -4.592425496802575451E-17, 0.3750000000000000555, 0.000000000000000000 ) ) ;
#64 = CARTESIAN_POINT ( 'NONE',  ( 1.683889348827610999E-16, 1.625000000000000000, 0.000000000000000000 ) ) ;
#65 = AXIS2_PLACEMENT_3D ( 'NONE', #265, #190, #253 ) ;
#66 = ORIENTED_EDGE ( 'NONE', *, *, #68, .T. ) ;
#67 = MANIFOLD_SOLID_BREP ( 'Revolve - Cutting Edge', #92 ) ;
#68 = EDGE_CURVE ( 'NONE', #344, #337, #13, .T. ) ;
#69 = SURFACE_SIDE_STYLE ('',( #330 ) ) ;
#70 = ADVANCED_BREP_SHAPE_REPRESENTATION ( '49405', ( #67, #201, #270 ), #248 ) ;
#71 = ORIENTED_EDGE ( 'NONE', *, *, #348, .F. ) ;
#72 = LINE ( 'NONE', #143, #157 ) ;
#73 = FILL_AREA_STYLE_COLOUR ( '', #291 ) ;
#74 =( GEOMETRIC_REPRESENTATION_CONTEXT ( 3 ) GLOBAL_UNCERTAINTY_ASSIGNED_CONTEXT ( ( #196 ) ) GLOBAL_UNIT_ASSIGNED_CONTEXT ( ( #133, #329, #189 ) ) REPRESENTATION_CONTEXT ( 'NONE', 'WORKASPACE' ) );
#75 = AXIS2_PLACEMENT_3D ( 'NONE', #245, #302, #351 ) ;
#76 = CARTESIAN_POINT ( 'NONE',  ( -1.224646799147352714E-16, 4.000000000000000000, 0.000000000000000000 ) ) ;
#77 = ORIENTED_EDGE ( 'NONE', *, *, #315, .T. ) ;
#78 = ORIENTED_EDGE ( 'NONE', *, *, #53, .T. ) ;
#79 = DIRECTION ( 'NONE',  ( 0.000000000000000000, 0.000000000000000000, -1.000000000000000000 ) ) ;
#80 = CARTESIAN_POINT ( 'NONE',  ( 0.3749999999999998890, 0.3750000000000001110, 0.000000000000000000 ) ) ;
#81 = EDGE_LOOP ( 'NONE', ( #370, #66 ) ) ;
#82 = DIRECTION ( 'NONE',  ( -0.000000000000000000, -1.000000000000000000, -0.000000000000000000 ) ) ;
#83 =( LENGTH_UNIT ( ) NAMED_UNIT ( * ) SI_UNIT ( $, .METRE. ) );
#84 =( GEOMETRIC_REPRESENTATION_CONTEXT ( 3 ) GLOBAL_UNCERTAINTY_ASSIGNED_CONTEXT ( ( #88 ) ) GLOBAL_UNIT_ASSIGNED_CONTEXT ( ( #230, #105, #256 ) ) REPRESENTATION_CONTEXT ( 'NONE', 'WORKASPACE' ) );
#85 = EDGE_CURVE ( 'NONE', #197, #228, #142, .T. ) ;
#86 = AXIS2_PLACEMENT_3D ( 'NONE', #9, #7, #349 ) ;
#87 = ADVANCED_FACE ( 'NONE', ( #160 ), #327, .T. ) ;
#88 = UNCERTAINTY_MEASURE_WITH_UNIT (LENGTH_MEASURE( 1.000000000000000082E-05 ), #230, 'distance_accuracy_value', 'NONE');
#89 = DIMENSIONAL_EXPONENTS ( 1.000000000000000000, 0.000000000000000000, 0.000000000000000000, 0.000000000000000000, 0.000000000000000000, 0.000000000000000000, 0.000000000000000000 ) ;
#90 = ORIENTED_EDGE ( 'NONE', *, *, #235, .F. ) ;
#91 = DIRECTION ( 'NONE',  ( 1.224646799147353207E-16, -1.000000000000000000, 0.000000000000000000 ) ) ;
#92 = CLOSED_SHELL ( 'NONE', ( #267, #227, #238, #171, #59 ) ) ;
#93 =( GEOMETRIC_REPRESENTATION_CONTEXT ( 3 ) GLOBAL_UNCERTAINTY_ASSIGNED_CONTEXT ( ( #28 ) ) GLOBAL_UNIT_ASSIGNED_CONTEXT ( ( #18, #195, #139 ) ) REPRESENTATION_CONTEXT ( 'NONE', 'WORKASPACE' ) );
#94 =( NAMED_UNIT ( * ) SI_UNIT ( $, .STERADIAN. ) SOLID_ANGLE_UNIT ( ) );
#95 = PRESENTATION_STYLE_ASSIGNMENT (( #129 ) ) ;
#96 = FILL_AREA_STYLE ('',( #321 ) ) ;
#97 = DIRECTION ( 'NONE',  ( 1.224646799147353207E-16, -0.000000000000000000, 1.000000000000000000 ) ) ;
#98 =( NAMED_UNIT ( * ) SI_UNIT ( $, .STERADIAN. ) SOLID_ANGLE_UNIT ( ) );
#99 = CARTESIAN_POINT ( 'NONE',  ( -1.224646799147352714E-16, 4.000000000000000000, 0.000000000000000000 ) ) ;
#100 = PRESENTATION_STYLE_ASSIGNMENT (( #62 ) ) ;
#101 = LENGTH_MEASURE_WITH_UNIT ( LENGTH_MEASURE( 0.02539999999999999897 ), #274 );
#102 = EDGE_CURVE ( 'NONE', #197, #56, #222, .T. ) ;
#103 =( NAMED_UNIT ( * ) PLANE_ANGLE_UNIT ( ) SI_UNIT ( $, .RADIAN. ) );
#104 = SURFACE_SIDE_STYLE ('',( #323 ) ) ;
#105 =( NAMED_UNIT ( * ) PLANE_ANGLE_UNIT ( ) SI_UNIT ( $, .RADIAN. ) );
#106 = ORIENTED_EDGE ( 'NONE', *, *, #102, .F. ) ;
#107 = SURFACE_STYLE_USAGE ( .BOTH. , #359 ) ;
#108 = CARTESIAN_POINT ( 'NONE',  ( 0.000000000000000000, 1.625000000000000000, 0.000000000000000000 ) ) ;
#109 = AXIS2_PLACEMENT_3D ( 'NONE', #63, #276, #41 ) ;
#110 = COLOUR_RGB ( '',1.000000000000000000, 0.000000000000000000, 0.000000000000000000 ) ;
#111 = DIRECTION ( 'NONE',  ( -1.224646799147353207E-16, 1.000000000000000000, -0.000000000000000000 ) ) ;
#112 = ADVANCED_FACE ( 'NONE', ( #45 ), #347, .F. ) ;
#113 = FILL_AREA_STYLE ('',( #280 ) ) ;
#114 = PRESENTATION_STYLE_ASSIGNMENT (( #107 ) ) ;
#115 = DIRECTION ( 'NONE',  ( -0.000000000000000000, -1.000000000000000000, -0.000000000000000000 ) ) ;
#116 = COLOUR_RGB ( '',1.000000000000000000, 0.000000000000000000, 0.000000000000000000 ) ;
#117 = LENGTH_MEASURE_WITH_UNIT ( LENGTH_MEASURE( 0.02539999999999999897 ), #2 );
#118 = EDGE_CURVE ( 'NONE', #20, #344, #246, .T. ) ;
#119 = CIRCLE ( 'NONE', #266, 0.3749999999999999445 ) ;
#120 = CIRCLE ( 'NONE', #135, 0.3749999999999996669 ) ;
#121 =( CONVERSION_BASED_UNIT ( 'INCH', #153 ) LENGTH_UNIT ( ) NAMED_UNIT ( #312 ) );
#122 = DIRECTION ( 'NONE',  ( -1.224646799147353207E-16, 1.000000000000000000, 0.000000000000000000 ) ) ;
#123 = PRODUCT ( '49405', '49405', '', ( #343 ) ) ;
#124 = CIRCLE ( 'NONE', #168, 0.3749999999999998890 ) ;
#125 = PRESENTATION_LAYER_ASSIGNMENT (  '', '', ( #150 ) ) ;
#126 = AXIS2_PLACEMENT_3D ( 'NONE', #108, #221, #336 ) ;
#127 =( NAMED_UNIT ( * ) SI_UNIT ( $, .STERADIAN. ) SOLID_ANGLE_UNIT ( ) );
#128 = DIRECTION ( 'NONE',  ( 1.000000000000000000, 1.224646799147353207E-16, 0.000000000000000000 ) ) ;
#129 = SURFACE_STYLE_USAGE ( .BOTH. , #104 ) ;
#130 = PLANE ( 'NONE',  #75 ) ;
#131 = SURFACE_STYLE_FILL_AREA ( #186 ) ;
#132 = DIRECTION ( 'NONE',  ( 0.000000000000000000, 0.000000000000000000, -1.000000000000000000 ) ) ;
#133 =( CONVERSION_BASED_UNIT ( 'INCH', #275 ) LENGTH_UNIT ( ) NAMED_UNIT ( #200 ) );
#134 = FILL_AREA_STYLE_COLOUR ( '', #116 ) ;
#135 = AXIS2_PLACEMENT_3D ( 'NONE', #360, #17, #286 ) ;
#136 = CARTESIAN_POINT ( 'NONE',  ( 0.000000000000000000, 0.000000000000000000, 0.000000000000000000 ) ) ;
#137 = ORIENTED_EDGE ( 'NONE', *, *, #295, .T. ) ;
#138 = CARTESIAN_POINT ( 'NONE',  ( 0.000000000000000000, 0.000000000000000000, -0.3749999999999998335 ) ) ;
#139 =( NAMED_UNIT ( * ) SI_UNIT ( $, .STERADIAN. ) SOLID_ANGLE_UNIT ( ) );
#140 = EDGE_LOOP ( 'NONE', ( #14, #366, #285, #78 ) ) ;
#141 = LENGTH_MEASURE_WITH_UNIT ( LENGTH_MEASURE( 0.02539999999999999897 ), #147 );
#142 = CIRCLE ( 'NONE', #35, 0.3749999999999999445 ) ;
#143 = CARTESIAN_POINT ( 'NONE',  ( 4.592425496802572370E-17, 0.000000000000000000, 0.3749999999999998335 ) ) ;
#144 = CARTESIAN_POINT ( 'NONE',  ( 0.000000000000000000, 0.000000000000000000, 0.000000000000000000 ) ) ;
#145 = SURFACE_SIDE_STYLE ('',( #24 ) ) ;
#146 = VERTEX_POINT ( 'NONE', #187 ) ;
#147 =( LENGTH_UNIT ( ) NAMED_UNIT ( * ) SI_UNIT ( $, .METRE. ) );
#148 = ORIENTED_EDGE ( 'NONE', *, *, #34, .F. ) ;
#149 = DIMENSIONAL_EXPONENTS ( 1.000000000000000000, 0.000000000000000000, 0.000000000000000000, 0.000000000000000000, 0.000000000000000000, 0.000000000000000000, 0.000000000000000000 ) ;
#150 = STYLED_ITEM ( 'NONE', ( #5 ), #227 ) ;
#151 = MECHANICAL_DESIGN_GEOMETRIC_PRESENTATION_REPRESENTATION (  '', ( #269 ), #93 ) ;
#152 = VECTOR ( 'NONE', #218, 39.37007874015748143 ) ;
#153 = LENGTH_MEASURE_WITH_UNIT ( LENGTH_MEASURE( 0.02539999999999999897 ), #247 );
#154 = LENGTH_MEASURE_WITH_UNIT ( LENGTH_MEASURE( 0.02539999999999999897 ), #33 );
#155 =( NAMED_UNIT ( * ) PLANE_ANGLE_UNIT ( ) SI_UNIT ( $, .RADIAN. ) );
#156 = PRESENTATION_LAYER_ASSIGNMENT (  '', '', ( #281 ) ) ;
#157 = VECTOR ( 'NONE', #82, 39.37007874015748143 ) ;
#158 = EDGE_CURVE ( 'NONE', #56, #264, #342, .T. ) ;
#159 = CARTESIAN_POINT ( 'NONE',  ( 0.000000000000000000, 0.3750000000000001110, 0.000000000000000000 ) ) ;
#160 = FACE_OUTER_BOUND ( 'NONE', #27, .T. ) ;
#161 = PRODUCT_RELATED_PRODUCT_CATEGORY ( 'part', '', ( #123 ) ) ;
#162 = FILL_AREA_STYLE_COLOUR ( '', #308 ) ;
#163 = AXIS2_PLACEMENT_3D ( 'NONE', #271, #322, #132 ) ;
#164 = SURFACE_STYLE_FILL_AREA ( #113 ) ;
#165 = PRODUCT_DEFINITION ( 'UNKNOWN', '', #300, #16 ) ;
#166 = CARTESIAN_POINT ( 'NONE',  ( -4.592425496802575451E-17, 0.3750000000000000555, 0.000000000000000000 ) ) ;
#167 = COLOUR_RGB ( '',1.000000000000000000, 0.000000000000000000, 0.000000000000000000 ) ;
#168 = AXIS2_PLACEMENT_3D ( 'NONE', #159, #318, #11 ) ;
#169 = ORIENTED_EDGE ( 'NONE', *, *, #289, .T. ) ;
#170 = LINE ( 'NONE', #138, #152 ) ;
#171 = ADVANCED_FACE ( 'NONE', ( #216 ), #12, .T. ) ;
#172 = LINE ( 'NONE', #23, #242 ) ;
#173 = ORIENTED_EDGE ( 'NONE', *, *, #358, .F. ) ;
#174 = DIMENSIONAL_EXPONENTS ( 1.000000000000000000, 0.000000000000000000, 0.000000000000000000, 0.000000000000000000, 0.000000000000000000, 0.000000000000000000, 0.000000000000000000 ) ;
#175 = UNCERTAINTY_MEASURE_WITH_UNIT (LENGTH_MEASURE( 1.000000000000000082E-05 ), #121, 'distance_accuracy_value', 'NONE');
#176 = DIRECTION ( 'NONE',  ( 1.000000000000000000, 0.000000000000000000, 0.000000000000000000 ) ) ;
#177 = PLANE ( 'NONE',  #346 ) ;
#178 = AXIS2_PLACEMENT_3D ( 'NONE', #76, #311, #283 ) ;
#179 = DIRECTION ( 'NONE',  ( -1.224646799147353207E-16, 1.000000000000000000, -0.000000000000000000 ) ) ;
#180 = DIRECTION ( 'NONE',  ( -1.000000000000000000, 0.000000000000000000, 0.000000000000000000 ) ) ;
#181 = EDGE_CURVE ( 'NONE', #338, #337, #172, .T. ) ;
#182 = PRESENTATION_LAYER_ASSIGNMENT (  '', '', ( #269 ) ) ;
#183 = STYLED_ITEM ( 'NONE', ( #328 ), #267 ) ;
#184 =( NAMED_UNIT ( * ) PLANE_ANGLE_UNIT ( ) SI_UNIT ( $, .RADIAN. ) );
#185 = VERTEX_POINT ( 'NONE', #287 ) ;
#186 = FILL_AREA_STYLE ('',( #162 ) ) ;
#187 = CARTESIAN_POINT ( 'NONE',  ( 4.592425496802572986E-17, 0.3750000000000001110, 0.3749999999999998890 ) ) ;
#188 = EDGE_LOOP ( 'NONE', ( #71, #369 ) ) ;
#189 =( NAMED_UNIT ( * ) SI_UNIT ( $, .STERADIAN. ) SOLID_ANGLE_UNIT ( ) );
#190 = DIRECTION ( 'NONE',  ( -0.000000000000000000, -1.000000000000000000, -0.000000000000000000 ) ) ;
#191 = EDGE_CURVE ( 'NONE', #185, #29, #21, .T. ) ;
#192 = DIRECTION ( 'NONE',  ( -1.000000000000000000, 0.000000000000000000, 0.000000000000000000 ) ) ;
#193 = ORIENTED_EDGE ( 'NONE', *, *, #68, .F. ) ;
#194 = SURFACE_STYLE_USAGE ( .BOTH. , #48 ) ;
#195 =( NAMED_UNIT ( * ) PLANE_ANGLE_UNIT ( ) SI_UNIT ( $, .RADIAN. ) );
#196 = UNCERTAINTY_MEASURE_WITH_UNIT (LENGTH_MEASURE( 1.000000000000000082E-05 ), #133, 'distance_accuracy_value', 'NONE');
#197 = VERTEX_POINT ( 'NONE', #219 ) ;
#198 = CARTESIAN_POINT ( 'NONE',  ( 0.3749999999999998335, 4.000000000000000000, 4.592425496802572986E-17 ) ) ;
#199 = MECHANICAL_DESIGN_GEOMETRIC_PRESENTATION_REPRESENTATION (  '', ( #150 ), #74 ) ;
#200 = DIMENSIONAL_EXPONENTS ( 1.000000000000000000, 0.000000000000000000, 0.000000000000000000, 0.000000000000000000, 0.000000000000000000, 0.000000000000000000, 0.000000000000000000 ) ;
#201 = MANIFOLD_SOLID_BREP ( 'Revolve - Tool Body (Straight Shanked)', #352 ) ;
#202 = AXIS2_PLACEMENT_3D ( 'NONE', #99, #43, #180 ) ;
#203 = CIRCLE ( 'NONE', #178, 0.3749999999999999445 ) ;
#204 = DIRECTION ( 'NONE',  ( -0.000000000000000000, -1.000000000000000000, -0.000000000000000000 ) ) ;
#205 = SURFACE_STYLE_FILL_AREA ( #96 ) ;
#206 = MECHANICAL_DESIGN_GEOMETRIC_PRESENTATION_REPRESENTATION (  '', ( #183 ), #84 ) ;
#207 = SURFACE_SIDE_STYLE ('',( #131 ) ) ;
#208 = CARTESIAN_POINT ( 'NONE',  ( 1.683889348827610752E-16, 1.625000000000000000, 0.000000000000000000 ) ) ;
#209 = ORIENTED_EDGE ( 'NONE', *, *, #85, .T. ) ;
#210 = CARTESIAN_POINT ( 'NONE',  ( 0.3749999999999996669, 4.000000000000000000, 4.592425496802572370E-17 ) ) ;
#211 =( LENGTH_UNIT ( ) NAMED_UNIT ( * ) SI_UNIT ( $, .METRE. ) );
#212 = DIRECTION ( 'NONE',  ( 1.000000000000000000, 0.000000000000000000, -1.224646799147353207E-16 ) ) ;
#213 = CARTESIAN_POINT ( 'NONE',  ( 0.000000000000000000, 0.3750000000000001110, -0.3749999999999998890 ) ) ;
#214 = AXIS2_PLACEMENT_3D ( 'NONE', #49, #111, #192 ) ;
#215 = CARTESIAN_POINT ( 'NONE',  ( 0.000000000000000000, 1.625000000000000000, -0.3749999999999998335 ) ) ;
#216 = FACE_OUTER_BOUND ( 'NONE', #310, .T. ) ;
#217 = SURFACE_STYLE_FILL_AREA ( #47 ) ;
#218 = DIRECTION ( 'NONE',  ( -0.000000000000000000, -1.000000000000000000, -0.000000000000000000 ) ) ;
#219 = CARTESIAN_POINT ( 'NONE',  ( -0.3749999999999999445, 0.3750000000000001110, 4.592425496802572986E-17 ) ) ;
#220 = EDGE_LOOP ( 'NONE', ( #325, #77, #90, #257, #46 ) ) ;
#221 = DIRECTION ( 'NONE',  ( -0.000000000000000000, -1.000000000000000000, -0.000000000000000000 ) ) ;
#222 = CIRCLE ( 'NONE', #163, 0.3749999999999998890 ) ;
#223 = MECHANICAL_DESIGN_GEOMETRIC_PRESENTATION_REPRESENTATION (  '', ( #233 ), #373 ) ;
#224 = ORIENTED_EDGE ( 'NONE', *, *, #191, .T. ) ;
#225 = UNCERTAINTY_MEASURE_WITH_UNIT (LENGTH_MEASURE( 1.000000000000000082E-05 ), #234, 'distance_accuracy_value', 'NONE');
#226 =( LENGTH_UNIT ( ) NAMED_UNIT ( * ) SI_UNIT ( $, .METRE. ) );
#227 = ADVANCED_FACE ( 'NONE', ( #294 ), #333, .T. ) ;
#228 = VERTEX_POINT ( 'NONE', #60 ) ;
#229 = ORIENTED_EDGE ( 'NONE', *, *, #235, .T. ) ;
#230 =( CONVERSION_BASED_UNIT ( 'INCH', #367 ) LENGTH_UNIT ( ) NAMED_UNIT ( #292 ) );
#231 = APPLICATION_CONTEXT ( 'automotive_design' ) ;
#232 =( GEOMETRIC_REPRESENTATION_CONTEXT ( 3 ) GLOBAL_UNCERTAINTY_ASSIGNED_CONTEXT ( ( #225 ) ) GLOBAL_UNIT_ASSIGNED_CONTEXT ( ( #234, #316, #313 ) ) REPRESENTATION_CONTEXT ( 'NONE', 'WORKASPACE' ) );
#233 = STYLED_ITEM ( 'NONE', ( #100 ), #238 ) ;
#234 =( CONVERSION_BASED_UNIT ( 'INCH', #117 ) LENGTH_UNIT ( ) NAMED_UNIT ( #149 ) );
#235 = EDGE_CURVE ( 'NONE', #264, #146, #124, .T. ) ;
#236 = AXIS2_PLACEMENT_3D ( 'NONE', #144, #115, #341 ) ;
#237 = AXIS2_PLACEMENT_3D ( 'NONE', #166, #340, #258 ) ;
#238 = ADVANCED_FACE ( 'NONE', ( #8 ), #130, .T. ) ;
#239 = CARTESIAN_POINT ( 'NONE',  ( 0.000000000000000000, 0.3750000000000001110, 0.000000000000000000 ) ) ;
#240 = AXIS2_PLACEMENT_3D ( 'NONE', #64, #244, #252 ) ;
#241 = EDGE_LOOP ( 'NONE', ( #309, #209, #279, #229 ) ) ;
#242 = VECTOR ( 'NONE', #263, 39.37007874015748143 ) ;
#243 = PRESENTATION_LAYER_ASSIGNMENT (  '', '', ( #183 ) ) ;
#244 = DIRECTION ( 'NONE',  ( -1.224646799147353207E-16, 1.000000000000000000, -0.000000000000000000 ) ) ;
#245 = CARTESIAN_POINT ( 'NONE',  ( 0.000000000000000000, 1.625000000000000000, 0.000000000000000000 ) ) ;
#246 = LINE ( 'NONE', #210, #42 ) ;
#247 =( LENGTH_UNIT ( ) NAMED_UNIT ( * ) SI_UNIT ( $, .METRE. ) );
#248 =( GEOMETRIC_REPRESENTATION_CONTEXT ( 3 ) GLOBAL_UNCERTAINTY_ASSIGNED_CONTEXT ( ( #254 ) ) GLOBAL_UNIT_ASSIGNED_CONTEXT ( ( #365, #103, #317 ) ) REPRESENTATION_CONTEXT ( 'NONE', 'WORKASPACE' ) );
#249 = APPLICATION_CONTEXT ( 'automotive_design' ) ;
#250 = FILL_AREA_STYLE ('',( #134 ) ) ;
#251 = APPLICATION_PROTOCOL_DEFINITION ( 'draft international standard', 'automotive_design', 1998, #249 ) ;
#252 = DIRECTION ( 'NONE',  ( -1.000000000000000000, 0.000000000000000000, 0.000000000000000000 ) ) ;
#253 = DIRECTION ( 'NONE',  ( 0.000000000000000000, 0.000000000000000000, -1.000000000000000000 ) ) ;
#254 = UNCERTAINTY_MEASURE_WITH_UNIT (LENGTH_MEASURE( 1.000000000000000082E-05 ), #365, 'distance_accuracy_value', 'NONE');
#255 = ORIENTED_EDGE ( 'NONE', *, *, #15, .T. ) ;
#256 =( NAMED_UNIT ( * ) SI_UNIT ( $, .STERADIAN. ) SOLID_ANGLE_UNIT ( ) );
#257 = ORIENTED_EDGE ( 'NONE', *, *, #158, .F. ) ;
#258 = DIRECTION ( 'NONE',  ( 1.000000000000000000, 0.000000000000000000, 0.000000000000000000 ) ) ;
#259 = MECHANICAL_DESIGN_GEOMETRIC_PRESENTATION_REPRESENTATION (  '', ( #319 ), #314 ) ;
#260 = ORIENTED_EDGE ( 'NONE', *, *, #118, .F. ) ;
#261 = UNCERTAINTY_MEASURE_WITH_UNIT (LENGTH_MEASURE( 1.000000000000000082E-05 ), #6, 'distance_accuracy_value', 'NONE');
#262 = CYLINDRICAL_SURFACE ( 'NONE', #214, 0.3749999999999998335 ) ;
#263 = DIRECTION ( 'NONE',  ( -1.224646799147353207E-16, 1.000000000000000000, -0.000000000000000000 ) ) ;
#264 = VERTEX_POINT ( 'NONE', #80 ) ;
#265 = CARTESIAN_POINT ( 'NONE',  ( 0.000000000000000000, 1.625000000000000000, 0.000000000000000000 ) ) ;
#266 = AXIS2_PLACEMENT_3D ( 'NONE', #10, #356, #282 ) ;
#267 = ADVANCED_FACE ( 'NONE', ( #55 ), #332, .T. ) ;
#268 = PRODUCT_DEFINITION_SHAPE ( 'NONE', 'NONE',  #165 ) ;
#269 = STYLED_ITEM ( 'NONE', ( #38 ), #171 ) ;
#270 = AXIS2_PLACEMENT_3D ( 'NONE', #136, #350, #176 ) ;
#271 = CARTESIAN_POINT ( 'NONE',  ( 0.000000000000000000, 0.3750000000000001110, 0.000000000000000000 ) ) ;
#272 = AXIS2_PLACEMENT_3D ( 'NONE', #273, #204, #39 ) ;
#273 = CARTESIAN_POINT ( 'NONE',  ( 0.000000000000000000, 0.000000000000000000, 0.000000000000000000 ) ) ;
#274 =( LENGTH_UNIT ( ) NAMED_UNIT ( * ) SI_UNIT ( $, .METRE. ) );
#275 = LENGTH_MEASURE_WITH_UNIT ( LENGTH_MEASURE( 0.02539999999999999897 ), #211 );
#276 = DIRECTION ( 'NONE',  ( 0.000000000000000000, 0.000000000000000000, 1.000000000000000000 ) ) ;
#277 =( CONVERSION_BASED_UNIT ( 'INCH', #154 ) LENGTH_UNIT ( ) NAMED_UNIT ( #288 ) );
#278 = DIRECTION ( 'NONE',  ( 0.000000000000000000, 0.000000000000000000, -1.000000000000000000 ) ) ;
#279 = ORIENTED_EDGE ( 'NONE', *, *, #53, .F. ) ;
#280 = FILL_AREA_STYLE_COLOUR ( '', #31 ) ;
#281 = STYLED_ITEM ( 'NONE', ( #114 ), #59 ) ;
#282 = DIRECTION ( 'NONE',  ( -1.000000000000000000, 0.000000000000000000, 0.000000000000000000 ) ) ;
#283 = DIRECTION ( 'NONE',  ( -1.000000000000000000, 0.000000000000000000, 0.000000000000000000 ) ) ;
#284 = MECHANICAL_DESIGN_GEOMETRIC_PRESENTATION_REPRESENTATION (  '', ( #290 ), #353 ) ;
#285 = ORIENTED_EDGE ( 'NONE', *, *, #158, .T. ) ;
#286 = DIRECTION ( 'NONE',  ( -1.000000000000000000, 0.000000000000000000, 0.000000000000000000 ) ) ;
#287 = CARTESIAN_POINT ( 'NONE',  ( 4.592425496802572370E-17, 1.625000000000000000, 0.3749999999999998335 ) ) ;
#288 = DIMENSIONAL_EXPONENTS ( 1.000000000000000000, 0.000000000000000000, 0.000000000000000000, 0.000000000000000000, 0.000000000000000000, 0.000000000000000000, 0.000000000000000000 ) ;
#289 = EDGE_CURVE ( 'NONE', #29, #56, #170, .T. ) ;
#290 = STYLED_ITEM ( 'NONE', ( #32 ), #201 ) ;
#291 = COLOUR_RGB ( '',0.7921568627450980005, 0.8196078431372548767, 0.9333333333333333481 ) ;
#292 = DIMENSIONAL_EXPONENTS ( 1.000000000000000000, 0.000000000000000000, 0.000000000000000000, 0.000000000000000000, 0.000000000000000000, 0.000000000000000000, 0.000000000000000000 ) ;
#293 = SURFACE_STYLE_USAGE ( .BOTH. , #69 ) ;
#294 = FACE_OUTER_BOUND ( 'NONE', #220, .T. ) ;
#295 = EDGE_CURVE ( 'NONE', #338, #20, #120, .T. ) ;
#296 = SPHERICAL_SURFACE ( 'NONE', #109, 0.3749999999999999445 ) ;
#297 = FACE_OUTER_BOUND ( 'NONE', #81, .T. ) ;
#298 = CARTESIAN_POINT ( 'NONE',  ( -4.592425496802575451E-17, 0.3750000000000000555, 0.000000000000000000 ) ) ;
#299 = PRESENTATION_LAYER_ASSIGNMENT (  '', '', ( #319 ) ) ;
#300 = PRODUCT_DEFINITION_FORMATION_WITH_SPECIFIED_SOURCE ( 'ANY', '', #123, .NOT_KNOWN. ) ;
#301 = FILL_AREA_STYLE_COLOUR ( '', #372 ) ;
#302 = DIRECTION ( 'NONE',  ( 0.000000000000000000, 1.000000000000000000, 0.000000000000000000 ) ) ;
#303 = DIRECTION ( 'NONE',  ( -0.000000000000000000, -1.000000000000000000, -0.000000000000000000 ) ) ;
#304 = ORIENTED_EDGE ( 'NONE', *, *, #181, .F. ) ;
#305 = CARTESIAN_POINT ( 'NONE',  ( -0.3750000000000001110, 4.000000000000000000, 0.000000000000000000 ) ) ;
#306 = CARTESIAN_POINT ( 'NONE',  ( 0.3749999999999998335, 1.625000000000000000, 4.592425496802572986E-17 ) ) ;
#307 = FACE_OUTER_BOUND ( 'NONE', #362, .T. ) ;
#308 = COLOUR_RGB ( '',1.000000000000000000, 0.000000000000000000, 0.000000000000000000 ) ;
#309 = ORIENTED_EDGE ( 'NONE', *, *, #34, .T. ) ;
#310 = EDGE_LOOP ( 'NONE', ( #25, #224, #169, #106, #148 ) ) ;
#311 = DIRECTION ( 'NONE',  ( -1.224646799147353207E-16, 1.000000000000000000, -0.000000000000000000 ) ) ;
#312 = DIMENSIONAL_EXPONENTS ( 1.000000000000000000, 0.000000000000000000, 0.000000000000000000, 0.000000000000000000, 0.000000000000000000, 0.000000000000000000, 0.000000000000000000 ) ;
#313 =( NAMED_UNIT ( * ) SI_UNIT ( $, .STERADIAN. ) SOLID_ANGLE_UNIT ( ) );
#314 =( GEOMETRIC_REPRESENTATION_CONTEXT ( 3 ) GLOBAL_UNCERTAINTY_ASSIGNED_CONTEXT ( ( #261 ) ) GLOBAL_UNIT_ASSIGNED_CONTEXT ( ( #6, #184, #127 ) ) REPRESENTATION_CONTEXT ( 'NONE', 'WORKASPACE' ) );
#315 = EDGE_CURVE ( 'NONE', #185, #146, #72, .T. ) ;
#316 =( NAMED_UNIT ( * ) PLANE_ANGLE_UNIT ( ) SI_UNIT ( $, .RADIAN. ) );
#317 =( NAMED_UNIT ( * ) SI_UNIT ( $, .STERADIAN. ) SOLID_ANGLE_UNIT ( ) );
#318 = DIRECTION ( 'NONE',  ( -0.000000000000000000, -1.000000000000000000, -0.000000000000000000 ) ) ;
#319 = STYLED_ITEM ( 'NONE', ( #95 ), #67 ) ;
#320 = ADVANCED_FACE ( 'NONE', ( #307 ), #262, .T. ) ;
#321 = FILL_AREA_STYLE_COLOUR ( '', #110 ) ;
#322 = DIRECTION ( 'NONE',  ( -0.000000000000000000, -1.000000000000000000, -0.000000000000000000 ) ) ;
#323 = SURFACE_STYLE_FILL_AREA ( #355 ) ;
#324 = MECHANICAL_DESIGN_GEOMETRIC_PRESENTATION_REPRESENTATION (  '', ( #281 ), #232 ) ;
#325 = ORIENTED_EDGE ( 'NONE', *, *, #348, .T. ) ;
#326 = PRESENTATION_LAYER_ASSIGNMENT (  '', '', ( #233 ) ) ;
#327 = CYLINDRICAL_SURFACE ( 'NONE', #86, 0.3749999999999998335 ) ;
#328 = PRESENTATION_STYLE_ASSIGNMENT (( #194 ) ) ;
#329 =( NAMED_UNIT ( * ) PLANE_ANGLE_UNIT ( ) SI_UNIT ( $, .RADIAN. ) );
#330 = SURFACE_STYLE_FILL_AREA ( #250 ) ;
#331 = APPLICATION_PROTOCOL_DEFINITION ( 'draft international standard', 'automotive_design', 1998, #231 ) ;
#332 = SPHERICAL_SURFACE ( 'NONE', #237, 0.3749999999999999445 ) ;
#333 = CYLINDRICAL_SURFACE ( 'NONE', #272, 0.3749999999999998335 ) ;
#334 = ORIENTED_EDGE ( 'NONE', *, *, #295, .F. ) ;
#335 = CIRCLE ( 'NONE', #363, 0.3749999999999998890 ) ;
#336 = DIRECTION ( 'NONE',  ( 0.000000000000000000, 0.000000000000000000, -1.000000000000000000 ) ) ;
#337 = VERTEX_POINT ( 'NONE', #305 ) ;
#338 = VERTEX_POINT ( 'NONE', #26 ) ;
#339 = ORIENTED_EDGE ( 'NONE', *, *, #118, .T. ) ;
#340 = DIRECTION ( 'NONE',  ( 0.000000000000000000, 0.000000000000000000, 1.000000000000000000 ) ) ;
#341 = DIRECTION ( 'NONE',  ( 0.000000000000000000, 0.000000000000000000, -1.000000000000000000 ) ) ;
#342 = CIRCLE ( 'NONE', #371, 0.3749999999999998890 ) ;
#343 = PRODUCT_CONTEXT ( 'NONE', #231, 'mechanical' ) ;
#344 = VERTEX_POINT ( 'NONE', #198 ) ;
#345 = CARTESIAN_POINT ( 'NONE',  ( 0.3749999999999998335, 4.000000000000000000, 0.000000000000000000 ) ) ;
#346 = AXIS2_PLACEMENT_3D ( 'NONE', #345, #91, #128 ) ;
#347 = PLANE ( 'NONE',  #57 ) ;
#348 = EDGE_CURVE ( 'NONE', #29, #185, #36, .T. ) ;
#349 = DIRECTION ( 'NONE',  ( -1.000000000000000000, 0.000000000000000000, 0.000000000000000000 ) ) ;
#350 = DIRECTION ( 'NONE',  ( 0.000000000000000000, 0.000000000000000000, 1.000000000000000000 ) ) ;
#351 = DIRECTION ( 'NONE',  ( 0.000000000000000000, -0.000000000000000000, 1.000000000000000000 ) ) ;
#352 = CLOSED_SHELL ( 'NONE', ( #320, #112, #87, #1 ) ) ;
#353 =( GEOMETRIC_REPRESENTATION_CONTEXT ( 3 ) GLOBAL_UNCERTAINTY_ASSIGNED_CONTEXT ( ( #361 ) ) GLOBAL_UNIT_ASSIGNED_CONTEXT ( ( #277, #354, #94 ) ) REPRESENTATION_CONTEXT ( 'NONE', 'WORKASPACE' ) );
#354 =( NAMED_UNIT ( * ) PLANE_ANGLE_UNIT ( ) SI_UNIT ( $, .RADIAN. ) );
#355 = FILL_AREA_STYLE ('',( #301 ) ) ;
#356 = DIRECTION ( 'NONE',  ( 0.000000000000000000, 0.000000000000000000, -1.000000000000000000 ) ) ;
#357 = EDGE_LOOP ( 'NONE', ( #334, #51 ) ) ;
#358 = EDGE_CURVE ( 'NONE', #337, #344, #203, .T. ) ;
#359 = SURFACE_SIDE_STYLE ('',( #217 ) ) ;
#360 = CARTESIAN_POINT ( 'NONE',  ( 1.683889348827610999E-16, 1.625000000000000000, 0.000000000000000000 ) ) ;
#361 = UNCERTAINTY_MEASURE_WITH_UNIT (LENGTH_MEASURE( 1.000000000000000082E-05 ), #277, 'distance_accuracy_value', 'NONE');
#362 = EDGE_LOOP ( 'NONE', ( #137, #339, #173, #304 ) ) ;
#363 = AXIS2_PLACEMENT_3D ( 'NONE', #364, #54, #79 ) ;
#364 = CARTESIAN_POINT ( 'NONE',  ( 0.000000000000000000, 0.3750000000000001110, 0.000000000000000000 ) ) ;
#365 =( CONVERSION_BASED_UNIT ( 'INCH', #141 ) LENGTH_UNIT ( ) NAMED_UNIT ( #37 ) );
#366 = ORIENTED_EDGE ( 'NONE', *, *, #102, .T. ) ;
#367 = LENGTH_MEASURE_WITH_UNIT ( LENGTH_MEASURE( 0.02539999999999999897 ), #226 );
#368 = SURFACE_STYLE_USAGE ( .BOTH. , #145 ) ;
#369 = ORIENTED_EDGE ( 'NONE', *, *, #191, .F. ) ;
#370 = ORIENTED_EDGE ( 'NONE', *, *, #358, .T. ) ;
#371 = AXIS2_PLACEMENT_3D ( 'NONE', #239, #303, #278 ) ;
#372 = COLOUR_RGB ( '',0.7921568627450980005, 0.8196078431372548767, 0.9333333333333333481 ) ;
#373 =( GEOMETRIC_REPRESENTATION_CONTEXT ( 3 ) GLOBAL_UNCERTAINTY_ASSIGNED_CONTEXT ( ( #175 ) ) GLOBAL_UNIT_ASSIGNED_CONTEXT ( ( #121, #155, #98 ) ) REPRESENTATION_CONTEXT ( 'NONE', 'WORKASPACE' ) );
ENDSEC;
END-ISO-10303-21;
