ISO-10303-21;
HEADER;
FILE_DESCRIPTION (( 'STEP AP214' ),
    '1' );
FILE_NAME ('84051.STEP',
    '2023-06-23T11:09:20',
    ( '' ),
    ( '' ),
    'SwSTEP 2.0',
    'SolidWorks 2023',
    '' );
FILE_SCHEMA (( 'AUTOMOTIVE_DESIGN' ));
ENDSEC;

DATA;
#1 = CARTESIAN_POINT ( 'NONE',  ( -0.1250000000000001110, 2.500000000000000000, 0.000000000000000000 ) ) ;
#2 = COLOUR_RGB ( '',0.7921568627450980005, 0.8196078431372548767, 0.9333333333333333481 ) ;
#3 = DIRECTION ( 'NONE',  ( -0.000000000000000000, -1.000000000000000000, -0.000000000000000000 ) ) ;
#4 = ADVANCED_FACE ( 'NONE', ( #78 ), #134, .T. ) ;
#5 = LINE ( 'NONE', #1, #9 ) ;
#6 = EDGE_LOOP ( 'NONE', ( #229, #302 ) ) ;
#7 = CARTESIAN_POINT ( 'NONE',  ( 7.582401355855259480E-33, 0.3749999999999999445, 0.000000000000000000 ) ) ;
#8 = ORIENTED_EDGE ( 'NONE', *, *, #183, .T. ) ;
#9 = VECTOR ( 'NONE', #246, 39.37007874015748143 ) ;
#10 = CIRCLE ( 'NONE', #355, 0.06250000000000000000 ) ;
#11 = FACE_OUTER_BOUND ( 'NONE', #6, .T. ) ;
#12 = VERTEX_POINT ( 'NONE', #97 ) ;
#13 = PRESENTATION_LAYER_ASSIGNMENT (  '', '', ( #109 ) ) ;
#14 = PRODUCT_DEFINITION_FORMATION_WITH_SPECIFIED_SOURCE ( 'ANY', '', #329, .NOT_KNOWN. ) ;
#15 = FACE_OUTER_BOUND ( 'NONE', #216, .T. ) ;
#16 = CARTESIAN_POINT ( 'NONE',  ( 7.654042494670957545E-18, 0.3750000000000000555, 0.06250000000000000000 ) ) ;
#17 = DIRECTION ( 'NONE',  ( -2.881521880346713429E-17, 1.000000000000000000, -0.000000000000000000 ) ) ;
#18 = PRESENTATION_LAYER_ASSIGNMENT (  '', '', ( #117 ) ) ;
#19 = DIRECTION ( 'NONE',  ( 0.2588190451025211281, 0.9659258262890679791, 3.169619151431769872E-17 ) ) ;
#20 = SURFACE_STYLE_USAGE ( .BOTH. , #77 ) ;
#21 =( NAMED_UNIT ( * ) SI_UNIT ( $, .STERADIAN. ) SOLID_ANGLE_UNIT ( ) );
#22 = DIMENSIONAL_EXPONENTS ( 1.000000000000000000, 0.000000000000000000, 0.000000000000000000, 0.000000000000000000, 0.000000000000000000, 0.000000000000000000, 0.000000000000000000 ) ;
#23 =( LENGTH_UNIT ( ) NAMED_UNIT ( * ) SI_UNIT ( $, .METRE. ) );
#24 = EDGE_CURVE ( 'NONE', #123, #217, #270, .T. ) ;
#25 = LINE ( 'NONE', #135, #283 ) ;
#26 = AXIS2_PLACEMENT_3D ( 'NONE', #81, #181, #190 ) ;
#27 = ORIENTED_EDGE ( 'NONE', *, *, #143, .F. ) ;
#28 = MECHANICAL_DESIGN_GEOMETRIC_PRESENTATION_REPRESENTATION (  '', ( #70 ), #235 ) ;
#29 = VERTEX_POINT ( 'NONE', #16 ) ;
#30 = PRESENTATION_STYLE_ASSIGNMENT (( #62 ) ) ;
#31 = ADVANCED_FACE ( 'NONE', ( #238 ), #325, .T. ) ;
#32 = ORIENTED_EDGE ( 'NONE', *, *, #24, .T. ) ;
#33 = CARTESIAN_POINT ( 'NONE',  ( 0.000000000000000000, 0.000000000000000000, 0.000000000000000000 ) ) ;
#34 = SHAPE_DEFINITION_REPRESENTATION ( #275, #130 ) ;
#35 = MECHANICAL_DESIGN_GEOMETRIC_PRESENTATION_REPRESENTATION (  '', ( #195 ), #291 ) ;
#36 = CARTESIAN_POINT ( 'NONE',  ( 7.654042494670957545E-18, 0.000000000000000000, 0.06250000000000000000 ) ) ;
#37 = PRESENTATION_STYLE_ASSIGNMENT (( #306 ) ) ;
#38 =( CONVERSION_BASED_UNIT ( 'INCH', #67 ) LENGTH_UNIT ( ) NAMED_UNIT ( #174 ) );
#39 = CARTESIAN_POINT ( 'NONE',  ( -6.721241287859572235E-18, 0.6082531754730543527, 0.000000000000000000 ) ) ;
#40 = STYLED_ITEM ( 'NONE', ( #37 ), #4 ) ;
#41 = ADVANCED_FACE ( 'NONE', ( #156 ), #320, .T. ) ;
#42 = DIRECTION ( 'NONE',  ( -2.881521880346713429E-17, 1.000000000000000000, -0.000000000000000000 ) ) ;
#43 = MECHANICAL_DESIGN_GEOMETRIC_PRESENTATION_REPRESENTATION (  '', ( #49 ), #233 ) ;
#44 = CIRCLE ( 'NONE', #58, 0.06250000000000000000 ) ;
#45 = CARTESIAN_POINT ( 'NONE',  ( 0.06250000000000000000, 0.3749999999999999445, 7.654042494670957545E-18 ) ) ;
#46 = DIRECTION ( 'NONE',  ( -1.000000000000000000, 0.000000000000000000, 0.000000000000000000 ) ) ;
#47 = CARTESIAN_POINT ( 'NONE',  ( 0.000000000000000000, 0.000000000000000000, 0.000000000000000000 ) ) ;
#48 =( NAMED_UNIT ( * ) SI_UNIT ( $, .STERADIAN. ) SOLID_ANGLE_UNIT ( ) );
#49 = STYLED_ITEM ( 'NONE', ( #30 ), #204 ) ;
#50 =( GEOMETRIC_REPRESENTATION_CONTEXT ( 3 ) GLOBAL_UNCERTAINTY_ASSIGNED_CONTEXT ( ( #232 ) ) GLOBAL_UNIT_ASSIGNED_CONTEXT ( ( #68, #125, #201 ) ) REPRESENTATION_CONTEXT ( 'NONE', 'WORKASPACE' ) );
#51 = FACE_OUTER_BOUND ( 'NONE', #168, .T. ) ;
#52 = ORIENTED_EDGE ( 'NONE', *, *, #191, .F. ) ;
#53 = ADVANCED_FACE ( 'NONE', ( #51 ), #353, .T. ) ;
#54 = SURFACE_STYLE_USAGE ( .BOTH. , #350 ) ;
#55 = ORIENTED_EDGE ( 'NONE', *, *, #240, .T. ) ;
#56 = PRODUCT_CONTEXT ( 'NONE', #82, 'mechanical' ) ;
#57 = CARTESIAN_POINT ( 'NONE',  ( 0.000000000000000000, 0.000000000000000000, -0.06250000000000000000 ) ) ;
#58 = AXIS2_PLACEMENT_3D ( 'NONE', #261, #212, #106 ) ;
#59 = FACE_OUTER_BOUND ( 'NONE', #343, .T. ) ;
#60 = ORIENTED_EDGE ( 'NONE', *, *, #107, .F. ) ;
#61 = CARTESIAN_POINT ( 'NONE',  ( 0.000000000000000000, 0.000000000000000000, 0.000000000000000000 ) ) ;
#62 = SURFACE_STYLE_USAGE ( .BOTH. , #116 ) ;
#63 = APPLICATION_PROTOCOL_DEFINITION ( 'draft international standard', 'automotive_design', 1998, #82 ) ;
#64 = SURFACE_STYLE_FILL_AREA ( #144 ) ;
#65 = COLOUR_RGB ( '',0.7921568627450980005, 0.8196078431372548767, 0.9333333333333333481 ) ;
#66 =( CONVERSION_BASED_UNIT ( 'INCH', #309 ) LENGTH_UNIT ( ) NAMED_UNIT ( #260 ) );
#67 = LENGTH_MEASURE_WITH_UNIT ( LENGTH_MEASURE( 0.02539999999999999897 ), #194 );
#68 =( CONVERSION_BASED_UNIT ( 'INCH', #284 ) LENGTH_UNIT ( ) NAMED_UNIT ( #22 ) );
#69 = SURFACE_STYLE_USAGE ( .BOTH. , #285 ) ;
#70 = STYLED_ITEM ( 'NONE', ( #161 ), #318 ) ;
#71 = CIRCLE ( 'NONE', #160, 0.06250000000000000000 ) ;
#72 = PRODUCT_DEFINITION_CONTEXT ( 'detailed design', #247, 'design' ) ;
#73 = FILL_AREA_STYLE_COLOUR ( '', #85 ) ;
#74 = PRESENTATION_STYLE_ASSIGNMENT (( #254 ) ) ;
#75 = LENGTH_MEASURE_WITH_UNIT ( LENGTH_MEASURE( 0.02539999999999999897 ), #23 );
#76 = AXIS2_PLACEMENT_3D ( 'NONE', #104, #293, #268 ) ;
#77 = SURFACE_SIDE_STYLE ('',( #184 ) ) ;
#78 = FACE_OUTER_BOUND ( 'NONE', #83, .T. ) ;
#79 = CARTESIAN_POINT ( 'NONE',  ( 0.1250000000000000278, 2.500000000000000000, 1.530808498934192125E-17 ) ) ;
#80 = VERTEX_POINT ( 'NONE', #112 ) ;
#81 = CARTESIAN_POINT ( 'NONE',  ( 0.000000000000000000, 0.000000000000000000, 0.000000000000000000 ) ) ;
#82 = APPLICATION_CONTEXT ( 'automotive_design' ) ;
#83 = EDGE_LOOP ( 'NONE', ( #234, #137 ) ) ;
#84 = EDGE_CURVE ( 'NONE', #114, #277, #203, .T. ) ;
#85 = COLOUR_RGB ( '',1.000000000000000000, 0.000000000000000000, 0.000000000000000000 ) ;
#86 =( LENGTH_UNIT ( ) NAMED_UNIT ( * ) SI_UNIT ( $, .METRE. ) );
#87 = ORIENTED_EDGE ( 'NONE', *, *, #84, .T. ) ;
#88 = CARTESIAN_POINT ( 'NONE',  ( 7.582401355855259480E-33, 0.3749999999999999445, 0.000000000000000000 ) ) ;
#89 = FILL_AREA_STYLE_COLOUR ( '', #2 ) ;
#90 = ORIENTED_EDGE ( 'NONE', *, *, #342, .T. ) ;
#91 = ORIENTED_EDGE ( 'NONE', *, *, #252, .F. ) ;
#92 = DIRECTION ( 'NONE',  ( 2.881521880346713429E-17, -1.000000000000000000, 0.000000000000000000 ) ) ;
#93 = ORIENTED_EDGE ( 'NONE', *, *, #272, .T. ) ;
#94 = LINE ( 'NONE', #299, #349 ) ;
#95 =( LENGTH_UNIT ( ) NAMED_UNIT ( * ) SI_UNIT ( $, .METRE. ) );
#96 = PRESENTATION_STYLE_ASSIGNMENT (( #69 ) ) ;
#97 = CARTESIAN_POINT ( 'NONE',  ( 0.000000000000000000, 0.3750000000000000555, -0.06250000000000000000 ) ) ;
#98 = AXIS2_PLACEMENT_3D ( 'NONE', #296, #163, #46 ) ;
#99 = DIRECTION ( 'NONE',  ( -2.881521880346713429E-17, 1.000000000000000000, 0.000000000000000000 ) ) ;
#100 = VECTOR ( 'NONE', #19, 39.37007874015748854 ) ;
#101 = CYLINDRICAL_SURFACE ( 'NONE', #327, 0.06250000000000000000 ) ;
#102 = DIRECTION ( 'NONE',  ( -0.000000000000000000, -1.000000000000000000, -0.000000000000000000 ) ) ;
#103 = COLOUR_RGB ( '',1.000000000000000000, 0.000000000000000000, 0.000000000000000000 ) ;
#104 = CARTESIAN_POINT ( 'NONE',  ( -6.123233995736766036E-17, 2.500000000000000000, 0.000000000000000000 ) ) ;
#105 = PRESENTATION_LAYER_ASSIGNMENT (  '', '', ( #70 ) ) ;
#106 = DIRECTION ( 'NONE',  ( 0.000000000000000000, 0.000000000000000000, -1.000000000000000000 ) ) ;
#107 = EDGE_CURVE ( 'NONE', #123, #277, #25, .T. ) ;
#108 =( CONVERSION_BASED_UNIT ( 'INCH', #213 ) LENGTH_UNIT ( ) NAMED_UNIT ( #199 ) );
#109 = STYLED_ITEM ( 'NONE', ( #96 ), #206 ) ;
#110 = ORIENTED_EDGE ( 'NONE', *, *, #183, .F. ) ;
#111 = DIRECTION ( 'NONE',  ( 1.000000000000000000, 2.881521880346713429E-17, 0.000000000000000000 ) ) ;
#112 = CARTESIAN_POINT ( 'NONE',  ( -0.1250000000000001388, 2.500000000000000000, 0.000000000000000000 ) ) ;
#113 = FACE_OUTER_BOUND ( 'NONE', #338, .T. ) ;
#114 = VERTEX_POINT ( 'NONE', #224 ) ;
#115 = CARTESIAN_POINT ( 'NONE',  ( 0.1250000000000000000, 2.500000000000000000, 0.000000000000000000 ) ) ;
#116 = SURFACE_SIDE_STYLE ('',( #64 ) ) ;
#117 = STYLED_ITEM ( 'NONE', ( #241 ), #53 ) ;
#118 = AXIS2_PLACEMENT_3D ( 'NONE', #47, #102, #262 ) ;
#119 = ORIENTED_EDGE ( 'NONE', *, *, #84, .F. ) ;
#120 = DIRECTION ( 'NONE',  ( -1.000000000000000000, 0.000000000000000000, 0.000000000000000000 ) ) ;
#121 = PLANE ( 'NONE',  #237 ) ;
#122 = EDGE_CURVE ( 'NONE', #277, #80, #5, .T. ) ;
#123 = VERTEX_POINT ( 'NONE', #333 ) ;
#124 =( CONVERSION_BASED_UNIT ( 'INCH', #146 ) LENGTH_UNIT ( ) NAMED_UNIT ( #210 ) );
#125 =( NAMED_UNIT ( * ) PLANE_ANGLE_UNIT ( ) SI_UNIT ( $, .RADIAN. ) );
#126 = PLANE ( 'NONE',  #177 ) ;
#127 = DIRECTION ( 'NONE',  ( -0.000000000000000000, -1.000000000000000000, -0.000000000000000000 ) ) ;
#128 = MECHANICAL_DESIGN_GEOMETRIC_PRESENTATION_REPRESENTATION (  '', ( #109 ), #50 ) ;
#129 =( LENGTH_UNIT ( ) NAMED_UNIT ( * ) SI_UNIT ( $, .METRE. ) );
#130 = ADVANCED_BREP_SHAPE_REPRESENTATION ( '84051', ( #204, #206, #141 ), #251 ) ;
#131 = DIMENSIONAL_EXPONENTS ( 1.000000000000000000, 0.000000000000000000, 0.000000000000000000, 0.000000000000000000, 0.000000000000000000, 0.000000000000000000, 0.000000000000000000 ) ;
#132 =( NAMED_UNIT ( * ) PLANE_ANGLE_UNIT ( ) SI_UNIT ( $, .RADIAN. ) );
#133 =( LENGTH_UNIT ( ) NAMED_UNIT ( * ) SI_UNIT ( $, .METRE. ) );
#134 = PLANE ( 'NONE',  #221 ) ;
#135 = CARTESIAN_POINT ( 'NONE',  ( -0.06250000000000000000, 0.3749999999999999445, 0.000000000000000000 ) ) ;
#136 = ORIENTED_EDGE ( 'NONE', *, *, #281, .F. ) ;
#137 = ORIENTED_EDGE ( 'NONE', *, *, #240, .F. ) ;
#138 = DIRECTION ( 'NONE',  ( -2.881521880346713429E-17, 1.000000000000000000, -0.000000000000000000 ) ) ;
#139 = DIRECTION ( 'NONE',  ( -0.000000000000000000, -1.000000000000000000, -0.000000000000000000 ) ) ;
#140 = CLOSED_SHELL ( 'NONE', ( #266, #4, #318, #53 ) ) ;
#141 = AXIS2_PLACEMENT_3D ( 'NONE', #61, #165, #303 ) ;
#142 =( NAMED_UNIT ( * ) SI_UNIT ( $, .STERADIAN. ) SOLID_ANGLE_UNIT ( ) );
#143 = EDGE_CURVE ( 'NONE', #80, #294, #209, .T. ) ;
#144 = FILL_AREA_STYLE ('',( #89 ) ) ;
#145 =( NAMED_UNIT ( * ) PLANE_ANGLE_UNIT ( ) SI_UNIT ( $, .RADIAN. ) );
#146 = LENGTH_MEASURE_WITH_UNIT ( LENGTH_MEASURE( 0.02539999999999999897 ), #95 );
#147 = EDGE_CURVE ( 'NONE', #164, #196, #279, .T. ) ;
#148 = PRESENTATION_LAYER_ASSIGNMENT (  '', '', ( #40 ) ) ;
#149 = DIRECTION ( 'NONE',  ( -1.000000000000000000, 0.000000000000000000, 0.000000000000000000 ) ) ;
#150 = CARTESIAN_POINT ( 'NONE',  ( 0.000000000000000000, 0.3750000000000000555, 0.000000000000000000 ) ) ;
#151 = FILL_AREA_STYLE ('',( #314 ) ) ;
#152 =( GEOMETRIC_REPRESENTATION_CONTEXT ( 3 ) GLOBAL_UNCERTAINTY_ASSIGNED_CONTEXT ( ( #345 ) ) GLOBAL_UNIT_ASSIGNED_CONTEXT ( ( #108, #289, #287 ) ) REPRESENTATION_CONTEXT ( 'NONE', 'WORKASPACE' ) );
#153 = DIRECTION ( 'NONE',  ( -2.881521880346713429E-17, 1.000000000000000000, -0.000000000000000000 ) ) ;
#154 = PRODUCT_DEFINITION ( 'UNKNOWN', '', #14, #72 ) ;
#155 =( CONVERSION_BASED_UNIT ( 'INCH', #75 ) LENGTH_UNIT ( ) NAMED_UNIT ( #131 ) );
#156 = FACE_OUTER_BOUND ( 'NONE', #311, .T. ) ;
#157 = ADVANCED_FACE ( 'NONE', ( #59 ), #255, .T. ) ;
#158 = LINE ( 'NONE', #189, #172 ) ;
#159 = AXIS2_PLACEMENT_3D ( 'NONE', #7, #337, #334 ) ;
#160 = AXIS2_PLACEMENT_3D ( 'NONE', #274, #3, #249 ) ;
#161 = PRESENTATION_STYLE_ASSIGNMENT (( #54 ) ) ;
#162 = ORIENTED_EDGE ( 'NONE', *, *, #252, .T. ) ;
#163 = DIRECTION ( 'NONE',  ( -2.881521880346713429E-17, 1.000000000000000000, -0.000000000000000000 ) ) ;
#164 = VERTEX_POINT ( 'NONE', #57 ) ;
#165 = DIRECTION ( 'NONE',  ( 0.000000000000000000, 0.000000000000000000, 1.000000000000000000 ) ) ;
#166 = AXIS2_PLACEMENT_3D ( 'NONE', #328, #185, #321 ) ;
#167 = DIRECTION ( 'NONE',  ( -0.000000000000000000, -1.000000000000000000, -0.000000000000000000 ) ) ;
#168 = EDGE_LOOP ( 'NONE', ( #169, #93 ) ) ;
#169 = ORIENTED_EDGE ( 'NONE', *, *, #147, .T. ) ;
#170 = APPLICATION_PROTOCOL_DEFINITION ( 'draft international standard', 'automotive_design', 1998, #247 ) ;
#171 = AXIS2_PLACEMENT_3D ( 'NONE', #218, #278, #120 ) ;
#172 = VECTOR ( 'NONE', #295, 39.37007874015748143 ) ;
#173 = DIRECTION ( 'NONE',  ( -1.000000000000000000, -2.881521880346713429E-17, 0.000000000000000000 ) ) ;
#174 = DIMENSIONAL_EXPONENTS ( 1.000000000000000000, 0.000000000000000000, 0.000000000000000000, 0.000000000000000000, 0.000000000000000000, 0.000000000000000000, 0.000000000000000000 ) ;
#175 =( NAMED_UNIT ( * ) PLANE_ANGLE_UNIT ( ) SI_UNIT ( $, .RADIAN. ) );
#176 = DIRECTION ( 'NONE',  ( 0.000000000000000000, -0.000000000000000000, 1.000000000000000000 ) ) ;
#177 = AXIS2_PLACEMENT_3D ( 'NONE', #230, #99, #173 ) ;
#178 = SURFACE_STYLE_FILL_AREA ( #312 ) ;
#179 = AXIS2_PLACEMENT_3D ( 'NONE', #182, #17, #300 ) ;
#180 = PRESENTATION_LAYER_ASSIGNMENT (  '', '', ( #195 ) ) ;
#181 = DIRECTION ( 'NONE',  ( 0.000000000000000000, -1.000000000000000000, -0.000000000000000000 ) ) ;
#182 = CARTESIAN_POINT ( 'NONE',  ( 7.582401355855259480E-33, 0.3749999999999999445, 0.000000000000000000 ) ) ;
#183 = EDGE_CURVE ( 'NONE', #294, #80, #354, .T. ) ;
#184 = SURFACE_STYLE_FILL_AREA ( #265 ) ;
#185 = DIRECTION ( 'NONE',  ( -2.881521880346713429E-17, 1.000000000000000000, -0.000000000000000000 ) ) ;
#186 = EDGE_LOOP ( 'NONE', ( #162, #253, #27, #330 ) ) ;
#187 = FACE_OUTER_BOUND ( 'NONE', #192, .T. ) ;
#188 = ORIENTED_EDGE ( 'NONE', *, *, #107, .T. ) ;
#189 = CARTESIAN_POINT ( 'NONE',  ( 0.1249999999999999584, 2.500000000000000000, 1.530808498934191817E-17 ) ) ;
#190 = DIRECTION ( 'NONE',  ( 0.000000000000000000, 0.000000000000000000, -1.000000000000000000 ) ) ;
#191 = EDGE_CURVE ( 'NONE', #12, #164, #94, .T. ) ;
#192 = EDGE_LOOP ( 'NONE', ( #357, #55, #269, #256 ) ) ;
#193 = SURFACE_STYLE_FILL_AREA ( #215 ) ;
#194 =( LENGTH_UNIT ( ) NAMED_UNIT ( * ) SI_UNIT ( $, .METRE. ) );
#195 = STYLED_ITEM ( 'NONE', ( #74 ), #266 ) ;
#196 = VERTEX_POINT ( 'NONE', #36 ) ;
#197 = CARTESIAN_POINT ( 'NONE',  ( 7.654042494670957545E-18, 0.000000000000000000, 0.06250000000000000000 ) ) ;
#198 = ORIENTED_EDGE ( 'NONE', *, *, #307, .T. ) ;
#199 = DIMENSIONAL_EXPONENTS ( 1.000000000000000000, 0.000000000000000000, 0.000000000000000000, 0.000000000000000000, 0.000000000000000000, 0.000000000000000000, 0.000000000000000000 ) ;
#200 = DIRECTION ( 'NONE',  ( 0.000000000000000000, 1.000000000000000000, 0.000000000000000000 ) ) ;
#201 =( NAMED_UNIT ( * ) SI_UNIT ( $, .STERADIAN. ) SOLID_ANGLE_UNIT ( ) );
#202 = UNCERTAINTY_MEASURE_WITH_UNIT (LENGTH_MEASURE( 1.000000000000000082E-05 ), #332, 'distance_accuracy_value', 'NONE');
#203 = CIRCLE ( 'NONE', #98, 0.1250000000000000278 ) ;
#204 = MANIFOLD_SOLID_BREP ( 'Revolve - Cutting Edge', #140 ) ;
#205 = DIRECTION ( 'NONE',  ( -1.000000000000000000, 0.000000000000000000, 0.000000000000000000 ) ) ;
#206 = MANIFOLD_SOLID_BREP ( 'Revolve - Tool Body (Reduced Cut Diameter)', #310 ) ;
#207 = DIRECTION ( 'NONE',  ( -0.000000000000000000, -1.000000000000000000, -0.000000000000000000 ) ) ;
#208 = ADVANCED_FACE ( 'NONE', ( #15 ), #339, .T. ) ;
#209 = CIRCLE ( 'NONE', #171, 0.1250000000000000555 ) ;
#210 = DIMENSIONAL_EXPONENTS ( 1.000000000000000000, 0.000000000000000000, 0.000000000000000000, 0.000000000000000000, 0.000000000000000000, 0.000000000000000000, 0.000000000000000000 ) ;
#211 = FILL_AREA_STYLE ('',( #292 ) ) ;
#212 = DIRECTION ( 'NONE',  ( -0.000000000000000000, -1.000000000000000000, -0.000000000000000000 ) ) ;
#213 = LENGTH_MEASURE_WITH_UNIT ( LENGTH_MEASURE( 0.02539999999999999897 ), #133 );
#214 = AXIS2_PLACEMENT_3D ( 'NONE', #39, #42, #205 ) ;
#215 = FILL_AREA_STYLE ('',( #267 ) ) ;
#216 = EDGE_LOOP ( 'NONE', ( #136, #87, #244, #110 ) ) ;
#217 = VERTEX_POINT ( 'NONE', #313 ) ;
#218 = CARTESIAN_POINT ( 'NONE',  ( -6.123233995736766036E-17, 2.500000000000000000, 0.000000000000000000 ) ) ;
#219 = EDGE_CURVE ( 'NONE', #29, #196, #317, .T. ) ;
#220 =( LENGTH_UNIT ( ) NAMED_UNIT ( * ) SI_UNIT ( $, .METRE. ) );
#221 = AXIS2_PLACEMENT_3D ( 'NONE', #258, #200, #176 ) ;
#222 = DIRECTION ( 'NONE',  ( -0.2588190451025212391, 0.9659258262890679791, 0.000000000000000000 ) ) ;
#223 = UNCERTAINTY_MEASURE_WITH_UNIT (LENGTH_MEASURE( 1.000000000000000082E-05 ), #38, 'distance_accuracy_value', 'NONE');
#224 = CARTESIAN_POINT ( 'NONE',  ( 0.1250000000000000000, 0.6082531754730543527, 1.530808498934191509E-17 ) ) ;
#225 = ORIENTED_EDGE ( 'NONE', *, *, #219, .T. ) ;
#226 = ORIENTED_EDGE ( 'NONE', *, *, #307, .F. ) ;
#227 =( NAMED_UNIT ( * ) PLANE_ANGLE_UNIT ( ) SI_UNIT ( $, .RADIAN. ) );
#228 =( GEOMETRIC_REPRESENTATION_CONTEXT ( 3 ) GLOBAL_UNCERTAINTY_ASSIGNED_CONTEXT ( ( #223 ) ) GLOBAL_UNIT_ASSIGNED_CONTEXT ( ( #38, #145, #21 ) ) REPRESENTATION_CONTEXT ( 'NONE', 'WORKASPACE' ) );
#229 = ORIENTED_EDGE ( 'NONE', *, *, #24, .F. ) ;
#230 = CARTESIAN_POINT ( 'NONE',  ( 2.594740108411518231E-35, 0.3750000000000000555, 0.000000000000000000 ) ) ;
#231 = PRODUCT_RELATED_PRODUCT_CATEGORY ( 'part', '', ( #329 ) ) ;
#232 = UNCERTAINTY_MEASURE_WITH_UNIT (LENGTH_MEASURE( 1.000000000000000082E-05 ), #68, 'distance_accuracy_value', 'NONE');
#233 =( GEOMETRIC_REPRESENTATION_CONTEXT ( 3 ) GLOBAL_UNCERTAINTY_ASSIGNED_CONTEXT ( ( #245 ) ) GLOBAL_UNIT_ASSIGNED_CONTEXT ( ( #66, #227, #297 ) ) REPRESENTATION_CONTEXT ( 'NONE', 'WORKASPACE' ) );
#234 = ORIENTED_EDGE ( 'NONE', *, *, #356, .F. ) ;
#235 =( GEOMETRIC_REPRESENTATION_CONTEXT ( 3 ) GLOBAL_UNCERTAINTY_ASSIGNED_CONTEXT ( ( #273 ) ) GLOBAL_UNIT_ASSIGNED_CONTEXT ( ( #155, #132, #239 ) ) REPRESENTATION_CONTEXT ( 'NONE', 'WORKASPACE' ) );
#236 = FACE_OUTER_BOUND ( 'NONE', #276, .T. ) ;
#237 = AXIS2_PLACEMENT_3D ( 'NONE', #115, #92, #111 ) ;
#238 = FACE_OUTER_BOUND ( 'NONE', #186, .T. ) ;
#239 =( NAMED_UNIT ( * ) SI_UNIT ( $, .STERADIAN. ) SOLID_ANGLE_UNIT ( ) );
#240 = EDGE_CURVE ( 'NONE', #29, #12, #10, .T. ) ;
#241 = PRESENTATION_STYLE_ASSIGNMENT (( #20 ) ) ;
#242 = SURFACE_SIDE_STYLE ('',( #193 ) ) ;
#243 = AXIS2_PLACEMENT_3D ( 'NONE', #282, #153, #149 ) ;
#244 = ORIENTED_EDGE ( 'NONE', *, *, #122, .T. ) ;
#245 = UNCERTAINTY_MEASURE_WITH_UNIT (LENGTH_MEASURE( 1.000000000000000082E-05 ), #66, 'distance_accuracy_value', 'NONE');
#246 = DIRECTION ( 'NONE',  ( -2.881521880346713429E-17, 1.000000000000000000, -0.000000000000000000 ) ) ;
#247 = APPLICATION_CONTEXT ( 'automotive_design' ) ;
#248 = ADVANCED_FACE ( 'NONE', ( #11 ), #126, .F. ) ;
#249 = DIRECTION ( 'NONE',  ( 0.000000000000000000, 0.000000000000000000, -1.000000000000000000 ) ) ;
#250 = DIRECTION ( 'NONE',  ( 0.000000000000000000, 0.000000000000000000, -1.000000000000000000 ) ) ;
#251 =( GEOMETRIC_REPRESENTATION_CONTEXT ( 3 ) GLOBAL_UNCERTAINTY_ASSIGNED_CONTEXT ( ( #202 ) ) GLOBAL_UNIT_ASSIGNED_CONTEXT ( ( #332, #358, #142 ) ) REPRESENTATION_CONTEXT ( 'NONE', 'WORKASPACE' ) );
#252 = EDGE_CURVE ( 'NONE', #277, #114, #271, .T. ) ;
#253 = ORIENTED_EDGE ( 'NONE', *, *, #281, .T. ) ;
#254 = SURFACE_STYLE_USAGE ( .BOTH. , #259 ) ;
#255 = CONICAL_SURFACE ( 'NONE', #159, 0.06250000000000000000, 0.2617993877991499074 ) ;
#256 = ORIENTED_EDGE ( 'NONE', *, *, #272, .F. ) ;
#257 = DIRECTION ( 'NONE',  ( 0.000000000000000000, 0.000000000000000000, -1.000000000000000000 ) ) ;
#258 = CARTESIAN_POINT ( 'NONE',  ( 0.000000000000000000, 0.3750000000000000555, 0.000000000000000000 ) ) ;
#259 = SURFACE_SIDE_STYLE ('',( #178 ) ) ;
#260 = DIMENSIONAL_EXPONENTS ( 1.000000000000000000, 0.000000000000000000, 0.000000000000000000, 0.000000000000000000, 0.000000000000000000, 0.000000000000000000, 0.000000000000000000 ) ;
#261 = CARTESIAN_POINT ( 'NONE',  ( 0.000000000000000000, 0.000000000000000000, 0.000000000000000000 ) ) ;
#262 = DIRECTION ( 'NONE',  ( 0.000000000000000000, 0.000000000000000000, -1.000000000000000000 ) ) ;
#263 = COLOUR_RGB ( '',1.000000000000000000, 0.000000000000000000, 0.000000000000000000 ) ;
#264 = COLOUR_RGB ( '',1.000000000000000000, 0.000000000000000000, 0.000000000000000000 ) ;
#265 = FILL_AREA_STYLE ('',( #351 ) ) ;
#266 = ADVANCED_FACE ( 'NONE', ( #236 ), #101, .T. ) ;
#267 = FILL_AREA_STYLE_COLOUR ( '', #103 ) ;
#268 = DIRECTION ( 'NONE',  ( -1.000000000000000000, 0.000000000000000000, 0.000000000000000000 ) ) ;
#269 = ORIENTED_EDGE ( 'NONE', *, *, #191, .T. ) ;
#270 = CIRCLE ( 'NONE', #179, 0.06250000000000000000 ) ;
#271 = CIRCLE ( 'NONE', #214, 0.1250000000000000278 ) ;
#272 = EDGE_CURVE ( 'NONE', #196, #164, #44, .T. ) ;
#273 = UNCERTAINTY_MEASURE_WITH_UNIT (LENGTH_MEASURE( 1.000000000000000082E-05 ), #155, 'distance_accuracy_value', 'NONE');
#274 = CARTESIAN_POINT ( 'NONE',  ( 0.000000000000000000, 0.3750000000000000555, 0.000000000000000000 ) ) ;
#275 = PRODUCT_DEFINITION_SHAPE ( 'NONE', 'NONE',  #154 ) ;
#276 = EDGE_LOOP ( 'NONE', ( #324, #225, #335, #52 ) ) ;
#277 = VERTEX_POINT ( 'NONE', #323 ) ;
#278 = DIRECTION ( 'NONE',  ( -2.881521880346713429E-17, 1.000000000000000000, -0.000000000000000000 ) ) ;
#279 = CIRCLE ( 'NONE', #315, 0.06250000000000000000 ) ;
#280 = AXIS2_PLACEMENT_3D ( 'NONE', #88, #138, #359 ) ;
#281 = EDGE_CURVE ( 'NONE', #114, #294, #158, .T. ) ;
#282 = CARTESIAN_POINT ( 'NONE',  ( -6.123233995736766036E-17, 2.500000000000000000, 0.000000000000000000 ) ) ;
#283 = VECTOR ( 'NONE', #222, 39.37007874015748854 ) ;
#284 = LENGTH_MEASURE_WITH_UNIT ( LENGTH_MEASURE( 0.02539999999999999897 ), #129 );
#285 = SURFACE_SIDE_STYLE ('',( #344 ) ) ;
#286 = LINE ( 'NONE', #45, #100 ) ;
#287 =( NAMED_UNIT ( * ) SI_UNIT ( $, .STERADIAN. ) SOLID_ANGLE_UNIT ( ) );
#288 = DIRECTION ( 'NONE',  ( -0.000000000000000000, -1.000000000000000000, -0.000000000000000000 ) ) ;
#289 =( NAMED_UNIT ( * ) PLANE_ANGLE_UNIT ( ) SI_UNIT ( $, .RADIAN. ) );
#290 = PRESENTATION_LAYER_ASSIGNMENT (  '', '', ( #49 ) ) ;
#291 =( GEOMETRIC_REPRESENTATION_CONTEXT ( 3 ) GLOBAL_UNCERTAINTY_ASSIGNED_CONTEXT ( ( #308 ) ) GLOBAL_UNIT_ASSIGNED_CONTEXT ( ( #124, #175, #48 ) ) REPRESENTATION_CONTEXT ( 'NONE', 'WORKASPACE' ) );
#292 = FILL_AREA_STYLE_COLOUR ( '', #264 ) ;
#293 = DIRECTION ( 'NONE',  ( -2.881521880346713429E-17, 1.000000000000000000, -0.000000000000000000 ) ) ;
#294 = VERTEX_POINT ( 'NONE', #79 ) ;
#295 = DIRECTION ( 'NONE',  ( -2.881521880346713429E-17, 1.000000000000000000, -0.000000000000000000 ) ) ;
#296 = CARTESIAN_POINT ( 'NONE',  ( -6.721241287859572235E-18, 0.6082531754730543527, 0.000000000000000000 ) ) ;
#297 =( NAMED_UNIT ( * ) SI_UNIT ( $, .STERADIAN. ) SOLID_ANGLE_UNIT ( ) );
#298 = AXIS2_PLACEMENT_3D ( 'NONE', #331, #305, #301 ) ;
#299 = CARTESIAN_POINT ( 'NONE',  ( 0.000000000000000000, 0.000000000000000000, -0.06250000000000000000 ) ) ;
#300 = DIRECTION ( 'NONE',  ( -1.000000000000000000, 0.000000000000000000, 0.000000000000000000 ) ) ;
#301 = DIRECTION ( 'NONE',  ( -1.000000000000000000, 0.000000000000000000, 0.000000000000000000 ) ) ;
#302 = ORIENTED_EDGE ( 'NONE', *, *, #342, .F. ) ;
#303 = DIRECTION ( 'NONE',  ( 1.000000000000000000, 0.000000000000000000, 0.000000000000000000 ) ) ;
#304 = ORIENTED_EDGE ( 'NONE', *, *, #143, .T. ) ;
#305 = DIRECTION ( 'NONE',  ( -2.881521880346713429E-17, 1.000000000000000000, -0.000000000000000000 ) ) ;
#306 = SURFACE_STYLE_USAGE ( .BOTH. , #242 ) ;
#307 = EDGE_CURVE ( 'NONE', #217, #114, #286, .T. ) ;
#308 = UNCERTAINTY_MEASURE_WITH_UNIT (LENGTH_MEASURE( 1.000000000000000082E-05 ), #124, 'distance_accuracy_value', 'NONE');
#309 = LENGTH_MEASURE_WITH_UNIT ( LENGTH_MEASURE( 0.02539999999999999897 ), #220 );
#310 = CLOSED_SHELL ( 'NONE', ( #31, #157, #248, #41, #208, #346 ) ) ;
#311 = EDGE_LOOP ( 'NONE', ( #226, #90, #188, #119 ) ) ;
#312 = FILL_AREA_STYLE ('',( #73 ) ) ;
#313 = CARTESIAN_POINT ( 'NONE',  ( 0.06250000000000000000, 0.3749999999999999445, 1.148106374200643555E-17 ) ) ;
#314 = FILL_AREA_STYLE_COLOUR ( '', #65 ) ;
#315 = AXIS2_PLACEMENT_3D ( 'NONE', #33, #139, #250 ) ;
#316 = CIRCLE ( 'NONE', #280, 0.06250000000000000000 ) ;
#317 = LINE ( 'NONE', #197, #341 ) ;
#318 = ADVANCED_FACE ( 'NONE', ( #187 ), #352, .T. ) ;
#319 = CARTESIAN_POINT ( 'NONE',  ( 0.000000000000000000, 0.000000000000000000, 0.000000000000000000 ) ) ;
#320 = CONICAL_SURFACE ( 'NONE', #166, 0.06250000000000000000, 0.2617993877991499074 ) ;
#321 = DIRECTION ( 'NONE',  ( -1.000000000000000000, 0.000000000000000000, 0.000000000000000000 ) ) ;
#322 = DIMENSIONAL_EXPONENTS ( 1.000000000000000000, 0.000000000000000000, 0.000000000000000000, 0.000000000000000000, 0.000000000000000000, 0.000000000000000000, 0.000000000000000000 ) ;
#323 = CARTESIAN_POINT ( 'NONE',  ( -0.1250000000000000000, 0.6082531754730543527, 0.000000000000000000 ) ) ;
#324 = ORIENTED_EDGE ( 'NONE', *, *, #356, .T. ) ;
#325 = CYLINDRICAL_SURFACE ( 'NONE', #76, 0.1250000000000000278 ) ;
#326 = MECHANICAL_DESIGN_GEOMETRIC_PRESENTATION_REPRESENTATION (  '', ( #117 ), #152 ) ;
#327 = AXIS2_PLACEMENT_3D ( 'NONE', #319, #288, #347 ) ;
#328 = CARTESIAN_POINT ( 'NONE',  ( 7.582401355855259480E-33, 0.3749999999999999445, 0.000000000000000000 ) ) ;
#329 = PRODUCT ( '84051', '84051', '', ( #56 ) ) ;
#330 = ORIENTED_EDGE ( 'NONE', *, *, #122, .F. ) ;
#331 = CARTESIAN_POINT ( 'NONE',  ( -6.123233995736766036E-17, 2.500000000000000000, 0.000000000000000000 ) ) ;
#332 =( CONVERSION_BASED_UNIT ( 'INCH', #336 ) LENGTH_UNIT ( ) NAMED_UNIT ( #322 ) );
#333 = CARTESIAN_POINT ( 'NONE',  ( -0.06250000000000000000, 0.3749999999999999445, 0.000000000000000000 ) ) ;
#334 = DIRECTION ( 'NONE',  ( -1.000000000000000000, 0.000000000000000000, 0.000000000000000000 ) ) ;
#335 = ORIENTED_EDGE ( 'NONE', *, *, #147, .F. ) ;
#336 = LENGTH_MEASURE_WITH_UNIT ( LENGTH_MEASURE( 0.02539999999999999897 ), #86 );
#337 = DIRECTION ( 'NONE',  ( -2.881521880346713429E-17, 1.000000000000000000, -0.000000000000000000 ) ) ;
#338 = EDGE_LOOP ( 'NONE', ( #304, #8 ) ) ;
#339 = CYLINDRICAL_SURFACE ( 'NONE', #243, 0.1250000000000000278 ) ;
#340 = MECHANICAL_DESIGN_GEOMETRIC_PRESENTATION_REPRESENTATION (  '', ( #40 ), #228 ) ;
#341 = VECTOR ( 'NONE', #127, 39.37007874015748143 ) ;
#342 = EDGE_CURVE ( 'NONE', #217, #123, #316, .T. ) ;
#343 = EDGE_LOOP ( 'NONE', ( #32, #198, #91, #60 ) ) ;
#344 = SURFACE_STYLE_FILL_AREA ( #151 ) ;
#345 = UNCERTAINTY_MEASURE_WITH_UNIT (LENGTH_MEASURE( 1.000000000000000082E-05 ), #108, 'distance_accuracy_value', 'NONE');
#346 = ADVANCED_FACE ( 'NONE', ( #113 ), #121, .F. ) ;
#347 = DIRECTION ( 'NONE',  ( 0.000000000000000000, 0.000000000000000000, -1.000000000000000000 ) ) ;
#348 = SURFACE_STYLE_FILL_AREA ( #211 ) ;
#349 = VECTOR ( 'NONE', #167, 39.37007874015748143 ) ;
#350 = SURFACE_SIDE_STYLE ('',( #348 ) ) ;
#351 = FILL_AREA_STYLE_COLOUR ( '', #263 ) ;
#352 = CYLINDRICAL_SURFACE ( 'NONE', #118, 0.06250000000000000000 ) ;
#353 = PLANE ( 'NONE',  #26 ) ;
#354 = CIRCLE ( 'NONE', #298, 0.1250000000000000555 ) ;
#355 = AXIS2_PLACEMENT_3D ( 'NONE', #150, #207, #257 ) ;
#356 = EDGE_CURVE ( 'NONE', #12, #29, #71, .T. ) ;
#357 = ORIENTED_EDGE ( 'NONE', *, *, #219, .F. ) ;
#358 =( NAMED_UNIT ( * ) PLANE_ANGLE_UNIT ( ) SI_UNIT ( $, .RADIAN. ) );
#359 = DIRECTION ( 'NONE',  ( -1.000000000000000000, 0.000000000000000000, 0.000000000000000000 ) ) ;
ENDSEC;
END-ISO-10303-21;
