ISO-10303-21;
HEADER;
FILE_DESCRIPTION (( 'STEP AP214' ),
    '1' );
FILE_NAME ('49210.STEP',
    '2023-06-30T21:58:25',
    ( '' ),
    ( '' ),
    'SwSTEP 2.0',
    'SolidWorks 2023',
    '' );
FILE_SCHEMA (( 'AUTOMOTIVE_DESIGN' ));
ENDSEC;

DATA;
#1 = SURFACE_STYLE_USAGE ( .BOTH. , #322 ) ;
#2 = PRESENTATION_LAYER_ASSIGNMENT (  '', '', ( #324 ) ) ;
#3 = LENGTH_MEASURE_WITH_UNIT ( LENGTH_MEASURE( 0.02539999999999999897 ), #67 );
#4 = APPLICATION_PROTOCOL_DEFINITION ( 'draft international standard', 'automotive_design', 1998, #92 ) ;
#5 = CARTESIAN_POINT ( 'NONE',  ( -6.123233995736766036E-17, 2.500000000000000000, 0.000000000000000000 ) ) ;
#6 = SURFACE_STYLE_FILL_AREA ( #302 ) ;
#7 = VECTOR ( 'NONE', #261, 39.37007874015748143 ) ;
#8 = DIRECTION ( 'NONE',  ( 0.000000000000000000, 0.000000000000000000, 1.000000000000000000 ) ) ;
#9 = MECHANICAL_DESIGN_GEOMETRIC_PRESENTATION_REPRESENTATION (  '', ( #272 ), #348 ) ;
#10 = CIRCLE ( 'NONE', #71, 0.1874999999999998890 ) ;
#11 = FILL_AREA_STYLE ('',( #271 ) ) ;
#12 = VERTEX_POINT ( 'NONE', #54 ) ;
#13 = EDGE_CURVE ( 'NONE', #16, #289, #362, .T. ) ;
#14 = SURFACE_STYLE_USAGE ( .BOTH. , #276 ) ;
#15 = CARTESIAN_POINT ( 'NONE',  ( 0.1874999999999998890, 2.500000000000000000, 2.296212748401285877E-17 ) ) ;
#16 = VERTEX_POINT ( 'NONE', #113 ) ;
#17 = SURFACE_STYLE_FILL_AREA ( #11 ) ;
#18 = AXIS2_PLACEMENT_3D ( 'NONE', #343, #310, #43 ) ;
#19 = ORIENTED_EDGE ( 'NONE', *, *, #183, .F. ) ;
#20 = SURFACE_SIDE_STYLE ('',( #226 ) ) ;
#21 = ORIENTED_EDGE ( 'NONE', *, *, #50, .F. ) ;
#22 = CARTESIAN_POINT ( 'NONE',  ( -1.148106374200644017E-17, 0.000000000000000000, 0.000000000000000000 ) ) ;
#23 = DIRECTION ( 'NONE',  ( -0.000000000000000000, -1.000000000000000000, -0.000000000000000000 ) ) ;
#24 = CIRCLE ( 'NONE', #246, 0.1875000000000000555 ) ;
#25 = CARTESIAN_POINT ( 'NONE',  ( -0.1875000000000000555, 0.1875000000000000833, 2.296212748401287109E-17 ) ) ;
#26 = CARTESIAN_POINT ( 'NONE',  ( -0.1874999999999996392, 1.000000000000000000, 0.000000000000000000 ) ) ;
#27 = AXIS2_PLACEMENT_3D ( 'NONE', #305, #247, #245 ) ;
#28 = STYLED_ITEM ( 'NONE', ( #55 ), #357 ) ;
#29 =( CONVERSION_BASED_UNIT ( 'INCH', #116 ) LENGTH_UNIT ( ) NAMED_UNIT ( #208 ) );
#30 = ORIENTED_EDGE ( 'NONE', *, *, #361, .T. ) ;
#31 = CIRCLE ( 'NONE', #297, 0.1874999999999999722 ) ;
#32 = STYLED_ITEM ( 'NONE', ( #65 ), #210 ) ;
#33 = EDGE_CURVE ( 'NONE', #162, #59, #62, .T. ) ;
#34 = CARTESIAN_POINT ( 'NONE',  ( 0.000000000000000000, 0.000000000000000000, 0.000000000000000000 ) ) ;
#35 = SURFACE_STYLE_USAGE ( .BOTH. , #156 ) ;
#36 = APPLICATION_PROTOCOL_DEFINITION ( 'draft international standard', 'automotive_design', 1998, #178 ) ;
#37 =( NAMED_UNIT ( * ) SI_UNIT ( $, .STERADIAN. ) SOLID_ANGLE_UNIT ( ) );
#38 = DIRECTION ( 'NONE',  ( -1.000000000000000000, 0.000000000000000000, 0.000000000000000000 ) ) ;
#39 = CARTESIAN_POINT ( 'NONE',  ( -2.296212748401288034E-17, 0.1875000000000000555, 0.000000000000000000 ) ) ;
#40 = UNCERTAINTY_MEASURE_WITH_UNIT (LENGTH_MEASURE( 1.000000000000000082E-05 ), #79, 'distance_accuracy_value', 'NONE');
#41 = ORIENTED_EDGE ( 'NONE', *, *, #75, .F. ) ;
#42 = LENGTH_MEASURE_WITH_UNIT ( LENGTH_MEASURE( 0.02539999999999999897 ), #309 );
#43 = DIRECTION ( 'NONE',  ( -1.000000000000000000, 0.000000000000000000, 0.000000000000000000 ) ) ;
#44 = CARTESIAN_POINT ( 'NONE',  ( 0.000000000000000000, 1.000000000000000000, 0.000000000000000000 ) ) ;
#45 = EDGE_CURVE ( 'NONE', #289, #284, #196, .T. ) ;
#46 = ORIENTED_EDGE ( 'NONE', *, *, #148, .F. ) ;
#47 = PRESENTATION_STYLE_ASSIGNMENT (( #338 ) ) ;
#48 = DIMENSIONAL_EXPONENTS ( 1.000000000000000000, 0.000000000000000000, 0.000000000000000000, 0.000000000000000000, 0.000000000000000000, 0.000000000000000000, 0.000000000000000000 ) ;
#49 = CARTESIAN_POINT ( 'NONE',  ( -6.123233995736766036E-17, 2.500000000000000000, 0.000000000000000000 ) ) ;
#50 = EDGE_CURVE ( 'NONE', #84, #284, #328, .T. ) ;
#51 = ORIENTED_EDGE ( 'NONE', *, *, #255, .F. ) ;
#52 = PLANE ( 'NONE',  #132 ) ;
#53 =( LENGTH_UNIT ( ) NAMED_UNIT ( * ) SI_UNIT ( $, .METRE. ) );
#54 = CARTESIAN_POINT ( 'NONE',  ( 0.1874999999999999722, 0.1875000000000000833, 0.000000000000000000 ) ) ;
#55 = PRESENTATION_STYLE_ASSIGNMENT (( #1 ) ) ;
#56 = PRODUCT_DEFINITION_FORMATION_WITH_SPECIFIED_SOURCE ( 'ANY', '', #96, .NOT_KNOWN. ) ;
#57 = LENGTH_MEASURE_WITH_UNIT ( LENGTH_MEASURE( 0.02539999999999999897 ), #120 );
#58 =( CONVERSION_BASED_UNIT ( 'INCH', #57 ) LENGTH_UNIT ( ) NAMED_UNIT ( #317 ) );
#59 = VERTEX_POINT ( 'NONE', #26 ) ;
#60 = DIRECTION ( 'NONE',  ( -0.000000000000000000, -1.000000000000000000, -0.000000000000000000 ) ) ;
#61 = DIRECTION ( 'NONE',  ( 1.000000000000000000, 0.000000000000000000, 0.000000000000000000 ) ) ;
#62 = CIRCLE ( 'NONE', #188, 0.1874999999999997780 ) ;
#63 = DIRECTION ( 'NONE',  ( 1.000000000000000000, 0.000000000000000000, 0.000000000000000000 ) ) ;
#64 = PRODUCT_CONTEXT ( 'NONE', #178, 'mechanical' ) ;
#65 = PRESENTATION_STYLE_ASSIGNMENT (( #336 ) ) ;
#66 = PRESENTATION_STYLE_ASSIGNMENT (( #14 ) ) ;
#67 =( LENGTH_UNIT ( ) NAMED_UNIT ( * ) SI_UNIT ( $, .METRE. ) );
#68 = DIRECTION ( 'NONE',  ( 1.224646799147353207E-16, -0.000000000000000000, 1.000000000000000000 ) ) ;
#69 = AXIS2_PLACEMENT_3D ( 'NONE', #314, #176, #171 ) ;
#70 = VECTOR ( 'NONE', #217, 39.37007874015748143 ) ;
#71 = AXIS2_PLACEMENT_3D ( 'NONE', #179, #184, #214 ) ;
#72 = ORIENTED_EDGE ( 'NONE', *, *, #177, .F. ) ;
#73 = FILL_AREA_STYLE ('',( #360 ) ) ;
#74 = DIRECTION ( 'NONE',  ( 0.000000000000000000, 0.000000000000000000, 1.000000000000000000 ) ) ;
#75 = EDGE_CURVE ( 'NONE', #355, #84, #172, .T. ) ;
#76 = CIRCLE ( 'NONE', #344, 0.1875000000000000555 ) ;
#77 = DIMENSIONAL_EXPONENTS ( 1.000000000000000000, 0.000000000000000000, 0.000000000000000000, 0.000000000000000000, 0.000000000000000000, 0.000000000000000000, 0.000000000000000000 ) ;
#78 = DIRECTION ( 'NONE',  ( -1.224646799147353207E-16, 1.000000000000000000, -0.000000000000000000 ) ) ;
#79 =( CONVERSION_BASED_UNIT ( 'INCH', #341 ) LENGTH_UNIT ( ) NAMED_UNIT ( #81 ) );
#80 = CARTESIAN_POINT ( 'NONE',  ( -0.1874999999999999167, 2.500000000000000000, 0.000000000000000000 ) ) ;
#81 = DIMENSIONAL_EXPONENTS ( 1.000000000000000000, 0.000000000000000000, 0.000000000000000000, 0.000000000000000000, 0.000000000000000000, 0.000000000000000000, 0.000000000000000000 ) ;
#82 = CARTESIAN_POINT ( 'NONE',  ( 0.000000000000000000, 0.000000000000000000, -0.1874999999999999167 ) ) ;
#83 = FILL_AREA_STYLE ('',( #143 ) ) ;
#84 = VERTEX_POINT ( 'NONE', #25 ) ;
#85 = CARTESIAN_POINT ( 'NONE',  ( 0.1874999999999999167, 1.000000000000000000, 2.296212748401286493E-17 ) ) ;
#86 = FILL_AREA_STYLE_COLOUR ( '', #280 ) ;
#87 = COLOUR_RGB ( '',0.7921568627450980005, 0.8196078431372548767, 0.9333333333333333481 ) ;
#88 =( GEOMETRIC_REPRESENTATION_CONTEXT ( 3 ) GLOBAL_UNCERTAINTY_ASSIGNED_CONTEXT ( ( #195 ) ) GLOBAL_UNIT_ASSIGNED_CONTEXT ( ( #29, #239, #265 ) ) REPRESENTATION_CONTEXT ( 'NONE', 'WORKASPACE' ) );
#89 = SHAPE_DEFINITION_REPRESENTATION ( #238, #222 ) ;
#90 = ORIENTED_EDGE ( 'NONE', *, *, #45, .T. ) ;
#91 =( NAMED_UNIT ( * ) SI_UNIT ( $, .STERADIAN. ) SOLID_ANGLE_UNIT ( ) );
#92 = APPLICATION_CONTEXT ( 'automotive_design' ) ;
#93 = DIMENSIONAL_EXPONENTS ( 1.000000000000000000, 0.000000000000000000, 0.000000000000000000, 0.000000000000000000, 0.000000000000000000, 0.000000000000000000, 0.000000000000000000 ) ;
#94 = MECHANICAL_DESIGN_GEOMETRIC_PRESENTATION_REPRESENTATION (  '', ( #32 ), #149 ) ;
#95 =( CONVERSION_BASED_UNIT ( 'INCH', #3 ) LENGTH_UNIT ( ) NAMED_UNIT ( #93 ) );
#96 = PRODUCT ( '49210', '49210', '', ( #64 ) ) ;
#97 = CARTESIAN_POINT ( 'NONE',  ( -2.296212748401288034E-17, 0.1875000000000000555, 0.000000000000000000 ) ) ;
#98 = ORIENTED_EDGE ( 'NONE', *, *, #177, .T. ) ;
#99 =( GEOMETRIC_REPRESENTATION_CONTEXT ( 3 ) GLOBAL_UNCERTAINTY_ASSIGNED_CONTEXT ( ( #40 ) ) GLOBAL_UNIT_ASSIGNED_CONTEXT ( ( #79, #351, #241 ) ) REPRESENTATION_CONTEXT ( 'NONE', 'WORKASPACE' ) );
#100 = DIRECTION ( 'NONE',  ( -1.000000000000000000, 0.000000000000000000, 0.000000000000000000 ) ) ;
#101 = EDGE_CURVE ( 'NONE', #59, #174, #235, .T. ) ;
#102 = UNCERTAINTY_MEASURE_WITH_UNIT (LENGTH_MEASURE( 1.000000000000000082E-05 ), #288, 'distance_accuracy_value', 'NONE');
#103 = SURFACE_STYLE_FILL_AREA ( #230 ) ;
#104 = ORIENTED_EDGE ( 'NONE', *, *, #236, .F. ) ;
#105 = DIMENSIONAL_EXPONENTS ( 1.000000000000000000, 0.000000000000000000, 0.000000000000000000, 0.000000000000000000, 0.000000000000000000, 0.000000000000000000, 0.000000000000000000 ) ;
#106 = UNCERTAINTY_MEASURE_WITH_UNIT (LENGTH_MEASURE( 1.000000000000000082E-05 ), #194, 'distance_accuracy_value', 'NONE');
#107 = MECHANICAL_DESIGN_GEOMETRIC_PRESENTATION_REPRESENTATION (  '', ( #28 ), #88 ) ;
#108 = ORIENTED_EDGE ( 'NONE', *, *, #244, .F. ) ;
#109 = PRESENTATION_STYLE_ASSIGNMENT (( #133 ) ) ;
#110 = DIRECTION ( 'NONE',  ( -1.000000000000000000, 0.000000000000000000, 0.000000000000000000 ) ) ;
#111 = CYLINDRICAL_SURFACE ( 'NONE', #203, 0.1874999999999999167 ) ;
#112 = PLANE ( 'NONE',  #225 ) ;
#113 = CARTESIAN_POINT ( 'NONE',  ( 2.296212748401285877E-17, 1.000000000000000000, 0.1874999999999998890 ) ) ;
#114 = STYLED_ITEM ( 'NONE', ( #353 ), #335 ) ;
#115 = FACE_OUTER_BOUND ( 'NONE', #296, .T. ) ;
#116 = LENGTH_MEASURE_WITH_UNIT ( LENGTH_MEASURE( 0.02539999999999999897 ), #237 );
#117 = FACE_OUTER_BOUND ( 'NONE', #224, .T. ) ;
#118 = VECTOR ( 'NONE', #367, 39.37007874015748143 ) ;
#119 = DIRECTION ( 'NONE',  ( 0.000000000000000000, 0.000000000000000000, -1.000000000000000000 ) ) ;
#120 =( LENGTH_UNIT ( ) NAMED_UNIT ( * ) SI_UNIT ( $, .METRE. ) );
#121 =( CONVERSION_BASED_UNIT ( 'INCH', #155 ) LENGTH_UNIT ( ) NAMED_UNIT ( #48 ) );
#122 = SURFACE_STYLE_FILL_AREA ( #301 ) ;
#123 = AXIS2_PLACEMENT_3D ( 'NONE', #257, #371, #229 ) ;
#124 = STYLED_ITEM ( 'NONE', ( #109 ), #283 ) ;
#125 = AXIS2_PLACEMENT_3D ( 'NONE', #34, #8, #63 ) ;
#126 = DIRECTION ( 'NONE',  ( -1.224646799147353207E-16, 1.000000000000000000, -0.000000000000000000 ) ) ;
#127 = DIRECTION ( 'NONE',  ( 1.000000000000000000, 0.000000000000000000, -1.224646799147353207E-16 ) ) ;
#128 = CARTESIAN_POINT ( 'NONE',  ( 0.000000000000000000, 1.000000000000000000, -0.1874999999999998890 ) ) ;
#129 = UNCERTAINTY_MEASURE_WITH_UNIT (LENGTH_MEASURE( 1.000000000000000082E-05 ), #95, 'distance_accuracy_value', 'NONE');
#130 = EDGE_LOOP ( 'NONE', ( #98, #316, #46, #356 ) ) ;
#131 = SURFACE_STYLE_USAGE ( .BOTH. , #20 ) ;
#132 = AXIS2_PLACEMENT_3D ( 'NONE', #323, #175, #346 ) ;
#133 = SURFACE_STYLE_USAGE ( .BOTH. , #279 ) ;
#134 =( LENGTH_UNIT ( ) NAMED_UNIT ( * ) SI_UNIT ( $, .METRE. ) );
#135 =( CONVERSION_BASED_UNIT ( 'INCH', #165 ) LENGTH_UNIT ( ) NAMED_UNIT ( #77 ) );
#136 = EDGE_LOOP ( 'NONE', ( #30, #221, #19, #260, #250 ) ) ;
#137 = PLANE ( 'NONE',  #158 ) ;
#138 = ORIENTED_EDGE ( 'NONE', *, *, #294, .F. ) ;
#139 = FACE_OUTER_BOUND ( 'NONE', #136, .T. ) ;
#140 =( NAMED_UNIT ( * ) PLANE_ANGLE_UNIT ( ) SI_UNIT ( $, .RADIAN. ) );
#141 = CIRCLE ( 'NONE', #240, 0.1874999999999999445 ) ;
#142 = EDGE_LOOP ( 'NONE', ( #326, #153 ) ) ;
#143 = FILL_AREA_STYLE_COLOUR ( '', #234 ) ;
#144 = EDGE_LOOP ( 'NONE', ( #138, #170, #200, #104 ) ) ;
#145 =( LENGTH_UNIT ( ) NAMED_UNIT ( * ) SI_UNIT ( $, .METRE. ) );
#146 = ADVANCED_FACE ( 'NONE', ( #370 ), #112, .F. ) ;
#147 = ORIENTED_EDGE ( 'NONE', *, *, #13, .F. ) ;
#148 = EDGE_CURVE ( 'NONE', #174, #282, #152, .T. ) ;
#149 =( GEOMETRIC_REPRESENTATION_CONTEXT ( 3 ) GLOBAL_UNCERTAINTY_ASSIGNED_CONTEXT ( ( #106 ) ) GLOBAL_UNIT_ASSIGNED_CONTEXT ( ( #194, #303, #37 ) ) REPRESENTATION_CONTEXT ( 'NONE', 'WORKASPACE' ) );
#150 = AXIS2_PLACEMENT_3D ( 'NONE', #263, #180, #151 ) ;
#151 = DIRECTION ( 'NONE',  ( 0.000000000000000000, 0.000000000000000000, -1.000000000000000000 ) ) ;
#152 = CIRCLE ( 'NONE', #202, 0.1874999999999999445 ) ;
#153 = ORIENTED_EDGE ( 'NONE', *, *, #236, .T. ) ;
#154 = COLOUR_RGB ( '',0.7921568627450980005, 0.8196078431372548767, 0.9333333333333333481 ) ;
#155 = LENGTH_MEASURE_WITH_UNIT ( LENGTH_MEASURE( 0.02539999999999999897 ), #186 );
#156 = SURFACE_SIDE_STYLE ('',( #122 ) ) ;
#157 = FACE_OUTER_BOUND ( 'NONE', #144, .T. ) ;
#158 = AXIS2_PLACEMENT_3D ( 'NONE', #44, #337, #313 ) ;
#159 =( NAMED_UNIT ( * ) SI_UNIT ( $, .STERADIAN. ) SOLID_ANGLE_UNIT ( ) );
#160 = ORIENTED_EDGE ( 'NONE', *, *, #206, .T. ) ;
#161 = DIRECTION ( 'NONE',  ( 0.000000000000000000, 0.000000000000000000, -1.000000000000000000 ) ) ;
#162 = VERTEX_POINT ( 'NONE', #85 ) ;
#163 = PRODUCT_RELATED_PRODUCT_CATEGORY ( 'part', '', ( #96 ) ) ;
#164 = SURFACE_STYLE_FILL_AREA ( #73 ) ;
#165 = LENGTH_MEASURE_WITH_UNIT ( LENGTH_MEASURE( 0.02539999999999999897 ), #145 );
#166 =( GEOMETRIC_REPRESENTATION_CONTEXT ( 3 ) GLOBAL_UNCERTAINTY_ASSIGNED_CONTEXT ( ( #334 ) ) GLOBAL_UNIT_ASSIGNED_CONTEXT ( ( #135, #140, #201 ) ) REPRESENTATION_CONTEXT ( 'NONE', 'WORKASPACE' ) );
#167 = ORIENTED_EDGE ( 'NONE', *, *, #33, .F. ) ;
#168 =( NAMED_UNIT ( * ) PLANE_ANGLE_UNIT ( ) SI_UNIT ( $, .RADIAN. ) );
#169 = DIMENSIONAL_EXPONENTS ( 1.000000000000000000, 0.000000000000000000, 0.000000000000000000, 0.000000000000000000, 0.000000000000000000, 0.000000000000000000, 0.000000000000000000 ) ;
#170 = ORIENTED_EDGE ( 'NONE', *, *, #33, .T. ) ;
#171 = DIRECTION ( 'NONE',  ( 0.000000000000000000, 0.000000000000000000, -1.000000000000000000 ) ) ;
#172 = CIRCLE ( 'NONE', #123, 0.1874999999999999722 ) ;
#173 = MECHANICAL_DESIGN_GEOMETRIC_PRESENTATION_REPRESENTATION (  '', ( #324 ), #99 ) ;
#174 = VERTEX_POINT ( 'NONE', #318 ) ;
#175 = DIRECTION ( 'NONE',  ( -1.224646799147353207E-16, 1.000000000000000000, 0.000000000000000000 ) ) ;
#176 = DIRECTION ( 'NONE',  ( -0.000000000000000000, -1.000000000000000000, -0.000000000000000000 ) ) ;
#177 = EDGE_CURVE ( 'NONE', #59, #162, #181, .T. ) ;
#178 = APPLICATION_CONTEXT ( 'automotive_design' ) ;
#179 = CARTESIAN_POINT ( 'NONE',  ( 0.000000000000000000, 1.000000000000000000, 0.000000000000000000 ) ) ;
#180 = DIRECTION ( 'NONE',  ( -0.000000000000000000, -1.000000000000000000, -0.000000000000000000 ) ) ;
#181 = CIRCLE ( 'NONE', #18, 0.1874999999999997780 ) ;
#182 = COLOUR_RGB ( '',1.000000000000000000, 0.000000000000000000, 0.000000000000000000 ) ;
#183 = EDGE_CURVE ( 'NONE', #12, #355, #31, .T. ) ;
#184 = DIRECTION ( 'NONE',  ( -0.000000000000000000, -1.000000000000000000, -0.000000000000000000 ) ) ;
#185 = PRODUCT_DEFINITION ( 'UNKNOWN', '', #56, #278 ) ;
#186 =( LENGTH_UNIT ( ) NAMED_UNIT ( * ) SI_UNIT ( $, .METRE. ) );
#187 = FACE_OUTER_BOUND ( 'NONE', #209, .T. ) ;
#188 = AXIS2_PLACEMENT_3D ( 'NONE', #262, #78, #110 ) ;
#189 = AXIS2_PLACEMENT_3D ( 'NONE', #5, #193, #38 ) ;
#190 = FILL_AREA_STYLE_COLOUR ( '', #227 ) ;
#191 = UNCERTAINTY_MEASURE_WITH_UNIT (LENGTH_MEASURE( 1.000000000000000082E-05 ), #58, 'distance_accuracy_value', 'NONE');
#192 = EDGE_LOOP ( 'NONE', ( #218, #147 ) ) ;
#193 = DIRECTION ( 'NONE',  ( -1.224646799147353207E-16, 1.000000000000000000, -0.000000000000000000 ) ) ;
#194 =( CONVERSION_BASED_UNIT ( 'INCH', #42 ) LENGTH_UNIT ( ) NAMED_UNIT ( #169 ) );
#195 = UNCERTAINTY_MEASURE_WITH_UNIT (LENGTH_MEASURE( 1.000000000000000082E-05 ), #29, 'distance_accuracy_value', 'NONE');
#196 = LINE ( 'NONE', #82, #118 ) ;
#197 = CARTESIAN_POINT ( 'NONE',  ( 0.000000000000000000, 0.1875000000000000833, -0.1874999999999999722 ) ) ;
#198 = DIRECTION ( 'NONE',  ( 1.224646799147353207E-16, -1.000000000000000000, 0.000000000000000000 ) ) ;
#199 = CARTESIAN_POINT ( 'NONE',  ( 0.1874999999999997780, 2.500000000000000000, 2.296212748401285260E-17 ) ) ;
#200 = ORIENTED_EDGE ( 'NONE', *, *, #101, .T. ) ;
#201 =( NAMED_UNIT ( * ) SI_UNIT ( $, .STERADIAN. ) SOLID_ANGLE_UNIT ( ) );
#202 = AXIS2_PLACEMENT_3D ( 'NONE', #49, #342, #232 ) ;
#203 = AXIS2_PLACEMENT_3D ( 'NONE', #205, #319, #119 ) ;
#204 = ORIENTED_EDGE ( 'NONE', *, *, #183, .T. ) ;
#205 = CARTESIAN_POINT ( 'NONE',  ( 0.000000000000000000, 0.000000000000000000, 0.000000000000000000 ) ) ;
#206 = EDGE_CURVE ( 'NONE', #284, #12, #233, .T. ) ;
#207 = PRESENTATION_LAYER_ASSIGNMENT (  '', '', ( #272 ) ) ;
#208 = DIMENSIONAL_EXPONENTS ( 1.000000000000000000, 0.000000000000000000, 0.000000000000000000, 0.000000000000000000, 0.000000000000000000, 0.000000000000000000, 0.000000000000000000 ) ;
#209 = EDGE_LOOP ( 'NONE', ( #108, #275, #160, #287 ) ) ;
#210 = ADVANCED_FACE ( 'NONE', ( #187 ), #358, .T. ) ;
#211 =( NAMED_UNIT ( * ) PLANE_ANGLE_UNIT ( ) SI_UNIT ( $, .RADIAN. ) );
#212 = MECHANICAL_DESIGN_GEOMETRIC_PRESENTATION_REPRESENTATION (  '', ( #114 ), #228 ) ;
#213 = ADVANCED_FACE ( 'NONE', ( #268 ), #216, .T. ) ;
#214 = DIRECTION ( 'NONE',  ( 0.000000000000000000, 0.000000000000000000, -1.000000000000000000 ) ) ;
#215 = DIRECTION ( 'NONE',  ( 0.000000000000000000, 0.000000000000000000, -1.000000000000000000 ) ) ;
#216 = CYLINDRICAL_SURFACE ( 'NONE', #189, 0.1874999999999998335 ) ;
#217 = DIRECTION ( 'NONE',  ( -0.000000000000000000, -1.000000000000000000, -0.000000000000000000 ) ) ;
#218 = ORIENTED_EDGE ( 'NONE', *, *, #361, .F. ) ;
#219 = PRESENTATION_LAYER_ASSIGNMENT (  '', '', ( #28 ) ) ;
#220 = DIRECTION ( 'NONE',  ( 0.000000000000000000, 0.000000000000000000, -1.000000000000000000 ) ) ;
#221 = ORIENTED_EDGE ( 'NONE', *, *, #252, .T. ) ;
#222 = ADVANCED_BREP_SHAPE_REPRESENTATION ( '49210', ( #286, #283, #125 ), #267 ) ;
#223 = CARTESIAN_POINT ( 'NONE',  ( 2.296212748401286185E-17, 0.000000000000000000, 0.1874999999999999167 ) ) ;
#224 = EDGE_LOOP ( 'NONE', ( #365, #359, #51, #204 ) ) ;
#225 = AXIS2_PLACEMENT_3D ( 'NONE', #231, #198, #345 ) ;
#226 = SURFACE_STYLE_FILL_AREA ( #83 ) ;
#227 = COLOUR_RGB ( '',1.000000000000000000, 0.000000000000000000, 0.000000000000000000 ) ;
#228 =( GEOMETRIC_REPRESENTATION_CONTEXT ( 3 ) GLOBAL_UNCERTAINTY_ASSIGNED_CONTEXT ( ( #191 ) ) GLOBAL_UNIT_ASSIGNED_CONTEXT ( ( #58, #211, #91 ) ) REPRESENTATION_CONTEXT ( 'NONE', 'WORKASPACE' ) );
#229 = DIRECTION ( 'NONE',  ( 0.000000000000000000, 0.000000000000000000, -1.000000000000000000 ) ) ;
#230 = FILL_AREA_STYLE ('',( #256 ) ) ;
#231 = CARTESIAN_POINT ( 'NONE',  ( 0.1874999999999998890, 2.500000000000000000, 0.000000000000000000 ) ) ;
#232 = DIRECTION ( 'NONE',  ( -1.000000000000000000, 0.000000000000000000, 0.000000000000000000 ) ) ;
#233 = CIRCLE ( 'NONE', #291, 0.1874999999999999722 ) ;
#234 = COLOUR_RGB ( '',1.000000000000000000, 0.000000000000000000, 0.000000000000000000 ) ;
#235 = LINE ( 'NONE', #80, #7 ) ;
#236 = EDGE_CURVE ( 'NONE', #282, #174, #141, .T. ) ;
#237 =( LENGTH_UNIT ( ) NAMED_UNIT ( * ) SI_UNIT ( $, .METRE. ) );
#238 = PRODUCT_DEFINITION_SHAPE ( 'NONE', 'NONE',  #185 ) ;
#239 =( NAMED_UNIT ( * ) PLANE_ANGLE_UNIT ( ) SI_UNIT ( $, .RADIAN. ) );
#240 = AXIS2_PLACEMENT_3D ( 'NONE', #274, #126, #100 ) ;
#241 =( NAMED_UNIT ( * ) SI_UNIT ( $, .STERADIAN. ) SOLID_ANGLE_UNIT ( ) );
#242 = ADVANCED_FACE ( 'NONE', ( #157 ), #249, .T. ) ;
#243 = SPHERICAL_SURFACE ( 'NONE', #349, 0.1875000000000000555 ) ;
#244 = EDGE_CURVE ( 'NONE', #84, #285, #24, .T. ) ;
#245 = DIRECTION ( 'NONE',  ( -1.000000000000000000, 0.000000000000000000, 0.000000000000000000 ) ) ;
#246 = AXIS2_PLACEMENT_3D ( 'NONE', #333, #68, #127 ) ;
#247 = DIRECTION ( 'NONE',  ( -1.224646799147353207E-16, 1.000000000000000000, -0.000000000000000000 ) ) ;
#248 = DIRECTION ( 'NONE',  ( -0.000000000000000000, -1.000000000000000000, -0.000000000000000000 ) ) ;
#249 = CYLINDRICAL_SURFACE ( 'NONE', #27, 0.1874999999999998335 ) ;
#250 = ORIENTED_EDGE ( 'NONE', *, *, #45, .F. ) ;
#251 = LINE ( 'NONE', #223, #70 ) ;
#252 = EDGE_CURVE ( 'NONE', #16, #355, #251, .T. ) ;
#253 = LINE ( 'NONE', #199, #363 ) ;
#254 = ORIENTED_EDGE ( 'NONE', *, *, #13, .T. ) ;
#255 = EDGE_CURVE ( 'NONE', #12, #285, #76, .T. ) ;
#256 = FILL_AREA_STYLE_COLOUR ( '', #154 ) ;
#257 = CARTESIAN_POINT ( 'NONE',  ( 0.000000000000000000, 0.1875000000000000833, 0.000000000000000000 ) ) ;
#258 = MECHANICAL_DESIGN_GEOMETRIC_PRESENTATION_REPRESENTATION (  '', ( #124 ), #166 ) ;
#259 =( NAMED_UNIT ( * ) SI_UNIT ( $, .STERADIAN. ) SOLID_ANGLE_UNIT ( ) );
#260 = ORIENTED_EDGE ( 'NONE', *, *, #206, .F. ) ;
#261 = DIRECTION ( 'NONE',  ( -1.224646799147353207E-16, 1.000000000000000000, -0.000000000000000000 ) ) ;
#262 = CARTESIAN_POINT ( 'NONE',  ( 1.224646799147353454E-16, 1.000000000000000000, 0.000000000000000000 ) ) ;
#263 = CARTESIAN_POINT ( 'NONE',  ( 0.000000000000000000, 0.000000000000000000, 0.000000000000000000 ) ) ;
#264 = CLOSED_SHELL ( 'NONE', ( #213, #321, #242, #146 ) ) ;
#265 =( NAMED_UNIT ( * ) SI_UNIT ( $, .STERADIAN. ) SOLID_ANGLE_UNIT ( ) );
#266 = STYLED_ITEM ( 'NONE', ( #66 ), #293 ) ;
#267 =( GEOMETRIC_REPRESENTATION_CONTEXT ( 3 ) GLOBAL_UNCERTAINTY_ASSIGNED_CONTEXT ( ( #129 ) ) GLOBAL_UNIT_ASSIGNED_CONTEXT ( ( #95, #352, #332 ) ) REPRESENTATION_CONTEXT ( 'NONE', 'WORKASPACE' ) );
#268 = FACE_OUTER_BOUND ( 'NONE', #130, .T. ) ;
#269 = FACE_OUTER_BOUND ( 'NONE', #192, .T. ) ;
#270 = DIRECTION ( 'NONE',  ( 0.000000000000000000, 0.000000000000000000, 1.000000000000000000 ) ) ;
#271 = FILL_AREA_STYLE_COLOUR ( '', #182 ) ;
#272 = STYLED_ITEM ( 'NONE', ( #47 ), #286 ) ;
#273 =( NAMED_UNIT ( * ) PLANE_ANGLE_UNIT ( ) SI_UNIT ( $, .RADIAN. ) );
#274 = CARTESIAN_POINT ( 'NONE',  ( -6.123233995736766036E-17, 2.500000000000000000, 0.000000000000000000 ) ) ;
#275 = ORIENTED_EDGE ( 'NONE', *, *, #50, .T. ) ;
#276 = SURFACE_SIDE_STYLE ('',( #6 ) ) ;
#277 = DIRECTION ( 'NONE',  ( -1.000000000000000000, 0.000000000000000000, 0.000000000000000000 ) ) ;
#278 = PRODUCT_DEFINITION_CONTEXT ( 'detailed design', #92, 'design' ) ;
#279 = SURFACE_SIDE_STYLE ('',( #164 ) ) ;
#280 = COLOUR_RGB ( '',1.000000000000000000, 0.000000000000000000, 0.000000000000000000 ) ;
#281 = DIRECTION ( 'NONE',  ( -1.224646799147353207E-16, 1.000000000000000000, -0.000000000000000000 ) ) ;
#282 = VERTEX_POINT ( 'NONE', #15 ) ;
#283 = MANIFOLD_SOLID_BREP ( 'Revolve - Tool Body (Straight Shanked)', #264 ) ;
#284 = VERTEX_POINT ( 'NONE', #197 ) ;
#285 = VERTEX_POINT ( 'NONE', #22 ) ;
#286 = MANIFOLD_SOLID_BREP ( 'Revolve - Cutting Edge', #354 ) ;
#287 = ORIENTED_EDGE ( 'NONE', *, *, #255, .T. ) ;
#288 =( CONVERSION_BASED_UNIT ( 'INCH', #366 ) LENGTH_UNIT ( ) NAMED_UNIT ( #105 ) );
#289 = VERTEX_POINT ( 'NONE', #128 ) ;
#290 = AXIS2_PLACEMENT_3D ( 'NONE', #320, #23, #339 ) ;
#291 = AXIS2_PLACEMENT_3D ( 'NONE', #330, #248, #220 ) ;
#292 = COLOUR_RGB ( '',1.000000000000000000, 0.000000000000000000, 0.000000000000000000 ) ;
#293 = ADVANCED_FACE ( 'NONE', ( #269 ), #137, .T. ) ;
#294 = EDGE_CURVE ( 'NONE', #162, #282, #253, .T. ) ;
#295 = CYLINDRICAL_SURFACE ( 'NONE', #150, 0.1874999999999999167 ) ;
#296 = EDGE_LOOP ( 'NONE', ( #72, #167 ) ) ;
#297 = AXIS2_PLACEMENT_3D ( 'NONE', #327, #60, #215 ) ;
#298 = FACE_OUTER_BOUND ( 'NONE', #369, .T. ) ;
#299 = MECHANICAL_DESIGN_GEOMETRIC_PRESENTATION_REPRESENTATION (  '', ( #266 ), #372 ) ;
#300 = CARTESIAN_POINT ( 'NONE',  ( -2.296212748401288034E-17, 0.1875000000000000555, 0.000000000000000000 ) ) ;
#301 = FILL_AREA_STYLE ('',( #86 ) ) ;
#302 = FILL_AREA_STYLE ('',( #190 ) ) ;
#303 =( NAMED_UNIT ( * ) PLANE_ANGLE_UNIT ( ) SI_UNIT ( $, .RADIAN. ) );
#304 = SURFACE_SIDE_STYLE ('',( #17 ) ) ;
#305 = CARTESIAN_POINT ( 'NONE',  ( -6.123233995736766036E-17, 2.500000000000000000, 0.000000000000000000 ) ) ;
#306 = DIRECTION ( 'NONE',  ( 1.000000000000000000, 0.000000000000000000, 0.000000000000000000 ) ) ;
#307 = UNCERTAINTY_MEASURE_WITH_UNIT (LENGTH_MEASURE( 1.000000000000000082E-05 ), #121, 'distance_accuracy_value', 'NONE');
#308 = ADVANCED_FACE ( 'NONE', ( #139 ), #111, .T. ) ;
#309 =( LENGTH_UNIT ( ) NAMED_UNIT ( * ) SI_UNIT ( $, .METRE. ) );
#310 = DIRECTION ( 'NONE',  ( -1.224646799147353207E-16, 1.000000000000000000, -0.000000000000000000 ) ) ;
#311 = AXIS2_PLACEMENT_3D ( 'NONE', #97, #74, #306 ) ;
#312 = PRESENTATION_LAYER_ASSIGNMENT (  '', '', ( #32 ) ) ;
#313 = DIRECTION ( 'NONE',  ( 0.000000000000000000, -0.000000000000000000, 1.000000000000000000 ) ) ;
#314 = CARTESIAN_POINT ( 'NONE',  ( 0.000000000000000000, 0.1875000000000000833, 0.000000000000000000 ) ) ;
#315 = SURFACE_SIDE_STYLE ('',( #103 ) ) ;
#316 = ORIENTED_EDGE ( 'NONE', *, *, #294, .T. ) ;
#317 = DIMENSIONAL_EXPONENTS ( 1.000000000000000000, 0.000000000000000000, 0.000000000000000000, 0.000000000000000000, 0.000000000000000000, 0.000000000000000000, 0.000000000000000000 ) ;
#318 = CARTESIAN_POINT ( 'NONE',  ( -0.1875000000000000278, 2.500000000000000000, 0.000000000000000000 ) ) ;
#319 = DIRECTION ( 'NONE',  ( -0.000000000000000000, -1.000000000000000000, -0.000000000000000000 ) ) ;
#320 = CARTESIAN_POINT ( 'NONE',  ( 0.000000000000000000, 1.000000000000000000, 0.000000000000000000 ) ) ;
#321 = ADVANCED_FACE ( 'NONE', ( #115 ), #52, .F. ) ;
#322 = SURFACE_SIDE_STYLE ('',( #347 ) ) ;
#323 = CARTESIAN_POINT ( 'NONE',  ( 1.224646799147353207E-16, 1.000000000000000000, 0.000000000000000000 ) ) ;
#324 = STYLED_ITEM ( 'NONE', ( #364 ), #308 ) ;
#325 = FILL_AREA_STYLE_COLOUR ( '', #292 ) ;
#326 = ORIENTED_EDGE ( 'NONE', *, *, #148, .T. ) ;
#327 = CARTESIAN_POINT ( 'NONE',  ( 0.000000000000000000, 0.1875000000000000833, 0.000000000000000000 ) ) ;
#328 = CIRCLE ( 'NONE', #69, 0.1874999999999999722 ) ;
#329 = PRESENTATION_LAYER_ASSIGNMENT (  '', '', ( #114 ) ) ;
#330 = CARTESIAN_POINT ( 'NONE',  ( 0.000000000000000000, 0.1875000000000000833, 0.000000000000000000 ) ) ;
#331 = ORIENTED_EDGE ( 'NONE', *, *, #252, .F. ) ;
#332 =( NAMED_UNIT ( * ) SI_UNIT ( $, .STERADIAN. ) SOLID_ANGLE_UNIT ( ) );
#333 = CARTESIAN_POINT ( 'NONE',  ( -2.296212748401288034E-17, 0.1875000000000000555, 0.000000000000000000 ) ) ;
#334 = UNCERTAINTY_MEASURE_WITH_UNIT (LENGTH_MEASURE( 1.000000000000000082E-05 ), #135, 'distance_accuracy_value', 'NONE');
#335 = ADVANCED_FACE ( 'NONE', ( #298 ), #295, .T. ) ;
#336 = SURFACE_STYLE_USAGE ( .BOTH. , #304 ) ;
#337 = DIRECTION ( 'NONE',  ( 0.000000000000000000, 1.000000000000000000, 0.000000000000000000 ) ) ;
#338 = SURFACE_STYLE_USAGE ( .BOTH. , #315 ) ;
#339 = DIRECTION ( 'NONE',  ( 0.000000000000000000, 0.000000000000000000, -1.000000000000000000 ) ) ;
#340 = PRESENTATION_LAYER_ASSIGNMENT (  '', '', ( #124 ) ) ;
#341 = LENGTH_MEASURE_WITH_UNIT ( LENGTH_MEASURE( 0.02539999999999999897 ), #134 );
#342 = DIRECTION ( 'NONE',  ( -1.224646799147353207E-16, 1.000000000000000000, -0.000000000000000000 ) ) ;
#343 = CARTESIAN_POINT ( 'NONE',  ( 1.224646799147353454E-16, 1.000000000000000000, 0.000000000000000000 ) ) ;
#344 = AXIS2_PLACEMENT_3D ( 'NONE', #39, #161, #277 ) ;
#345 = DIRECTION ( 'NONE',  ( 1.000000000000000000, 1.224646799147353207E-16, 0.000000000000000000 ) ) ;
#346 = DIRECTION ( 'NONE',  ( -1.000000000000000000, -1.224646799147353207E-16, 0.000000000000000000 ) ) ;
#347 = SURFACE_STYLE_FILL_AREA ( #350 ) ;
#348 =( GEOMETRIC_REPRESENTATION_CONTEXT ( 3 ) GLOBAL_UNCERTAINTY_ASSIGNED_CONTEXT ( ( #102 ) ) GLOBAL_UNIT_ASSIGNED_CONTEXT ( ( #288, #168, #259 ) ) REPRESENTATION_CONTEXT ( 'NONE', 'WORKASPACE' ) );
#349 = AXIS2_PLACEMENT_3D ( 'NONE', #300, #270, #61 ) ;
#350 = FILL_AREA_STYLE ('',( #325 ) ) ;
#351 =( NAMED_UNIT ( * ) PLANE_ANGLE_UNIT ( ) SI_UNIT ( $, .RADIAN. ) );
#352 =( NAMED_UNIT ( * ) PLANE_ANGLE_UNIT ( ) SI_UNIT ( $, .RADIAN. ) );
#353 = PRESENTATION_STYLE_ASSIGNMENT (( #35 ) ) ;
#354 = CLOSED_SHELL ( 'NONE', ( #357, #308, #293, #335, #210 ) ) ;
#355 = VERTEX_POINT ( 'NONE', #373 ) ;
#356 = ORIENTED_EDGE ( 'NONE', *, *, #101, .F. ) ;
#357 = ADVANCED_FACE ( 'NONE', ( #117 ), #243, .T. ) ;
#358 = SPHERICAL_SURFACE ( 'NONE', #311, 0.1875000000000000555 ) ;
#359 = ORIENTED_EDGE ( 'NONE', *, *, #244, .T. ) ;
#360 = FILL_AREA_STYLE_COLOUR ( '', #87 ) ;
#361 = EDGE_CURVE ( 'NONE', #289, #16, #10, .T. ) ;
#362 = CIRCLE ( 'NONE', #290, 0.1874999999999998890 ) ;
#363 = VECTOR ( 'NONE', #281, 39.37007874015748143 ) ;
#364 = PRESENTATION_STYLE_ASSIGNMENT (( #131 ) ) ;
#365 = ORIENTED_EDGE ( 'NONE', *, *, #75, .T. ) ;
#366 = LENGTH_MEASURE_WITH_UNIT ( LENGTH_MEASURE( 0.02539999999999999897 ), #53 );
#367 = DIRECTION ( 'NONE',  ( -0.000000000000000000, -1.000000000000000000, -0.000000000000000000 ) ) ;
#368 = PRESENTATION_LAYER_ASSIGNMENT (  '', '', ( #266 ) ) ;
#369 = EDGE_LOOP ( 'NONE', ( #331, #254, #90, #21, #41 ) ) ;
#370 = FACE_OUTER_BOUND ( 'NONE', #142, .T. ) ;
#371 = DIRECTION ( 'NONE',  ( -0.000000000000000000, -1.000000000000000000, -0.000000000000000000 ) ) ;
#372 =( GEOMETRIC_REPRESENTATION_CONTEXT ( 3 ) GLOBAL_UNCERTAINTY_ASSIGNED_CONTEXT ( ( #307 ) ) GLOBAL_UNIT_ASSIGNED_CONTEXT ( ( #121, #273, #159 ) ) REPRESENTATION_CONTEXT ( 'NONE', 'WORKASPACE' ) );
#373 = CARTESIAN_POINT ( 'NONE',  ( 2.296212748401287109E-17, 0.1875000000000000833, 0.1874999999999999722 ) ) ;
ENDSEC;
END-ISO-10303-21;
