ISO-10303-21;
HEADER;
FILE_DESCRIPTION (( 'STEP AP214' ),
    '1' );
FILE_NAME ('Micro_AEMM-250-4X.STEP',
    '2022-03-15T14:35:57',
    ( '' ),
    ( '' ),
    'SwSTEP 2.0',
    'SolidWorks 2022',
    '' );
FILE_SCHEMA (( 'AUTOMOTIVE_DESIGN' ));
ENDSEC;

DATA;
#1 = ORIENTED_EDGE ( 'NONE', *, *, #246, .T. ) ;
#2 = VERTEX_POINT ( 'NONE', #96 ) ;
#3 = AXIS2_PLACEMENT_3D ( 'NONE', #142, #229, #23 ) ;
#4 = CARTESIAN_POINT ( 'NONE',  ( 0.000000000000000000, 0.000000000000000000, 4.985000000000000320 ) ) ;
#5 = LINE ( 'NONE', #32, #52 ) ;
#6 = ADVANCED_FACE ( 'NONE', ( #269 ), #261, .T. ) ;
#7 = SURFACE_SIDE_STYLE ('',( #102 ) ) ;
#8 = CIRCLE ( 'NONE', #28, 0.4916338740000000262 ) ;
#9 = DIRECTION ( 'NONE',  ( 0.000000000000000000, 0.000000000000000000, 1.000000000000000000 ) ) ;
#10 =( NAMED_UNIT ( * ) PLANE_ANGLE_UNIT ( ) SI_UNIT ( $, .RADIAN. ) );
#11 =( NAMED_UNIT ( * ) SI_UNIT ( $, .STERADIAN. ) SOLID_ANGLE_UNIT ( ) );
#12 = AXIS2_PLACEMENT_3D ( 'NONE', #47, #164, #26 ) ;
#13 = APPLICATION_CONTEXT ( 'automotive_design' ) ;
#14 =( CONVERSION_BASED_UNIT ( 'INCH', #221 ) LENGTH_UNIT ( ) NAMED_UNIT ( #90 ) );
#15 = DIRECTION ( 'NONE',  ( -0.1736481776669311083, 2.126576849575782084E-17, 0.9848077530122080203 ) ) ;
#16 = EDGE_LOOP ( 'NONE', ( #179, #244, #230, #204 ) ) ;
#17 = DIRECTION ( 'NONE',  ( -0.000000000000000000, -0.000000000000000000, -1.000000000000000000 ) ) ;
#18 = ORIENTED_EDGE ( 'NONE', *, *, #128, .T. ) ;
#19 = AXIS2_PLACEMENT_3D ( 'NONE', #46, #146, #74 ) ;
#20 = ORIENTED_EDGE ( 'NONE', *, *, #182, .T. ) ;
#21 = EDGE_CURVE ( 'NONE', #95, #68, #70, .T. ) ;
#22 = FACE_OUTER_BOUND ( 'NONE', #16, .T. ) ;
#23 = DIRECTION ( 'NONE',  ( 1.000000000000000000, 0.000000000000000000, 0.000000000000000000 ) ) ;
#24 = ORIENTED_EDGE ( 'NONE', *, *, #62, .T. ) ;
#25 = COLOUR_RGB ( '',0.7921568627450980005, 0.8196078431372548767, 0.9333333333333333481 ) ;
#26 = DIRECTION ( 'NONE',  ( -1.000000000000000000, 0.000000000000000000, 0.000000000000000000 ) ) ;
#27 = ORIENTED_EDGE ( 'NONE', *, *, #21, .T. ) ;
#28 = AXIS2_PLACEMENT_3D ( 'NONE', #167, #254, #299 ) ;
#29 = DIRECTION ( 'NONE',  ( 1.000000000000000000, 0.000000000000000000, 0.000000000000000000 ) ) ;
#30 = ADVANCED_FACE ( 'NONE', ( #49 ), #282, .T. ) ;
#31 =( NAMED_UNIT ( * ) PLANE_ANGLE_UNIT ( ) SI_UNIT ( $, .RADIAN. ) );
#32 = CARTESIAN_POINT ( 'NONE',  ( 0.4916338740000000262, 6.020778501465132931E-17, -6.020778501465132931E-17 ) ) ;
#33 = ADVANCED_BREP_SHAPE_REPRESENTATION ( 'Micro_AEMM-250-4X', ( #148, #174 ), #115 ) ;
#34 = CIRCLE ( 'NONE', #156, 0.4921260000000000634 ) ;
#35 = CARTESIAN_POINT ( 'NONE',  ( 2.410722122708761257E-16, 0.000000000000000000, 1.968503999999999809 ) ) ;
#36 = PRODUCT_DEFINITION_CONTEXT ( 'detailed design', #13, 'design' ) ;
#37 = CARTESIAN_POINT ( 'NONE',  ( 0.000000000000000000, 0.000000000000000000, 5.000000000000000000 ) ) ;
#38 = ORIENTED_EDGE ( 'NONE', *, *, #246, .F. ) ;
#39 = EDGE_LOOP ( 'NONE', ( #61, #241, #20, #38 ) ) ;
#40 = CIRCLE ( 'NONE', #278, 0.4921260000000000634 ) ;
#41 = ORIENTED_EDGE ( 'NONE', *, *, #199, .F. ) ;
#42 = FACE_OUTER_BOUND ( 'NONE', #198, .T. ) ;
#43 = ORIENTED_EDGE ( 'NONE', *, *, #59, .T. ) ;
#44 = VECTOR ( 'NONE', #275, 39.37007874015748143 ) ;
#45 = EDGE_LOOP ( 'NONE', ( #224, #1, #117, #265 ) ) ;
#46 = CARTESIAN_POINT ( 'NONE',  ( 0.000000000000000000, 0.000000000000000000, 5.000000000000000000 ) ) ;
#47 = CARTESIAN_POINT ( 'NONE',  ( 0.000000000000000000, 0.000000000000000000, 5.000000000000000000 ) ) ;
#48 = LINE ( 'NONE', #253, #110 ) ;
#49 = FACE_OUTER_BOUND ( 'NONE', #39, .T. ) ;
#50 = DIRECTION ( 'NONE',  ( -1.224646799147353207E-16, -0.000000000000000000, -1.000000000000000000 ) ) ;
#51 = DIRECTION ( 'NONE',  ( -1.000000000000000000, 0.000000000000000000, 1.224646799147353454E-16 ) ) ;
#52 = VECTOR ( 'NONE', #152, 39.37007874015748143 ) ;
#53 = CARTESIAN_POINT ( 'NONE',  ( 7.373327120194471968E-33, 0.000000000000000000, 6.020778501465132931E-17 ) ) ;
#54 = CARTESIAN_POINT ( 'NONE',  ( 0.000000000000000000, 0.000000000000000000, 0.000000000000000000 ) ) ;
#55 = AXIS2_PLACEMENT_3D ( 'NONE', #157, #200, #219 ) ;
#56 = CARTESIAN_POINT ( 'NONE',  ( -0.4916338739999996932, 6.020778501465131698E-17, 1.968503999999999809 ) ) ;
#57 = PRODUCT_DEFINITION_SHAPE ( 'NONE', 'NONE',  #252 ) ;
#58 = EDGE_LOOP ( 'NONE', ( #125, #201, #292, #133 ) ) ;
#59 = EDGE_CURVE ( 'NONE', #95, #160, #232, .T. ) ;
#60 =( LENGTH_UNIT ( ) NAMED_UNIT ( * ) SI_UNIT ( $, .METRE. ) );
#61 = ORIENTED_EDGE ( 'NONE', *, *, #21, .F. ) ;
#62 = EDGE_CURVE ( 'NONE', #68, #69, #169, .T. ) ;
#63 = EDGE_LOOP ( 'NONE', ( #213, #183, #18, #41 ) ) ;
#64 = AXIS2_PLACEMENT_3D ( 'NONE', #240, #111, #203 ) ;
#65 = CIRCLE ( 'NONE', #64, 0.4916338739999999707 ) ;
#66 =( GEOMETRIC_REPRESENTATION_CONTEXT ( 3 ) GLOBAL_UNCERTAINTY_ASSIGNED_CONTEXT ( ( #67 ) ) GLOBAL_UNIT_ASSIGNED_CONTEXT ( ( #14, #176, #135 ) ) REPRESENTATION_CONTEXT ( 'NONE', 'WORKASPACE' ) );
#67 = UNCERTAINTY_MEASURE_WITH_UNIT (LENGTH_MEASURE( 1.000000000000000082E-05 ), #14, 'distance_accuracy_value', 'NONE');
#68 = VERTEX_POINT ( 'NONE', #140 ) ;
#69 = VERTEX_POINT ( 'NONE', #228 ) ;
#70 = LINE ( 'NONE', #276, #44 ) ;
#71 = DIRECTION ( 'NONE',  ( -1.000000000000000000, 0.000000000000000000, 1.224646799147353454E-16 ) ) ;
#72 = CARTESIAN_POINT ( 'NONE',  ( 0.000000000000000000, 0.000000000000000000, 5.000000000000000000 ) ) ;
#73 = CIRCLE ( 'NONE', #231, 0.4921260000000000634 ) ;
#74 = DIRECTION ( 'NONE',  ( 1.000000000000000000, 0.000000000000000000, 0.000000000000000000 ) ) ;
#75 = PRODUCT ( 'Micro_AEMM-250-4X', 'Micro_AEMM-250-4X', '', ( #91 ) ) ;
#76 = DIRECTION ( 'NONE',  ( -0.7071067811865459074, 0.000000000000000000, -0.7071067811865491270 ) ) ;
#77 = ADVANCED_FACE ( 'NONE', ( #271 ), #251, .T. ) ;
#78 = DIRECTION ( 'NONE',  ( -1.000000000000000000, 0.000000000000000000, 0.000000000000000000 ) ) ;
#79 = CARTESIAN_POINT ( 'NONE',  ( 0.000000000000000000, 0.000000000000000000, 0.000000000000000000 ) ) ;
#80 = VECTOR ( 'NONE', #76, 39.37007874015748143 ) ;
#81 =( CONVERSION_BASED_UNIT ( 'INCH', #103 ) LENGTH_UNIT ( ) NAMED_UNIT ( #97 ) );
#82 = PLANE ( 'NONE',  #287 ) ;
#83 = PRESENTATION_STYLE_ASSIGNMENT (( #263 ) ) ;
#84 = AXIS2_PLACEMENT_3D ( 'NONE', #274, #168, #71 ) ;
#85 = FILL_AREA_STYLE_COLOUR ( '', #105 ) ;
#86 = ADVANCED_FACE ( 'NONE', ( #22 ), #208, .T. ) ;
#87 = CARTESIAN_POINT ( 'NONE',  ( 0.4916338740000000262, 6.020778501465132931E-17, 0.000000000000000000 ) ) ;
#88 = ORIENTED_EDGE ( 'NONE', *, *, #223, .F. ) ;
#89 = CIRCLE ( 'NONE', #210, 0.4916338739999999707 ) ;
#90 = DIMENSIONAL_EXPONENTS ( 1.000000000000000000, 0.000000000000000000, 0.000000000000000000, 0.000000000000000000, 0.000000000000000000, 0.000000000000000000, 0.000000000000000000 ) ;
#91 = PRODUCT_CONTEXT ( 'NONE', #212, 'mechanical' ) ;
#92 = ORIENTED_EDGE ( 'NONE', *, *, #132, .F. ) ;
#93 = ADVANCED_FACE ( 'NONE', ( #118 ), #294, .T. ) ;
#94 = DIRECTION ( 'NONE',  ( -1.224646799147353207E-16, -0.000000000000000000, -1.000000000000000000 ) ) ;
#95 = VERTEX_POINT ( 'NONE', #119 ) ;
#96 = CARTESIAN_POINT ( 'NONE',  ( -0.4916338740000000262, 0.000000000000000000, 1.204155700293026586E-16 ) ) ;
#97 = DIMENSIONAL_EXPONENTS ( 1.000000000000000000, 0.000000000000000000, 0.000000000000000000, 0.000000000000000000, 0.000000000000000000, 0.000000000000000000, 0.000000000000000000 ) ;
#98 = MECHANICAL_DESIGN_GEOMETRIC_PRESENTATION_REPRESENTATION (  '', ( #272 ), #134 ) ;
#99 =( NAMED_UNIT ( * ) SI_UNIT ( $, .STERADIAN. ) SOLID_ANGLE_UNIT ( ) );
#100 = EDGE_CURVE ( 'NONE', #123, #2, #209, .T. ) ;
#101 = DIRECTION ( 'NONE',  ( -1.224646799147353207E-16, -0.000000000000000000, -1.000000000000000000 ) ) ;
#102 = SURFACE_STYLE_FILL_AREA ( #173 ) ;
#103 = LENGTH_MEASURE_WITH_UNIT ( LENGTH_MEASURE( 0.02539999999999999897 ), #259 );
#104 = AXIS2_PLACEMENT_3D ( 'NONE', #37, #17, #162 ) ;
#105 = COLOUR_RGB ( '',0.7921568627450980005, 0.8196078431372548767, 0.9333333333333333481 ) ;
#106 = DIRECTION ( 'NONE',  ( 0.000000000000000000, 0.000000000000000000, 1.000000000000000000 ) ) ;
#107 =( CONVERSION_BASED_UNIT ( 'INCH', #205 ) LENGTH_UNIT ( ) NAMED_UNIT ( #297 ) );
#108 = ORIENTED_EDGE ( 'NONE', *, *, #59, .F. ) ;
#109 = EDGE_CURVE ( 'NONE', #2, #248, #8, .T. ) ;
#110 = VECTOR ( 'NONE', #145, 39.37007874015748143 ) ;
#111 = DIRECTION ( 'NONE',  ( -1.224646799147353207E-16, -0.000000000000000000, -1.000000000000000000 ) ) ;
#112 = UNCERTAINTY_MEASURE_WITH_UNIT (LENGTH_MEASURE( 1.000000000000000082E-05 ), #81, 'distance_accuracy_value', 'NONE');
#113 = DIRECTION ( 'NONE',  ( 1.000000000000000000, 0.000000000000000000, 0.000000000000000000 ) ) ;
#114 = ORIENTED_EDGE ( 'NONE', *, *, #172, .T. ) ;
#115 =( GEOMETRIC_REPRESENTATION_CONTEXT ( 3 ) GLOBAL_UNCERTAINTY_ASSIGNED_CONTEXT ( ( #293 ) ) GLOBAL_UNIT_ASSIGNED_CONTEXT ( ( #107, #10, #11 ) ) REPRESENTATION_CONTEXT ( 'NONE', 'WORKASPACE' ) );
#116 = APPLICATION_PROTOCOL_DEFINITION ( 'draft international standard', 'automotive_design', 1998, #13 ) ;
#117 = ORIENTED_EDGE ( 'NONE', *, *, #120, .T. ) ;
#118 = FACE_OUTER_BOUND ( 'NONE', #158, .T. ) ;
#119 = CARTESIAN_POINT ( 'NONE',  ( 0.4771260000000004387, 5.934956796835854937E-17, 5.000000000000000000 ) ) ;
#120 = EDGE_CURVE ( 'NONE', #264, #220, #48, .T. ) ;
#121 = AXIS2_PLACEMENT_3D ( 'NONE', #239, #150, #129 ) ;
#122 = CARTESIAN_POINT ( 'NONE',  ( 0.000000000000000000, 0.000000000000000000, 0.000000000000000000 ) ) ;
#123 = VERTEX_POINT ( 'NONE', #233 ) ;
#124 = ORIENTED_EDGE ( 'NONE', *, *, #199, .T. ) ;
#125 = ORIENTED_EDGE ( 'NONE', *, *, #195, .F. ) ;
#126 = VECTOR ( 'NONE', #249, 39.37007874015748143 ) ;
#127 = DIRECTION ( 'NONE',  ( -1.000000000000000000, 0.000000000000000000, 1.224646799147353454E-16 ) ) ;
#128 = EDGE_CURVE ( 'NONE', #220, #69, #161, .T. ) ;
#129 = DIRECTION ( 'NONE',  ( 1.000000000000000000, 0.000000000000000000, 0.000000000000000000 ) ) ;
#130 = VECTOR ( 'NONE', #218, 39.37007874015748143 ) ;
#131 = LINE ( 'NONE', #189, #130 ) ;
#132 = EDGE_CURVE ( 'NONE', #222, #123, #89, .T. ) ;
#133 = ORIENTED_EDGE ( 'NONE', *, *, #165, .F. ) ;
#134 =( GEOMETRIC_REPRESENTATION_CONTEXT ( 3 ) GLOBAL_UNCERTAINTY_ASSIGNED_CONTEXT ( ( #112 ) ) GLOBAL_UNIT_ASSIGNED_CONTEXT ( ( #81, #31, #99 ) ) REPRESENTATION_CONTEXT ( 'NONE', 'WORKASPACE' ) );
#135 =( NAMED_UNIT ( * ) SI_UNIT ( $, .STERADIAN. ) SOLID_ANGLE_UNIT ( ) );
#136 = EDGE_LOOP ( 'NONE', ( #289, #181 ) ) ;
#137 = APPLICATION_PROTOCOL_DEFINITION ( 'draft international standard', 'automotive_design', 1998, #212 ) ;
#138 = CYLINDRICAL_SURFACE ( 'NONE', #104, 0.4921260000000000634 ) ;
#139 = CIRCLE ( 'NONE', #197, 0.4916338740000000262 ) ;
#140 = CARTESIAN_POINT ( 'NONE',  ( 0.4921260000000000634, 6.026805306771904375E-17, 4.985000000000000320 ) ) ;
#141 = ADVANCED_FACE ( 'NONE', ( #193 ), #147, .T. ) ;
#142 = CARTESIAN_POINT ( 'NONE',  ( 2.410722122708761257E-16, 0.000000000000000000, 1.968503999999999809 ) ) ;
#143 = ORIENTED_EDGE ( 'NONE', *, *, #202, .T. ) ;
#144 = AXIS2_PLACEMENT_3D ( 'NONE', #191, #9, #194 ) ;
#145 = DIRECTION ( 'NONE',  ( -0.000000000000000000, -0.000000000000000000, -1.000000000000000000 ) ) ;
#146 = DIRECTION ( 'NONE',  ( 0.000000000000000000, 0.000000000000000000, 1.000000000000000000 ) ) ;
#147 = CYLINDRICAL_SURFACE ( 'NONE', #206, 0.4916338740000000262 ) ;
#148 = MANIFOLD_SOLID_BREP ( 'Cut-Revolve1', #227 ) ;
#149 = CONICAL_SURFACE ( 'NONE', #237, 0.4916338739999999707, 0.1745329251994338082 ) ;
#150 = DIRECTION ( 'NONE',  ( -1.224646799147353207E-16, -0.000000000000000000, -1.000000000000000000 ) ) ;
#151 = ADVANCED_FACE ( 'NONE', ( #260 ), #82, .F. ) ;
#152 = DIRECTION ( 'NONE',  ( -1.224646799147353207E-16, -0.000000000000000000, -1.000000000000000000 ) ) ;
#153 = ADVANCED_FACE ( 'NONE', ( #281 ), #149, .T. ) ;
#154 = DIRECTION ( 'NONE',  ( 1.000000000000000000, 0.000000000000000000, 0.000000000000000000 ) ) ;
#155 = CARTESIAN_POINT ( 'NONE',  ( -0.4771260000000004387, 0.000000000000000000, 5.000000000000000000 ) ) ;
#156 = AXIS2_PLACEMENT_3D ( 'NONE', #288, #291, #247 ) ;
#157 = CARTESIAN_POINT ( 'NONE',  ( 0.000000000000000000, 0.000000000000000000, 5.000000000000000000 ) ) ;
#158 = EDGE_LOOP ( 'NONE', ( #88, #92, #124, #177 ) ) ;
#159 = CARTESIAN_POINT ( 'NONE',  ( -0.4921260000000000634, 0.000000000000000000, 4.985000000000000320 ) ) ;
#160 = VERTEX_POINT ( 'NONE', #258 ) ;
#161 = CIRCLE ( 'NONE', #121, 0.4921260000000000634 ) ;
#162 = DIRECTION ( 'NONE',  ( -1.000000000000000000, 0.000000000000000000, 0.000000000000000000 ) ) ;
#163 = SHAPE_DEFINITION_REPRESENTATION ( #57, #33 ) ;
#164 = DIRECTION ( 'NONE',  ( 0.000000000000000000, 0.000000000000000000, -1.000000000000000000 ) ) ;
#165 = EDGE_CURVE ( 'NONE', #248, #2, #139, .T. ) ;
#166 = DIRECTION ( 'NONE',  ( 0.000000000000000000, 0.000000000000000000, -1.000000000000000000 ) ) ;
#167 = CARTESIAN_POINT ( 'NONE',  ( 7.373327120194471968E-33, 0.000000000000000000, 6.020778501465132931E-17 ) ) ;
#168 = DIRECTION ( 'NONE',  ( -1.224646799147353207E-16, -0.000000000000000000, -1.000000000000000000 ) ) ;
#169 = LINE ( 'NONE', #186, #126 ) ;
#170 = CARTESIAN_POINT ( 'NONE',  ( 0.4916338740000002483, 0.000000000000000000, 1.968503999999999809 ) ) ;
#171 = DIRECTION ( 'NONE',  ( -1.224646799147353207E-16, -0.000000000000000000, -1.000000000000000000 ) ) ;
#172 = EDGE_CURVE ( 'NONE', #264, #68, #40, .T. ) ;
#173 = FILL_AREA_STYLE ('',( #216 ) ) ;
#174 = AXIS2_PLACEMENT_3D ( 'NONE', #122, #255, #270 ) ;
#175 = FILL_AREA_STYLE ('',( #85 ) ) ;
#176 =( NAMED_UNIT ( * ) PLANE_ANGLE_UNIT ( ) SI_UNIT ( $, .RADIAN. ) );
#177 = ORIENTED_EDGE ( 'NONE', *, *, #277, .T. ) ;
#178 = DIRECTION ( 'NONE',  ( -1.224646799147353207E-16, -0.000000000000000000, -1.000000000000000000 ) ) ;
#179 = ORIENTED_EDGE ( 'NONE', *, *, #243, .T. ) ;
#180 = CYLINDRICAL_SURFACE ( 'NONE', #55, 0.4921260000000000634 ) ;
#181 = ORIENTED_EDGE ( 'NONE', *, *, #165, .T. ) ;
#182 = EDGE_CURVE ( 'NONE', #160, #264, #235, .T. ) ;
#183 = ORIENTED_EDGE ( 'NONE', *, *, #223, .T. ) ;
#184 = PRESENTATION_LAYER_ASSIGNMENT (  '', '', ( #272 ) ) ;
#185 = DIRECTION ( 'NONE',  ( -1.000000000000000000, 0.000000000000000000, 0.000000000000000000 ) ) ;
#186 = CARTESIAN_POINT ( 'NONE',  ( 0.4921260000000000634, 6.026805306771904375E-17, 5.000000000000000000 ) ) ;
#187 = ORIENTED_EDGE ( 'NONE', *, *, #182, .F. ) ;
#188 = AXIS2_PLACEMENT_3D ( 'NONE', #72, #211, #256 ) ;
#189 = CARTESIAN_POINT ( 'NONE',  ( 0.4916338740000002483, 0.000000000000000000, 1.968503999999999809 ) ) ;
#190 = SURFACE_STYLE_USAGE ( .BOTH. , #7 ) ;
#191 = CARTESIAN_POINT ( 'NONE',  ( 0.000000000000000000, 0.000000000000000000, 5.000000000000000000 ) ) ;
#192 = VECTOR ( 'NONE', #15, 39.37007874015747433 ) ;
#193 = FACE_OUTER_BOUND ( 'NONE', #58, .T. ) ;
#194 = DIRECTION ( 'NONE',  ( 1.000000000000000000, 0.000000000000000000, 0.000000000000000000 ) ) ;
#195 = EDGE_CURVE ( 'NONE', #222, #248, #5, .T. ) ;
#196 = CARTESIAN_POINT ( 'NONE',  ( 2.414140093845428801E-16, 0.000000000000000000, 1.971294985236761610 ) ) ;
#197 = AXIS2_PLACEMENT_3D ( 'NONE', #53, #171, #51 ) ;
#198 = EDGE_LOOP ( 'NONE', ( #114, #24, #207, #234 ) ) ;
#199 = EDGE_CURVE ( 'NONE', #222, #69, #131, .T. ) ;
#200 = DIRECTION ( 'NONE',  ( -0.000000000000000000, -0.000000000000000000, -1.000000000000000000 ) ) ;
#201 = ORIENTED_EDGE ( 'NONE', *, *, #132, .T. ) ;
#202 = EDGE_CURVE ( 'NONE', #160, #95, #245, .T. ) ;
#203 = DIRECTION ( 'NONE',  ( -1.000000000000000000, 0.000000000000000000, 0.000000000000000000 ) ) ;
#204 = ORIENTED_EDGE ( 'NONE', *, *, #100, .F. ) ;
#205 = LENGTH_MEASURE_WITH_UNIT ( LENGTH_MEASURE( 0.02539999999999999897 ), #60 );
#206 = AXIS2_PLACEMENT_3D ( 'NONE', #79, #50, #127 ) ;
#207 = ORIENTED_EDGE ( 'NONE', *, *, #128, .F. ) ;
#208 = CYLINDRICAL_SURFACE ( 'NONE', #84, 0.4916338740000000262 ) ;
#209 = LINE ( 'NONE', #298, #250 ) ;
#210 = AXIS2_PLACEMENT_3D ( 'NONE', #35, #101, #78 ) ;
#211 = DIRECTION ( 'NONE',  ( 0.000000000000000000, 0.000000000000000000, 1.000000000000000000 ) ) ;
#212 = APPLICATION_CONTEXT ( 'automotive_design' ) ;
#213 = ORIENTED_EDGE ( 'NONE', *, *, #243, .F. ) ;
#214 = EDGE_LOOP ( 'NONE', ( #143, #43 ) ) ;
#215 = DIRECTION ( 'NONE',  ( 1.000000000000000000, 0.000000000000000000, -0.000000000000000000 ) ) ;
#216 = FILL_AREA_STYLE_COLOUR ( '', #25 ) ;
#217 = AXIS2_PLACEMENT_3D ( 'NONE', #296, #166, #185 ) ;
#218 = DIRECTION ( 'NONE',  ( 0.1736481776669313026, 0.000000000000000000, 0.9848077530122077983 ) ) ;
#219 = DIRECTION ( 'NONE',  ( -1.000000000000000000, 0.000000000000000000, 0.000000000000000000 ) ) ;
#220 = VERTEX_POINT ( 'NONE', #284 ) ;
#221 = LENGTH_MEASURE_WITH_UNIT ( LENGTH_MEASURE( 0.02539999999999999897 ), #242 );
#222 = VERTEX_POINT ( 'NONE', #170 ) ;
#223 = EDGE_CURVE ( 'NONE', #123, #220, #257, .T. ) ;
#224 = ORIENTED_EDGE ( 'NONE', *, *, #62, .F. ) ;
#225 = SURFACE_SIDE_STYLE ('',( #285 ) ) ;
#226 = ORIENTED_EDGE ( 'NONE', *, *, #172, .F. ) ;
#227 = CLOSED_SHELL ( 'NONE', ( #86, #153, #6, #262, #273, #77, #30, #93, #141, #151 ) ) ;
#228 = CARTESIAN_POINT ( 'NONE',  ( 0.4921260000000002299, 6.026805306771906840E-17, 1.971294985236761610 ) ) ;
#229 = DIRECTION ( 'NONE',  ( 1.224646799147353207E-16, 0.000000000000000000, 1.000000000000000000 ) ) ;
#230 = ORIENTED_EDGE ( 'NONE', *, *, #109, .F. ) ;
#231 = AXIS2_PLACEMENT_3D ( 'NONE', #196, #178, #113 ) ;
#232 = CIRCLE ( 'NONE', #19, 0.4771260000000004387 ) ;
#233 = CARTESIAN_POINT ( 'NONE',  ( -0.4916338739999996932, 6.023791904118517420E-17, 1.968503999999999809 ) ) ;
#234 = ORIENTED_EDGE ( 'NONE', *, *, #120, .F. ) ;
#235 = LINE ( 'NONE', #155, #80 ) ;
#236 = DIRECTION ( 'NONE',  ( 0.000000000000000000, 0.000000000000000000, -1.000000000000000000 ) ) ;
#237 = AXIS2_PLACEMENT_3D ( 'NONE', #280, #279, #154 ) ;
#238 = PRESENTATION_LAYER_ASSIGNMENT (  '', '', ( #268 ) ) ;
#239 = CARTESIAN_POINT ( 'NONE',  ( 2.414140093845428801E-16, 0.000000000000000000, 1.971294985236761610 ) ) ;
#240 = CARTESIAN_POINT ( 'NONE',  ( 2.410722122708761257E-16, 0.000000000000000000, 1.968503999999999809 ) ) ;
#241 = ORIENTED_EDGE ( 'NONE', *, *, #202, .F. ) ;
#242 =( LENGTH_UNIT ( ) NAMED_UNIT ( * ) SI_UNIT ( $, .METRE. ) );
#243 = EDGE_CURVE ( 'NONE', #123, #222, #65, .T. ) ;
#244 = ORIENTED_EDGE ( 'NONE', *, *, #195, .T. ) ;
#245 = CIRCLE ( 'NONE', #144, 0.4771260000000004387 ) ;
#246 = EDGE_CURVE ( 'NONE', #68, #264, #34, .T. ) ;
#247 = DIRECTION ( 'NONE',  ( 1.000000000000000000, 0.000000000000000000, 0.000000000000000000 ) ) ;
#248 = VERTEX_POINT ( 'NONE', #87 ) ;
#249 = DIRECTION ( 'NONE',  ( -0.000000000000000000, -0.000000000000000000, -1.000000000000000000 ) ) ;
#250 = VECTOR ( 'NONE', #94, 39.37007874015748143 ) ;
#251 = PLANE ( 'NONE',  #188 ) ;
#252 = PRODUCT_DEFINITION ( 'UNKNOWN', '', #295, #36 ) ;
#253 = CARTESIAN_POINT ( 'NONE',  ( -0.4921260000000000634, 0.000000000000000000, 5.000000000000000000 ) ) ;
#254 = DIRECTION ( 'NONE',  ( -1.224646799147353207E-16, -0.000000000000000000, -1.000000000000000000 ) ) ;
#255 = DIRECTION ( 'NONE',  ( 0.000000000000000000, 0.000000000000000000, 1.000000000000000000 ) ) ;
#256 = DIRECTION ( 'NONE',  ( 1.000000000000000000, 0.000000000000000000, -0.000000000000000000 ) ) ;
#257 = LINE ( 'NONE', #56, #192 ) ;
#258 = CARTESIAN_POINT ( 'NONE',  ( -0.4771260000000004387, 0.000000000000000000, 5.000000000000000000 ) ) ;
#259 =( LENGTH_UNIT ( ) NAMED_UNIT ( * ) SI_UNIT ( $, .METRE. ) );
#260 = FACE_OUTER_BOUND ( 'NONE', #136, .T. ) ;
#261 = CONICAL_SURFACE ( 'NONE', #12, 0.4771260000000004387, 0.7853981633974460586 ) ;
#262 = ADVANCED_FACE ( 'NONE', ( #42 ), #180, .T. ) ;
#263 = SURFACE_STYLE_USAGE ( .BOTH. , #225 ) ;
#264 = VERTEX_POINT ( 'NONE', #159 ) ;
#265 = ORIENTED_EDGE ( 'NONE', *, *, #277, .F. ) ;
#266 = FACE_OUTER_BOUND ( 'NONE', #45, .T. ) ;
#267 = MECHANICAL_DESIGN_GEOMETRIC_PRESENTATION_REPRESENTATION (  '', ( #268 ), #66 ) ;
#268 = STYLED_ITEM ( 'NONE', ( #83 ), #33 ) ;
#269 = FACE_OUTER_BOUND ( 'NONE', #290, .T. ) ;
#270 = DIRECTION ( 'NONE',  ( 1.000000000000000000, 0.000000000000000000, 0.000000000000000000 ) ) ;
#271 = FACE_OUTER_BOUND ( 'NONE', #214, .T. ) ;
#272 = STYLED_ITEM ( 'NONE', ( #283 ), #148 ) ;
#273 = ADVANCED_FACE ( 'NONE', ( #266 ), #138, .T. ) ;
#274 = CARTESIAN_POINT ( 'NONE',  ( 0.000000000000000000, 0.000000000000000000, 0.000000000000000000 ) ) ;
#275 = DIRECTION ( 'NONE',  ( 0.7071067811865459074, 8.659560562354913137E-17, -0.7071067811865491270 ) ) ;
#276 = CARTESIAN_POINT ( 'NONE',  ( 0.4771260000000004387, 5.843108286899805499E-17, 5.000000000000000000 ) ) ;
#277 = EDGE_CURVE ( 'NONE', #69, #220, #73, .T. ) ;
#278 = AXIS2_PLACEMENT_3D ( 'NONE', #4, #236, #29 ) ;
#279 = DIRECTION ( 'NONE',  ( 1.224646799147353207E-16, 0.000000000000000000, 1.000000000000000000 ) ) ;
#280 = CARTESIAN_POINT ( 'NONE',  ( 2.410722122708761257E-16, 0.000000000000000000, 1.968503999999999809 ) ) ;
#281 = FACE_OUTER_BOUND ( 'NONE', #63, .T. ) ;
#282 = CONICAL_SURFACE ( 'NONE', #217, 0.4771260000000004387, 0.7853981633974460586 ) ;
#283 = PRESENTATION_STYLE_ASSIGNMENT (( #190 ) ) ;
#284 = CARTESIAN_POINT ( 'NONE',  ( -0.4921259999999997858, 0.000000000000000000, 1.971294985236761610 ) ) ;
#285 = SURFACE_STYLE_FILL_AREA ( #175 ) ;
#286 = PRODUCT_RELATED_PRODUCT_CATEGORY ( 'part', '', ( #75 ) ) ;
#287 = AXIS2_PLACEMENT_3D ( 'NONE', #54, #106, #215 ) ;
#288 = CARTESIAN_POINT ( 'NONE',  ( 0.000000000000000000, 0.000000000000000000, 4.985000000000000320 ) ) ;
#289 = ORIENTED_EDGE ( 'NONE', *, *, #109, .T. ) ;
#290 = EDGE_LOOP ( 'NONE', ( #108, #27, #226, #187 ) ) ;
#291 = DIRECTION ( 'NONE',  ( 0.000000000000000000, 0.000000000000000000, -1.000000000000000000 ) ) ;
#292 = ORIENTED_EDGE ( 'NONE', *, *, #100, .T. ) ;
#293 = UNCERTAINTY_MEASURE_WITH_UNIT (LENGTH_MEASURE( 1.000000000000000082E-05 ), #107, 'distance_accuracy_value', 'NONE');
#294 = CONICAL_SURFACE ( 'NONE', #3, 0.4916338739999999707, 0.1745329251994338082 ) ;
#295 = PRODUCT_DEFINITION_FORMATION_WITH_SPECIFIED_SOURCE ( 'ANY', '', #75, .NOT_KNOWN. ) ;
#296 = CARTESIAN_POINT ( 'NONE',  ( 0.000000000000000000, 0.000000000000000000, 5.000000000000000000 ) ) ;
#297 = DIMENSIONAL_EXPONENTS ( 1.000000000000000000, 0.000000000000000000, 0.000000000000000000, 0.000000000000000000, 0.000000000000000000, 0.000000000000000000, 0.000000000000000000 ) ;
#298 = CARTESIAN_POINT ( 'NONE',  ( -0.4916338740000000262, 0.000000000000000000, 6.020778501465132931E-17 ) ) ;
#299 = DIRECTION ( 'NONE',  ( -1.000000000000000000, 0.000000000000000000, 1.224646799147353454E-16 ) ) ;
ENDSEC;
END-ISO-10303-21;
