ISO-10303-21;
HEADER;
FILE_DESCRIPTION (( 'STEP AP214' ),
    '1' );
FILE_NAME ('Micro_SHL-625-4X.STEP',
    '2021-09-02T08:05:23',
    ( '' ),
    ( '' ),
    'SwSTEP 2.0',
    'SolidWorks 2020',
    '' );
FILE_SCHEMA (( 'AUTOMOTIVE_DESIGN' ));
ENDSEC;

DATA;
#1 = PRESENTATION_LAYER_ASSIGNMENT (  '', '', ( #284 ) ) ;
#2 = PRESENTATION_LAYER_ASSIGNMENT (  '', '', ( #160 ) ) ;
#3 = LINE ( 'NONE', #237, #291 ) ;
#4 = EDGE_LOOP ( 'NONE', ( #283, #207 ) ) ;
#5 = CARTESIAN_POINT ( 'NONE',  ( -0.3121874999999997846, 3.825107736711811461E-17, 2.500000000000000000 ) ) ;
#6 = AXIS2_PLACEMENT_3D ( 'NONE', #42, #69, #27 ) ;
#7 = VECTOR ( 'NONE', #163, 39.37007874015747433 ) ;
#8 = CARTESIAN_POINT ( 'NONE',  ( 0.0000000000000000000, 0.0000000000000000000, 5.000000000000000000 ) ) ;
#9 = ORIENTED_EDGE ( 'NONE', *, *, #295, .T. ) ;
#10 = LINE ( 'NONE', #263, #173 ) ;
#11 = VERTEX_POINT ( 'NONE', #93 ) ;
#12 = CARTESIAN_POINT ( 'NONE',  ( 3.063787409470713388E-16, 0.0000000000000000000, 2.501772275568630466 ) ) ;
#13 = AXIS2_PLACEMENT_3D ( 'NONE', #29, #122, #210 ) ;
#14 = PRODUCT ( 'Micro_SHL-625-4X', 'Micro_SHL-625-4X', '', ( #60 ) ) ;
#15 = DIRECTION ( 'NONE',  ( 1.000000000000000000, 0.0000000000000000000, -0.0000000000000000000 ) ) ;
#16 = ADVANCED_FACE ( 'NONE', ( #202 ), #276, .T. ) ;
#17 = AXIS2_PLACEMENT_3D ( 'NONE', #219, #108, #86 ) ;
#18 = ORIENTED_EDGE ( 'NONE', *, *, #235, .F. ) ;
#19 = CONICAL_SURFACE ( 'NONE', #188, 0.3121875000000000622, 0.1745329251994338082 ) ;
#20 = CYLINDRICAL_SURFACE ( 'NONE', #197, 0.3121874999999999512 ) ;
#21 = ADVANCED_FACE ( 'NONE', ( #260 ), #19, .T. ) ;
#22 = DIRECTION ( 'NONE',  ( -1.000000000000000000, 0.0000000000000000000, 1.224646799147353207E-16 ) ) ;
#23 = CLOSED_SHELL ( 'NONE', ( #227, #21, #279, #44, #110, #292, #271, #16, #58, #288 ) ) ;
#24 = CARTESIAN_POINT ( 'NONE',  ( 0.0000000000000000000, 0.0000000000000000000, 5.000000000000000000 ) ) ;
#25 = AXIS2_PLACEMENT_3D ( 'NONE', #96, #298, #73 ) ;
#26 = ORIENTED_EDGE ( 'NONE', *, *, #201, .T. ) ;
#27 = DIRECTION ( 'NONE',  ( -1.000000000000000000, 0.0000000000000000000, 0.0000000000000000000 ) ) ;
#28 = DIRECTION ( 'NONE',  ( -1.000000000000000000, 0.0000000000000000000, 0.0000000000000000000 ) ) ;
#29 = CARTESIAN_POINT ( 'NONE',  ( 0.0000000000000000000, 0.0000000000000000000, 0.0000000000000000000 ) ) ;
#30 = FILL_AREA_STYLE ('',( #155 ) ) ;
#31 = ORIENTED_EDGE ( 'NONE', *, *, #179, .F. ) ;
#32 = CARTESIAN_POINT ( 'NONE',  ( 0.3125000000000000000, 3.827021247335478926E-17, 4.984999999999999432 ) ) ;
#33 = DIRECTION ( 'NONE',  ( -1.224646799147353207E-16, -0.0000000000000000000, -1.000000000000000000 ) ) ;
#34 =( LENGTH_UNIT ( ) NAMED_UNIT ( * ) SI_UNIT ( $, .METRE. ) );
#35 = DIRECTION ( 'NONE',  ( -1.000000000000000000, 0.0000000000000000000, 0.0000000000000000000 ) ) ;
#36 =( GEOMETRIC_REPRESENTATION_CONTEXT ( 3 ) GLOBAL_UNCERTAINTY_ASSIGNED_CONTEXT ( ( #111 ) ) GLOBAL_UNIT_ASSIGNED_CONTEXT ( ( #135, #89, #205 ) ) REPRESENTATION_CONTEXT ( 'NONE', 'WORKASPACE' ) );
#37 = SHAPE_DEFINITION_REPRESENTATION ( #198, #79 ) ;
#38 = AXIS2_PLACEMENT_3D ( 'NONE', #177, #270, #66 ) ;
#39 = EDGE_CURVE ( 'NONE', #148, #225, #61, .T. ) ;
#40 = DIRECTION ( 'NONE',  ( 1.000000000000000000, 0.0000000000000000000, 0.0000000000000000000 ) ) ;
#41 = LENGTH_MEASURE_WITH_UNIT ( LENGTH_MEASURE( 0.02539999999999999897 ), #251 );
#42 = CARTESIAN_POINT ( 'NONE',  ( 0.0000000000000000000, 0.0000000000000000000, 5.000000000000000000 ) ) ;
#43 = CIRCLE ( 'NONE', #257, 0.3121874999999998956 ) ;
#44 = ADVANCED_FACE ( 'NONE', ( #186 ), #229, .T. ) ;
#45 = CARTESIAN_POINT ( 'NONE',  ( 0.2975000000000003197, 3.735172737399428872E-17, 5.000000000000000000 ) ) ;
#46 = DIRECTION ( 'NONE',  ( 1.224646799147353207E-16, 0.0000000000000000000, 1.000000000000000000 ) ) ;
#47 = PRODUCT_RELATED_PRODUCT_CATEGORY ( 'part', '', ( #14 ) ) ;
#48 = VERTEX_POINT ( 'NONE', #45 ) ;
#49 = AXIS2_PLACEMENT_3D ( 'NONE', #253, #62, #156 ) ;
#50 = VERTEX_POINT ( 'NONE', #112 ) ;
#51 = EDGE_CURVE ( 'NONE', #11, #187, #43, .T. ) ;
#52 = ORIENTED_EDGE ( 'NONE', *, *, #101, .T. ) ;
#53 = DIRECTION ( 'NONE',  ( -1.224646799147353207E-16, -0.0000000000000000000, -1.000000000000000000 ) ) ;
#54 = ORIENTED_EDGE ( 'NONE', *, *, #211, .F. ) ;
#55 = CARTESIAN_POINT ( 'NONE',  ( 0.3121875000000003397, 0.0000000000000000000, 2.500000000000000000 ) ) ;
#56 = AXIS2_PLACEMENT_3D ( 'NONE', #191, #265, #241 ) ;
#57 =( CONVERSION_BASED_UNIT ( 'INCH', #105 ) LENGTH_UNIT ( ) NAMED_UNIT ( #200 ) );
#58 = ADVANCED_FACE ( 'NONE', ( #136 ), #20, .T. ) ;
#59 = FACE_OUTER_BOUND ( 'NONE', #114, .T. ) ;
#60 = PRODUCT_CONTEXT ( 'NONE', #199, 'mechanical' ) ;
#61 = CIRCLE ( 'NONE', #152, 0.3125000000000000000 ) ;
#62 = DIRECTION ( 'NONE',  ( 0.0000000000000000000, 0.0000000000000000000, 1.000000000000000000 ) ) ;
#63 = VECTOR ( 'NONE', #204, 39.37007874015748143 ) ;
#64 = LENGTH_MEASURE_WITH_UNIT ( LENGTH_MEASURE( 0.02539999999999999897 ), #34 );
#65 = EDGE_CURVE ( 'NONE', #255, #50, #294, .T. ) ;
#66 = DIRECTION ( 'NONE',  ( 1.000000000000000000, 0.0000000000000000000, 0.0000000000000000000 ) ) ;
#67 = CIRCLE ( 'NONE', #183, 0.2975000000000003197 ) ;
#68 = ORIENTED_EDGE ( 'NONE', *, *, #242, .T. ) ;
#69 = DIRECTION ( 'NONE',  ( -0.0000000000000000000, -0.0000000000000000000, -1.000000000000000000 ) ) ;
#70 = EDGE_CURVE ( 'NONE', #48, #255, #275, .T. ) ;
#71 = LINE ( 'NONE', #159, #63 ) ;
#72 = CIRCLE ( 'NONE', #106, 0.3125000000000000000 ) ;
#73 = DIRECTION ( 'NONE',  ( 1.000000000000000000, 0.0000000000000000000, 0.0000000000000000000 ) ) ;
#74 = DIRECTION ( 'NONE',  ( -1.000000000000000000, 0.0000000000000000000, 0.0000000000000000000 ) ) ;
#75 = ORIENTED_EDGE ( 'NONE', *, *, #70, .T. ) ;
#76 = EDGE_CURVE ( 'NONE', #255, #225, #71, .T. ) ;
#77 = ORIENTED_EDGE ( 'NONE', *, *, #65, .F. ) ;
#78 = DIRECTION ( 'NONE',  ( -0.0000000000000000000, -0.0000000000000000000, -1.000000000000000000 ) ) ;
#79 = ADVANCED_BREP_SHAPE_REPRESENTATION ( 'Micro_SHL-625-4X', ( #127, #38 ), #36 ) ;
#80 = ORIENTED_EDGE ( 'NONE', *, *, #211, .T. ) ;
#81 = DIRECTION ( 'NONE',  ( 0.0000000000000000000, 0.0000000000000000000, 1.000000000000000000 ) ) ;
#82 = VECTOR ( 'NONE', #33, 39.37007874015748143 ) ;
#83 = PRESENTATION_STYLE_ASSIGNMENT (( #147 ) ) ;
#84 = ORIENTED_EDGE ( 'NONE', *, *, #150, .T. ) ;
#85 = CARTESIAN_POINT ( 'NONE',  ( 0.3121875000000003397, 0.0000000000000000000, 2.500000000000000000 ) ) ;
#86 = DIRECTION ( 'NONE',  ( -1.000000000000000000, 0.0000000000000000000, 0.0000000000000000000 ) ) ;
#87 = ORIENTED_EDGE ( 'NONE', *, *, #76, .F. ) ;
#88 = AXIS2_PLACEMENT_3D ( 'NONE', #287, #165, #28 ) ;
#89 =( NAMED_UNIT ( * ) PLANE_ANGLE_UNIT ( ) SI_UNIT ( $, .RADIAN. ) );
#90 = DIMENSIONAL_EXPONENTS ( 1.000000000000000000, 0.0000000000000000000, 0.0000000000000000000, 0.0000000000000000000, 0.0000000000000000000, 0.0000000000000000000, 0.0000000000000000000 ) ;
#91 = ORIENTED_EDGE ( 'NONE', *, *, #230, .T. ) ;
#92 = DIRECTION ( 'NONE',  ( -1.000000000000000000, 0.0000000000000000000, 1.224646799147353454E-16 ) ) ;
#93 = CARTESIAN_POINT ( 'NONE',  ( -0.3121874999999998956, 0.0000000000000000000, 7.646388452176284293E-17 ) ) ;
#94 = MECHANICAL_DESIGN_GEOMETRIC_PRESENTATION_REPRESENTATION (  '', ( #160 ), #189 ) ;
#95 = ORIENTED_EDGE ( 'NONE', *, *, #201, .F. ) ;
#96 = CARTESIAN_POINT ( 'NONE',  ( 0.0000000000000000000, 0.0000000000000000000, 4.984999999999999432 ) ) ;
#97 = ORIENTED_EDGE ( 'NONE', *, *, #117, .T. ) ;
#98 = DIRECTION ( 'NONE',  ( 1.000000000000000000, 0.0000000000000000000, 0.0000000000000000000 ) ) ;
#99 = SURFACE_STYLE_FILL_AREA ( #30 ) ;
#100 = DIRECTION ( 'NONE',  ( 0.1736481776669313026, 0.0000000000000000000, 0.9848077530122077983 ) ) ;
#101 = EDGE_CURVE ( 'NONE', #185, #148, #299, .T. ) ;
#102 = ORIENTED_EDGE ( 'NONE', *, *, #179, .T. ) ;
#103 = SURFACE_STYLE_USAGE ( .BOTH. , #128 ) ;
#104 = ORIENTED_EDGE ( 'NONE', *, *, #70, .F. ) ;
#105 = LENGTH_MEASURE_WITH_UNIT ( LENGTH_MEASURE( 0.02539999999999999897 ), #124 );
#106 = AXIS2_PLACEMENT_3D ( 'NONE', #216, #196, #98 ) ;
#107 = CARTESIAN_POINT ( 'NONE',  ( 0.3125000000000002776, 3.827021247335482008E-17, 2.501772275568630466 ) ) ;
#108 = DIRECTION ( 'NONE',  ( 0.0000000000000000000, 0.0000000000000000000, -1.000000000000000000 ) ) ;
#109 = LINE ( 'NONE', #293, #261 ) ;
#110 = ADVANCED_FACE ( 'NONE', ( #162 ), #259, .T. ) ;
#111 = UNCERTAINTY_MEASURE_WITH_UNIT (LENGTH_MEASURE( 1.000000000000000082E-05 ), #135, 'distance_accuracy_value', 'NONE');
#112 = CARTESIAN_POINT ( 'NONE',  ( -0.3125000000000000000, 0.0000000000000000000, 4.984999999999999432 ) ) ;
#113 = CARTESIAN_POINT ( 'NONE',  ( 0.0000000000000000000, 0.0000000000000000000, 0.0000000000000000000 ) ) ;
#114 = EDGE_LOOP ( 'NONE', ( #104, #125, #9, #77 ) ) ;
#115 = DIRECTION ( 'NONE',  ( 0.0000000000000000000, 0.0000000000000000000, 1.000000000000000000 ) ) ;
#116 = COLOUR_RGB ( '',0.7921568627450980005, 0.8196078431372548767, 0.9333333333333333481 ) ;
#117 = EDGE_CURVE ( 'NONE', #168, #48, #67, .T. ) ;
#118 = ORIENTED_EDGE ( 'NONE', *, *, #101, .F. ) ;
#119 = CARTESIAN_POINT ( 'NONE',  ( 4.682062571497486343E-33, 0.0000000000000000000, 3.823194226088142147E-17 ) ) ;
#120 = EDGE_LOOP ( 'NONE', ( #190, #52, #194, #18 ) ) ;
#121 = LINE ( 'NONE', #208, #82 ) ;
#122 = DIRECTION ( 'NONE',  ( -1.224646799147353207E-16, -0.0000000000000000000, -1.000000000000000000 ) ) ;
#123 = ORIENTED_EDGE ( 'NONE', *, *, #150, .F. ) ;
#124 =( LENGTH_UNIT ( ) NAMED_UNIT ( * ) SI_UNIT ( $, .METRE. ) );
#125 = ORIENTED_EDGE ( 'NONE', *, *, #117, .F. ) ;
#126 = DIRECTION ( 'NONE',  ( -1.224646799147353207E-16, -0.0000000000000000000, -1.000000000000000000 ) ) ;
#127 = MANIFOLD_SOLID_BREP ( 'Cut-Revolve1', #23 ) ;
#128 = SURFACE_SIDE_STYLE ('',( #149 ) ) ;
#129 = PRODUCT_DEFINITION ( 'UNKNOWN', '', #248, #131 ) ;
#130 = FACE_OUTER_BOUND ( 'NONE', #258, .T. ) ;
#131 = PRODUCT_DEFINITION_CONTEXT ( 'detailed design', #218, 'design' ) ;
#132 = FACE_OUTER_BOUND ( 'NONE', #238, .T. ) ;
#133 = CIRCLE ( 'NONE', #217, 0.2975000000000003197 ) ;
#134 = ORIENTED_EDGE ( 'NONE', *, *, #51, .F. ) ;
#135 =( CONVERSION_BASED_UNIT ( 'INCH', #41 ) LENGTH_UNIT ( ) NAMED_UNIT ( #90 ) );
#136 = FACE_OUTER_BOUND ( 'NONE', #213, .T. ) ;
#137 =( GEOMETRIC_REPRESENTATION_CONTEXT ( 3 ) GLOBAL_UNCERTAINTY_ASSIGNED_CONTEXT ( ( #250 ) ) GLOBAL_UNIT_ASSIGNED_CONTEXT ( ( #269, #153, #175 ) ) REPRESENTATION_CONTEXT ( 'NONE', 'WORKASPACE' ) );
#138 = CARTESIAN_POINT ( 'NONE',  ( 0.2975000000000003197, 3.643324227463379434E-17, 5.000000000000000000 ) ) ;
#139 = CARTESIAN_POINT ( 'NONE',  ( 0.0000000000000000000, 0.0000000000000000000, 5.000000000000000000 ) ) ;
#140 = DIRECTION ( 'NONE',  ( -1.224646799147353207E-16, -0.0000000000000000000, -1.000000000000000000 ) ) ;
#141 = CIRCLE ( 'NONE', #56, 0.3121875000000000622 ) ;
#142 = CARTESIAN_POINT ( 'NONE',  ( -0.3124999999999997224, 0.0000000000000000000, 2.501772275568630466 ) ) ;
#143 = EDGE_LOOP ( 'NONE', ( #145, #102, #134, #95 ) ) ;
#144 = DIRECTION ( 'NONE',  ( -1.000000000000000000, 0.0000000000000000000, 1.224646799147353207E-16 ) ) ;
#145 = ORIENTED_EDGE ( 'NONE', *, *, #176, .T. ) ;
#146 = AXIS2_PLACEMENT_3D ( 'NONE', #151, #246, #35 ) ;
#147 = SURFACE_STYLE_USAGE ( .BOTH. , #212 ) ;
#148 = VERTEX_POINT ( 'NONE', #142 ) ;
#149 = SURFACE_STYLE_FILL_AREA ( #281 ) ;
#150 = EDGE_CURVE ( 'NONE', #50, #148, #3, .T. ) ;
#151 = CARTESIAN_POINT ( 'NONE',  ( 0.0000000000000000000, 0.0000000000000000000, 5.000000000000000000 ) ) ;
#152 = AXIS2_PLACEMENT_3D ( 'NONE', #297, #140, #40 ) ;
#153 =( NAMED_UNIT ( * ) PLANE_ANGLE_UNIT ( ) SI_UNIT ( $, .RADIAN. ) );
#154 = PLANE ( 'NONE',  #164 ) ;
#155 = FILL_AREA_STYLE_COLOUR ( '', #243 ) ;
#156 = DIRECTION ( 'NONE',  ( 1.000000000000000000, 0.0000000000000000000, -0.0000000000000000000 ) ) ;
#157 = CONICAL_SURFACE ( 'NONE', #146, 0.2975000000000003197, 0.7853981633974117527 ) ;
#158 = DIRECTION ( 'NONE',  ( 1.000000000000000000, 0.0000000000000000000, 0.0000000000000000000 ) ) ;
#159 = CARTESIAN_POINT ( 'NONE',  ( 0.3125000000000000000, 3.827021247335478926E-17, 5.000000000000000000 ) ) ;
#160 = STYLED_ITEM ( 'NONE', ( #285 ), #127 ) ;
#161 = DIMENSIONAL_EXPONENTS ( 1.000000000000000000, 0.0000000000000000000, 0.0000000000000000000, 0.0000000000000000000, 0.0000000000000000000, 0.0000000000000000000, 0.0000000000000000000 ) ;
#162 = FACE_OUTER_BOUND ( 'NONE', #228, .T. ) ;
#163 = DIRECTION ( 'NONE',  ( -0.1736481776669311083, 2.126576849575782084E-17, 0.9848077530122080203 ) ) ;
#164 = AXIS2_PLACEMENT_3D ( 'NONE', #220, #222, #15 ) ;
#165 = DIRECTION ( 'NONE',  ( -1.224646799147353207E-16, -0.0000000000000000000, -1.000000000000000000 ) ) ;
#166 = ORIENTED_EDGE ( 'NONE', *, *, #223, .F. ) ;
#167 = LINE ( 'NONE', #55, #221 ) ;
#168 = VERTEX_POINT ( 'NONE', #244 ) ;
#169 = DIRECTION ( 'NONE',  ( -1.224646799147353207E-16, -0.0000000000000000000, -1.000000000000000000 ) ) ;
#170 = MECHANICAL_DESIGN_GEOMETRIC_PRESENTATION_REPRESENTATION (  '', ( #284 ), #137 ) ;
#171 = CIRCLE ( 'NONE', #226, 0.3125000000000000000 ) ;
#172 =( NAMED_UNIT ( * ) SI_UNIT ( $, .STERADIAN. ) SOLID_ANGLE_UNIT ( ) );
#173 = VECTOR ( 'NONE', #126, 39.37007874015748143 ) ;
#174 = DIRECTION ( 'NONE',  ( -0.7071067811865218156, 0.0000000000000000000, -0.7071067811865733299 ) ) ;
#175 =( NAMED_UNIT ( * ) SI_UNIT ( $, .STERADIAN. ) SOLID_ANGLE_UNIT ( ) );
#176 = EDGE_CURVE ( 'NONE', #185, #268, #178, .T. ) ;
#177 = CARTESIAN_POINT ( 'NONE',  ( 0.0000000000000000000, 0.0000000000000000000, 0.0000000000000000000 ) ) ;
#178 = CIRCLE ( 'NONE', #88, 0.3121875000000000622 ) ;
#179 = EDGE_CURVE ( 'NONE', #268, #187, #121, .T. ) ;
#180 = ORIENTED_EDGE ( 'NONE', *, *, #242, .F. ) ;
#181 = DIRECTION ( 'NONE',  ( -1.224646799147353207E-16, -0.0000000000000000000, -1.000000000000000000 ) ) ;
#182 = CARTESIAN_POINT ( 'NONE',  ( -0.3121874999999997846, 3.823194226088143995E-17, 2.500000000000000000 ) ) ;
#183 = AXIS2_PLACEMENT_3D ( 'NONE', #24, #115, #206 ) ;
#184 = CARTESIAN_POINT ( 'NONE',  ( 3.061616997868383141E-16, 0.0000000000000000000, 2.500000000000000000 ) ) ;
#185 = VERTEX_POINT ( 'NONE', #5 ) ;
#186 = FACE_OUTER_BOUND ( 'NONE', #209, .T. ) ;
#187 = VERTEX_POINT ( 'NONE', #214 ) ;
#188 = AXIS2_PLACEMENT_3D ( 'NONE', #274, #46, #158 ) ;
#189 =( GEOMETRIC_REPRESENTATION_CONTEXT ( 3 ) GLOBAL_UNCERTAINTY_ASSIGNED_CONTEXT ( ( #224 ) ) GLOBAL_UNIT_ASSIGNED_CONTEXT ( ( #57, #245, #172 ) ) REPRESENTATION_CONTEXT ( 'NONE', 'WORKASPACE' ) );
#190 = ORIENTED_EDGE ( 'NONE', *, *, #176, .F. ) ;
#191 = CARTESIAN_POINT ( 'NONE',  ( 3.061616997868383141E-16, 0.0000000000000000000, 2.500000000000000000 ) ) ;
#192 = EDGE_LOOP ( 'NONE', ( #118, #180, #240, #232 ) ) ;
#193 = CARTESIAN_POINT ( 'NONE',  ( 4.682062571497486343E-33, 0.0000000000000000000, 3.823194226088142147E-17 ) ) ;
#194 = ORIENTED_EDGE ( 'NONE', *, *, #39, .T. ) ;
#195 = ORIENTED_EDGE ( 'NONE', *, *, #264, .F. ) ;
#196 = DIRECTION ( 'NONE',  ( 0.0000000000000000000, 0.0000000000000000000, -1.000000000000000000 ) ) ;
#197 = AXIS2_PLACEMENT_3D ( 'NONE', #113, #181, #92 ) ;
#198 = PRODUCT_DEFINITION_SHAPE ( 'NONE', 'NONE',  #129 ) ;
#199 = APPLICATION_CONTEXT ( 'automotive_design' ) ;
#200 = DIMENSIONAL_EXPONENTS ( 1.000000000000000000, 0.0000000000000000000, 0.0000000000000000000, 0.0000000000000000000, 0.0000000000000000000, 0.0000000000000000000, 0.0000000000000000000 ) ;
#201 = EDGE_CURVE ( 'NONE', #185, #11, #10, .T. ) ;
#202 = FACE_OUTER_BOUND ( 'NONE', #192, .T. ) ;
#203 = ORIENTED_EDGE ( 'NONE', *, *, #76, .T. ) ;
#204 = DIRECTION ( 'NONE',  ( -0.0000000000000000000, -0.0000000000000000000, -1.000000000000000000 ) ) ;
#205 =( NAMED_UNIT ( * ) SI_UNIT ( $, .STERADIAN. ) SOLID_ANGLE_UNIT ( ) );
#206 = DIRECTION ( 'NONE',  ( 1.000000000000000000, 0.0000000000000000000, 0.0000000000000000000 ) ) ;
#207 = ORIENTED_EDGE ( 'NONE', *, *, #223, .T. ) ;
#208 = CARTESIAN_POINT ( 'NONE',  ( 0.3121874999999999512, 3.823194226088143379E-17, -3.823194226088143379E-17 ) ) ;
#209 = EDGE_LOOP ( 'NONE', ( #80, #203, #286, #123 ) ) ;
#210 = DIRECTION ( 'NONE',  ( -1.000000000000000000, 0.0000000000000000000, 1.224646799147353454E-16 ) ) ;
#211 = EDGE_CURVE ( 'NONE', #50, #255, #72, .T. ) ;
#212 = SURFACE_SIDE_STYLE ('',( #99 ) ) ;
#213 = EDGE_LOOP ( 'NONE', ( #31, #68, #26, #166 ) ) ;
#214 = CARTESIAN_POINT ( 'NONE',  ( 0.3121874999999998956, 3.823194226088143379E-17, 0.0000000000000000000 ) ) ;
#215 = DIRECTION ( 'NONE',  ( 1.000000000000000000, 0.0000000000000000000, 0.0000000000000000000 ) ) ;
#216 = CARTESIAN_POINT ( 'NONE',  ( 0.0000000000000000000, 0.0000000000000000000, 4.984999999999999432 ) ) ;
#217 = AXIS2_PLACEMENT_3D ( 'NONE', #8, #81, #290 ) ;
#218 = APPLICATION_CONTEXT ( 'automotive_design' ) ;
#219 = CARTESIAN_POINT ( 'NONE',  ( 0.0000000000000000000, 0.0000000000000000000, 5.000000000000000000 ) ) ;
#220 = CARTESIAN_POINT ( 'NONE',  ( 0.0000000000000000000, 0.0000000000000000000, 5.000000000000000000 ) ) ;
#221 = VECTOR ( 'NONE', #100, 39.37007874015748143 ) ;
#222 = DIRECTION ( 'NONE',  ( 0.0000000000000000000, 0.0000000000000000000, 1.000000000000000000 ) ) ;
#223 = EDGE_CURVE ( 'NONE', #187, #11, #277, .T. ) ;
#224 = UNCERTAINTY_MEASURE_WITH_UNIT (LENGTH_MEASURE( 1.000000000000000082E-05 ), #57, 'distance_accuracy_value', 'NONE');
#225 = VERTEX_POINT ( 'NONE', #107 ) ;
#226 = AXIS2_PLACEMENT_3D ( 'NONE', #12, #169, #215 ) ;
#227 = ADVANCED_FACE ( 'NONE', ( #289 ), #239, .T. ) ;
#228 = EDGE_LOOP ( 'NONE', ( #87, #252, #84, #195 ) ) ;
#229 = CYLINDRICAL_SURFACE ( 'NONE', #6, 0.3125000000000000000 ) ;
#230 = EDGE_CURVE ( 'NONE', #48, #168, #133, .T. ) ;
#231 = DIRECTION ( 'NONE',  ( -0.0000000000000000000, -0.0000000000000000000, -1.000000000000000000 ) ) ;
#232 = ORIENTED_EDGE ( 'NONE', *, *, #264, .T. ) ;
#233 = VECTOR ( 'NONE', #278, 39.37007874015748143 ) ;
#234 = DIRECTION ( 'NONE',  ( 1.224646799147353207E-16, 0.0000000000000000000, 1.000000000000000000 ) ) ;
#235 = EDGE_CURVE ( 'NONE', #268, #225, #167, .T. ) ;
#236 = ORIENTED_EDGE ( 'NONE', *, *, #295, .F. ) ;
#237 = CARTESIAN_POINT ( 'NONE',  ( -0.3125000000000000000, 0.0000000000000000000, 5.000000000000000000 ) ) ;
#238 = EDGE_LOOP ( 'NONE', ( #97, #91 ) ) ;
#239 = CYLINDRICAL_SURFACE ( 'NONE', #13, 0.3121874999999999512 ) ;
#240 = ORIENTED_EDGE ( 'NONE', *, *, #235, .T. ) ;
#241 = DIRECTION ( 'NONE',  ( -1.000000000000000000, 0.0000000000000000000, 0.0000000000000000000 ) ) ;
#242 = EDGE_CURVE ( 'NONE', #268, #185, #141, .T. ) ;
#243 = COLOUR_RGB ( '',0.7921568627450980005, 0.8196078431372548767, 0.9333333333333333481 ) ;
#244 = CARTESIAN_POINT ( 'NONE',  ( -0.2975000000000003197, 0.0000000000000000000, 5.000000000000000000 ) ) ;
#245 =( NAMED_UNIT ( * ) PLANE_ANGLE_UNIT ( ) SI_UNIT ( $, .RADIAN. ) );
#246 = DIRECTION ( 'NONE',  ( 0.0000000000000000000, 0.0000000000000000000, -1.000000000000000000 ) ) ;
#247 = APPLICATION_PROTOCOL_DEFINITION ( 'draft international standard', 'automotive_design', 1998, #199 ) ;
#248 = PRODUCT_DEFINITION_FORMATION_WITH_SPECIFIED_SOURCE ( 'ANY', '', #14, .NOT_KNOWN. ) ;
#249 = APPLICATION_PROTOCOL_DEFINITION ( 'draft international standard', 'automotive_design', 1998, #218 ) ;
#250 = UNCERTAINTY_MEASURE_WITH_UNIT (LENGTH_MEASURE( 1.000000000000000082E-05 ), #269, 'distance_accuracy_value', 'NONE');
#251 =( LENGTH_UNIT ( ) NAMED_UNIT ( * ) SI_UNIT ( $, .METRE. ) );
#252 = ORIENTED_EDGE ( 'NONE', *, *, #65, .T. ) ;
#253 = CARTESIAN_POINT ( 'NONE',  ( 0.0000000000000000000, 0.0000000000000000000, 0.0000000000000000000 ) ) ;
#254 = AXIS2_PLACEMENT_3D ( 'NONE', #139, #231, #74 ) ;
#255 = VERTEX_POINT ( 'NONE', #32 ) ;
#256 = DIRECTION ( 'NONE',  ( -1.224646799147353207E-16, -0.0000000000000000000, -1.000000000000000000 ) ) ;
#257 = AXIS2_PLACEMENT_3D ( 'NONE', #119, #256, #22 ) ;
#258 = EDGE_LOOP ( 'NONE', ( #262, #75, #54, #236 ) ) ;
#259 = CYLINDRICAL_SURFACE ( 'NONE', #254, 0.3125000000000000000 ) ;
#260 = FACE_OUTER_BOUND ( 'NONE', #120, .T. ) ;
#261 = VECTOR ( 'NONE', #174, 39.37007874015748143 ) ;
#262 = ORIENTED_EDGE ( 'NONE', *, *, #230, .F. ) ;
#263 = CARTESIAN_POINT ( 'NONE',  ( -0.3121874999999999512, 0.0000000000000000000, 3.823194226088143379E-17 ) ) ;
#264 = EDGE_CURVE ( 'NONE', #225, #148, #171, .T. ) ;
#265 = DIRECTION ( 'NONE',  ( -1.224646799147353207E-16, -0.0000000000000000000, -1.000000000000000000 ) ) ;
#266 = FILL_AREA_STYLE_COLOUR ( '', #116 ) ;
#267 = CONICAL_SURFACE ( 'NONE', #17, 0.2975000000000003197, 0.7853981633974117527 ) ;
#268 = VERTEX_POINT ( 'NONE', #85 ) ;
#269 =( CONVERSION_BASED_UNIT ( 'INCH', #64 ) LENGTH_UNIT ( ) NAMED_UNIT ( #161 ) );
#270 = DIRECTION ( 'NONE',  ( 0.0000000000000000000, 0.0000000000000000000, 1.000000000000000000 ) ) ;
#271 = ADVANCED_FACE ( 'NONE', ( #59 ), #157, .T. ) ;
#272 = PLANE ( 'NONE',  #49 ) ;
#273 = AXIS2_PLACEMENT_3D ( 'NONE', #193, #53, #144 ) ;
#274 = CARTESIAN_POINT ( 'NONE',  ( 3.061616997868383141E-16, 0.0000000000000000000, 2.500000000000000000 ) ) ;
#275 = LINE ( 'NONE', #138, #233 ) ;
#276 = CONICAL_SURFACE ( 'NONE', #282, 0.3121875000000000622, 0.1745329251994338082 ) ;
#277 = CIRCLE ( 'NONE', #273, 0.3121874999999998956 ) ;
#278 = DIRECTION ( 'NONE',  ( 0.7071067811865218156, 8.659560562354618546E-17, -0.7071067811865733299 ) ) ;
#279 = ADVANCED_FACE ( 'NONE', ( #130 ), #267, .T. ) ;
#280 = DIRECTION ( 'NONE',  ( 1.000000000000000000, 0.0000000000000000000, 0.0000000000000000000 ) ) ;
#281 = FILL_AREA_STYLE ('',( #266 ) ) ;
#282 = AXIS2_PLACEMENT_3D ( 'NONE', #184, #234, #280 ) ;
#283 = ORIENTED_EDGE ( 'NONE', *, *, #51, .T. ) ;
#284 = STYLED_ITEM ( 'NONE', ( #83 ), #79 ) ;
#285 = PRESENTATION_STYLE_ASSIGNMENT (( #103 ) ) ;
#286 = ORIENTED_EDGE ( 'NONE', *, *, #39, .F. ) ;
#287 = CARTESIAN_POINT ( 'NONE',  ( 3.061616997868383141E-16, 0.0000000000000000000, 2.500000000000000000 ) ) ;
#288 = ADVANCED_FACE ( 'NONE', ( #296 ), #272, .F. ) ;
#289 = FACE_OUTER_BOUND ( 'NONE', #143, .T. ) ;
#290 = DIRECTION ( 'NONE',  ( 1.000000000000000000, 0.0000000000000000000, 0.0000000000000000000 ) ) ;
#291 = VECTOR ( 'NONE', #78, 39.37007874015748143 ) ;
#292 = ADVANCED_FACE ( 'NONE', ( #132 ), #154, .T. ) ;
#293 = CARTESIAN_POINT ( 'NONE',  ( -0.2975000000000003197, 0.0000000000000000000, 5.000000000000000000 ) ) ;
#294 = CIRCLE ( 'NONE', #25, 0.3125000000000000000 ) ;
#295 = EDGE_CURVE ( 'NONE', #168, #50, #109, .T. ) ;
#296 = FACE_OUTER_BOUND ( 'NONE', #4, .T. ) ;
#297 = CARTESIAN_POINT ( 'NONE',  ( 3.063787409470713388E-16, 0.0000000000000000000, 2.501772275568630466 ) ) ;
#298 = DIRECTION ( 'NONE',  ( 0.0000000000000000000, 0.0000000000000000000, -1.000000000000000000 ) ) ;
#299 = LINE ( 'NONE', #182, #7 ) ;
ENDSEC;
END-ISO-10303-21;
