ISO-10303-21;
HEADER;
FILE_DESCRIPTION (( 'STEP AP214' ),
    '1' );
FILE_NAME ('82396.STEP',
    '2023-06-23T05:42:36',
    ( '' ),
    ( '' ),
    'SwSTEP 2.0',
    'SolidWorks 2023',
    '' );
FILE_SCHEMA (( 'AUTOMOTIVE_DESIGN' ));
ENDSEC;

DATA;
#1 = DIRECTION ( 'NONE',  ( -6.123233995736763571E-17, 1.000000000000000000, -0.000000000000000000 ) ) ;
#2 = DIRECTION ( 'NONE',  ( -1.000000000000000000, 0.000000000000000000, 0.000000000000000000 ) ) ;
#3 = COLOUR_RGB ( '',1.000000000000000000, 0.000000000000000000, 0.000000000000000000 ) ;
#4 = DIRECTION ( 'NONE',  ( 0.000000000000000000, 0.000000000000000000, 1.000000000000000000 ) ) ;
#5 = APPLICATION_PROTOCOL_DEFINITION ( 'draft international standard', 'automotive_design', 1998, #304 ) ;
#6 =( NAMED_UNIT ( * ) SI_UNIT ( $, .STERADIAN. ) SOLID_ANGLE_UNIT ( ) );
#7 = DIRECTION ( 'NONE',  ( 0.000000000000000000, 0.000000000000000000, -1.000000000000000000 ) ) ;
#8 = AXIS2_PLACEMENT_3D ( 'NONE', #97, #200, #148 ) ;
#9 = VERTEX_POINT ( 'NONE', #190 ) ;
#10 =( NAMED_UNIT ( * ) SI_UNIT ( $, .STERADIAN. ) SOLID_ANGLE_UNIT ( ) );
#11 =( LENGTH_UNIT ( ) NAMED_UNIT ( * ) SI_UNIT ( $, .METRE. ) );
#12 = ORIENTED_EDGE ( 'NONE', *, *, #37, .T. ) ;
#13 =( NAMED_UNIT ( * ) PLANE_ANGLE_UNIT ( ) SI_UNIT ( $, .RADIAN. ) );
#14 = DIRECTION ( 'NONE',  ( 0.000000000000000000, 0.000000000000000000, -1.000000000000000000 ) ) ;
#15 = SURFACE_STYLE_USAGE ( .BOTH. , #231 ) ;
#16 = AXIS2_PLACEMENT_3D ( 'NONE', #85, #144, #292 ) ;
#17 = MECHANICAL_DESIGN_GEOMETRIC_PRESENTATION_REPRESENTATION (  '', ( #87 ), #177 ) ;
#18 = VERTEX_POINT ( 'NONE', #275 ) ;
#19 = VERTEX_POINT ( 'NONE', #153 ) ;
#20 =( NAMED_UNIT ( * ) PLANE_ANGLE_UNIT ( ) SI_UNIT ( $, .RADIAN. ) );
#21 =( LENGTH_UNIT ( ) NAMED_UNIT ( * ) SI_UNIT ( $, .METRE. ) );
#22 = FILL_AREA_STYLE_COLOUR ( '', #140 ) ;
#23 = ADVANCED_FACE ( 'NONE', ( #208 ), #31, .T. ) ;
#24 = CIRCLE ( 'NONE', #233, 0.1875000000000001388 ) ;
#25 =( GEOMETRIC_REPRESENTATION_CONTEXT ( 3 ) GLOBAL_UNCERTAINTY_ASSIGNED_CONTEXT ( ( #259 ) ) GLOBAL_UNIT_ASSIGNED_CONTEXT ( ( #60, #13, #295 ) ) REPRESENTATION_CONTEXT ( 'NONE', 'WORKASPACE' ) );
#26 = STYLED_ITEM ( 'NONE', ( #183 ), #209 ) ;
#27 = FILL_AREA_STYLE ('',( #242 ) ) ;
#28 = CARTESIAN_POINT ( 'NONE',  ( 0.000000000000000000, 2.000000000000000000, -0.1875000000000000278 ) ) ;
#29 = CARTESIAN_POINT ( 'NONE',  ( 0.000000000000000000, 2.000000000000000000, 0.000000000000000000 ) ) ;
#30 = EDGE_CURVE ( 'NONE', #143, #18, #182, .T. ) ;
#31 = PLANE ( 'NONE',  #16 ) ;
#32 = CLOSED_SHELL ( 'NONE', ( #185, #198, #249, #296 ) ) ;
#33 =( NAMED_UNIT ( * ) SI_UNIT ( $, .STERADIAN. ) SOLID_ANGLE_UNIT ( ) );
#34 = STYLED_ITEM ( 'NONE', ( #154 ), #308 ) ;
#35 =( LENGTH_UNIT ( ) NAMED_UNIT ( * ) SI_UNIT ( $, .METRE. ) );
#36 = DIMENSIONAL_EXPONENTS ( 1.000000000000000000, 0.000000000000000000, 0.000000000000000000, 0.000000000000000000, 0.000000000000000000, 0.000000000000000000, 0.000000000000000000 ) ;
#37 = EDGE_CURVE ( 'NONE', #216, #116, #165, .T. ) ;
#38 = AXIS2_PLACEMENT_3D ( 'NONE', #179, #279, #83 ) ;
#39 = DIMENSIONAL_EXPONENTS ( 1.000000000000000000, 0.000000000000000000, 0.000000000000000000, 0.000000000000000000, 0.000000000000000000, 0.000000000000000000, 0.000000000000000000 ) ;
#40 = CLOSED_SHELL ( 'NONE', ( #63, #23, #209, #276 ) ) ;
#41 = EDGE_CURVE ( 'NONE', #116, #216, #24, .T. ) ;
#42 = ORIENTED_EDGE ( 'NONE', *, *, #205, .F. ) ;
#43 = AXIS2_PLACEMENT_3D ( 'NONE', #188, #164, #100 ) ;
#44 = COLOUR_RGB ( '',1.000000000000000000, 0.000000000000000000, 0.000000000000000000 ) ;
#45 = CYLINDRICAL_SURFACE ( 'NONE', #261, 0.1875000000000000833 ) ;
#46 = DIRECTION ( 'NONE',  ( -6.123233995736763571E-17, 1.000000000000000000, -0.000000000000000000 ) ) ;
#47 = SURFACE_SIDE_STYLE ('',( #120 ) ) ;
#48 = SHAPE_DEFINITION_REPRESENTATION ( #89, #286 ) ;
#49 = SURFACE_STYLE_FILL_AREA ( #291 ) ;
#50 = DIRECTION ( 'NONE',  ( -6.123233995736763571E-17, 1.000000000000000000, -0.000000000000000000 ) ) ;
#51 = FACE_OUTER_BOUND ( 'NONE', #125, .T. ) ;
#52 = DIRECTION ( 'NONE',  ( -1.000000000000000000, 0.000000000000000000, 0.000000000000000000 ) ) ;
#53 = VECTOR ( 'NONE', #244, 39.37007874015748143 ) ;
#54 = ORIENTED_EDGE ( 'NONE', *, *, #223, .F. ) ;
#55 = PRODUCT_CONTEXT ( 'NONE', #304, 'mechanical' ) ;
#56 = SURFACE_STYLE_USAGE ( .BOTH. , #98 ) ;
#57 = CARTESIAN_POINT ( 'NONE',  ( 2.296212748401287726E-17, 0.000000000000000000, 0.1875000000000000278 ) ) ;
#58 = CARTESIAN_POINT ( 'NONE',  ( 0.000000000000000000, 0.000000000000000000, -0.1875000000000000278 ) ) ;
#59 = AXIS2_PLACEMENT_3D ( 'NONE', #236, #199, #224 ) ;
#60 =( CONVERSION_BASED_UNIT ( 'INCH', #111 ) LENGTH_UNIT ( ) NAMED_UNIT ( #161 ) );
#61 = VECTOR ( 'NONE', #257, 39.37007874015748143 ) ;
#62 = AXIS2_PLACEMENT_3D ( 'NONE', #285, #113, #132 ) ;
#63 = ADVANCED_FACE ( 'NONE', ( #210 ), #107, .T. ) ;
#64 = STYLED_ITEM ( 'NONE', ( #203 ), #23 ) ;
#65 = AXIS2_PLACEMENT_3D ( 'NONE', #225, #4, #112 ) ;
#66 =( NAMED_UNIT ( * ) PLANE_ANGLE_UNIT ( ) SI_UNIT ( $, .RADIAN. ) );
#67 = LENGTH_MEASURE_WITH_UNIT ( LENGTH_MEASURE( 0.02539999999999999897 ), #92 );
#68 =( NAMED_UNIT ( * ) PLANE_ANGLE_UNIT ( ) SI_UNIT ( $, .RADIAN. ) );
#69 = ORIENTED_EDGE ( 'NONE', *, *, #271, .F. ) ;
#70 = APPLICATION_PROTOCOL_DEFINITION ( 'draft international standard', 'automotive_design', 1998, #72 ) ;
#71 = CIRCLE ( 'NONE', #226, 0.1875000000000000278 ) ;
#72 = APPLICATION_CONTEXT ( 'automotive_design' ) ;
#73 = DIRECTION ( 'NONE',  ( -1.000000000000000000, 0.000000000000000000, 0.000000000000000000 ) ) ;
#74 = CARTESIAN_POINT ( 'NONE',  ( 0.000000000000000000, 0.000000000000000000, 0.000000000000000000 ) ) ;
#75 = EDGE_LOOP ( 'NONE', ( #42, #158 ) ) ;
#76 =( CONVERSION_BASED_UNIT ( 'INCH', #155 ) LENGTH_UNIT ( ) NAMED_UNIT ( #277 ) );
#77 = DIRECTION ( 'NONE',  ( -1.000000000000000000, 0.000000000000000000, 0.000000000000000000 ) ) ;
#78 = SURFACE_SIDE_STYLE ('',( #95 ) ) ;
#79 = DIMENSIONAL_EXPONENTS ( 1.000000000000000000, 0.000000000000000000, 0.000000000000000000, 0.000000000000000000, 0.000000000000000000, 0.000000000000000000, 0.000000000000000000 ) ;
#80 = EDGE_LOOP ( 'NONE', ( #69, #169, #88, #229 ) ) ;
#81 = CYLINDRICAL_SURFACE ( 'NONE', #38, 0.1875000000000000278 ) ;
#82 = EDGE_CURVE ( 'NONE', #18, #265, #186, .T. ) ;
#83 = DIRECTION ( 'NONE',  ( 0.000000000000000000, 0.000000000000000000, -1.000000000000000000 ) ) ;
#84 = DIMENSIONAL_EXPONENTS ( 1.000000000000000000, 0.000000000000000000, 0.000000000000000000, 0.000000000000000000, 0.000000000000000000, 0.000000000000000000, 0.000000000000000000 ) ;
#85 = CARTESIAN_POINT ( 'NONE',  ( 0.000000000000000000, 2.000000000000000000, 0.000000000000000000 ) ) ;
#86 = AXIS2_PLACEMENT_3D ( 'NONE', #74, #121, #127 ) ;
#87 = STYLED_ITEM ( 'NONE', ( #239 ), #276 ) ;
#88 = ORIENTED_EDGE ( 'NONE', *, *, #223, .T. ) ;
#89 = PRODUCT_DEFINITION_SHAPE ( 'NONE', 'NONE',  #280 ) ;
#90 = CIRCLE ( 'NONE', #8, 0.1875000000000000278 ) ;
#91 = ORIENTED_EDGE ( 'NONE', *, *, #30, .F. ) ;
#92 =( LENGTH_UNIT ( ) NAMED_UNIT ( * ) SI_UNIT ( $, .METRE. ) );
#93 = SURFACE_STYLE_USAGE ( .BOTH. , #47 ) ;
#94 = ORIENTED_EDGE ( 'NONE', *, *, #145, .T. ) ;
#95 = SURFACE_STYLE_FILL_AREA ( #269 ) ;
#96 = PRESENTATION_STYLE_ASSIGNMENT (( #15 ) ) ;
#97 = CARTESIAN_POINT ( 'NONE',  ( 0.000000000000000000, 0.000000000000000000, 0.000000000000000000 ) ) ;
#98 = SURFACE_SIDE_STYLE ('',( #126 ) ) ;
#99 = FACE_OUTER_BOUND ( 'NONE', #289, .T. ) ;
#100 = DIRECTION ( 'NONE',  ( 0.000000000000000000, 0.000000000000000000, -1.000000000000000000 ) ) ;
#101 = MECHANICAL_DESIGN_GEOMETRIC_PRESENTATION_REPRESENTATION (  '', ( #34 ), #303 ) ;
#102 = SURFACE_SIDE_STYLE ('',( #49 ) ) ;
#103 = EDGE_CURVE ( 'NONE', #151, #19, #71, .T. ) ;
#104 = SURFACE_STYLE_USAGE ( .BOTH. , #78 ) ;
#105 = ORIENTED_EDGE ( 'NONE', *, *, #205, .T. ) ;
#106 = LINE ( 'NONE', #306, #53 ) ;
#107 = CYLINDRICAL_SURFACE ( 'NONE', #43, 0.1875000000000000278 ) ;
#108 = MECHANICAL_DESIGN_GEOMETRIC_PRESENTATION_REPRESENTATION (  '', ( #234 ), #25 ) ;
#109 = CARTESIAN_POINT ( 'NONE',  ( -0.1875000000000000278, 2.000000000000000000, 0.000000000000000000 ) ) ;
#110 = UNCERTAINTY_MEASURE_WITH_UNIT (LENGTH_MEASURE( 1.000000000000000082E-05 ), #260, 'distance_accuracy_value', 'NONE');
#111 = LENGTH_MEASURE_WITH_UNIT ( LENGTH_MEASURE( 0.02539999999999999897 ), #35 );
#112 = DIRECTION ( 'NONE',  ( 1.000000000000000000, 0.000000000000000000, 0.000000000000000000 ) ) ;
#113 = DIRECTION ( 'NONE',  ( -6.123233995736763571E-17, 1.000000000000000000, 0.000000000000000000 ) ) ;
#114 = VECTOR ( 'NONE', #1, 39.37007874015748143 ) ;
#115 =( NAMED_UNIT ( * ) SI_UNIT ( $, .STERADIAN. ) SOLID_ANGLE_UNIT ( ) );
#116 = VERTEX_POINT ( 'NONE', #152 ) ;
#117 = ORIENTED_EDGE ( 'NONE', *, *, #138, .T. ) ;
#118 = PRESENTATION_LAYER_ASSIGNMENT (  '', '', ( #234 ) ) ;
#119 = ORIENTED_EDGE ( 'NONE', *, *, #271, .T. ) ;
#120 = SURFACE_STYLE_FILL_AREA ( #142 ) ;
#121 = DIRECTION ( 'NONE',  ( -0.000000000000000000, -1.000000000000000000, -0.000000000000000000 ) ) ;
#122 = ORIENTED_EDGE ( 'NONE', *, *, #41, .T. ) ;
#123 = PLANE ( 'NONE',  #230 ) ;
#124 =( GEOMETRIC_REPRESENTATION_CONTEXT ( 3 ) GLOBAL_UNCERTAINTY_ASSIGNED_CONTEXT ( ( #181 ) ) GLOBAL_UNIT_ASSIGNED_CONTEXT ( ( #196, #68, #299 ) ) REPRESENTATION_CONTEXT ( 'NONE', 'WORKASPACE' ) );
#125 = EDGE_LOOP ( 'NONE', ( #273, #94 ) ) ;
#126 = SURFACE_STYLE_FILL_AREA ( #27 ) ;
#127 = DIRECTION ( 'NONE',  ( 0.000000000000000000, 0.000000000000000000, -1.000000000000000000 ) ) ;
#128 =( NAMED_UNIT ( * ) PLANE_ANGLE_UNIT ( ) SI_UNIT ( $, .RADIAN. ) );
#129 = UNCERTAINTY_MEASURE_WITH_UNIT (LENGTH_MEASURE( 1.000000000000000082E-05 ), #247, 'distance_accuracy_value', 'NONE');
#130 = SURFACE_STYLE_FILL_AREA ( #248 ) ;
#131 = PRESENTATION_LAYER_ASSIGNMENT (  '', '', ( #34 ) ) ;
#132 = DIRECTION ( 'NONE',  ( -1.000000000000000000, -6.123233995736763571E-17, 0.000000000000000000 ) ) ;
#133 =( GEOMETRIC_REPRESENTATION_CONTEXT ( 3 ) GLOBAL_UNCERTAINTY_ASSIGNED_CONTEXT ( ( #129 ) ) GLOBAL_UNIT_ASSIGNED_CONTEXT ( ( #247, #139, #6 ) ) REPRESENTATION_CONTEXT ( 'NONE', 'WORKASPACE' ) );
#134 = DIRECTION ( 'NONE',  ( -6.123233995736763571E-17, 1.000000000000000000, -0.000000000000000000 ) ) ;
#135 = LINE ( 'NONE', #305, #114 ) ;
#136 =( CONVERSION_BASED_UNIT ( 'INCH', #184 ) LENGTH_UNIT ( ) NAMED_UNIT ( #84 ) );
#137 = CARTESIAN_POINT ( 'NONE',  ( 0.000000000000000000, 2.000000000000000000, 0.000000000000000000 ) ) ;
#138 = EDGE_CURVE ( 'NONE', #9, #265, #106, .T. ) ;
#139 =( NAMED_UNIT ( * ) PLANE_ANGLE_UNIT ( ) SI_UNIT ( $, .RADIAN. ) );
#140 = COLOUR_RGB ( '',1.000000000000000000, 0.000000000000000000, 0.000000000000000000 ) ;
#141 = CIRCLE ( 'NONE', #212, 0.1875000000000000278 ) ;
#142 = FILL_AREA_STYLE ('',( #213 ) ) ;
#143 = VERTEX_POINT ( 'NONE', #28 ) ;
#144 = DIRECTION ( 'NONE',  ( 0.000000000000000000, 1.000000000000000000, 0.000000000000000000 ) ) ;
#145 = EDGE_CURVE ( 'NONE', #265, #18, #90, .T. ) ;
#146 = PRESENTATION_LAYER_ASSIGNMENT (  '', '', ( #192 ) ) ;
#147 = MECHANICAL_DESIGN_GEOMETRIC_PRESENTATION_REPRESENTATION (  '', ( #26 ), #172 ) ;
#148 = DIRECTION ( 'NONE',  ( 0.000000000000000000, 0.000000000000000000, -1.000000000000000000 ) ) ;
#149 = EDGE_CURVE ( 'NONE', #19, #151, #300, .T. ) ;
#150 = SURFACE_STYLE_USAGE ( .BOTH. , #102 ) ;
#151 = VERTEX_POINT ( 'NONE', #109 ) ;
#152 = CARTESIAN_POINT ( 'NONE',  ( -0.1875000000000002776, 4.000000000000000000, 0.000000000000000000 ) ) ;
#153 = CARTESIAN_POINT ( 'NONE',  ( 0.1875000000000000278, 2.000000000000000000, 2.296212748401288650E-17 ) ) ;
#154 = PRESENTATION_STYLE_ASSIGNMENT (( #104 ) ) ;
#155 = LENGTH_MEASURE_WITH_UNIT ( LENGTH_MEASURE( 0.02539999999999999897 ), #159 );
#156 = DIRECTION ( 'NONE',  ( -6.123233995736763571E-17, 1.000000000000000000, -0.000000000000000000 ) ) ;
#157 = FILL_AREA_STYLE_COLOUR ( '', #282 ) ;
#158 = ORIENTED_EDGE ( 'NONE', *, *, #218, .F. ) ;
#159 =( LENGTH_UNIT ( ) NAMED_UNIT ( * ) SI_UNIT ( $, .METRE. ) );
#160 = DIMENSIONAL_EXPONENTS ( 1.000000000000000000, 0.000000000000000000, 0.000000000000000000, 0.000000000000000000, 0.000000000000000000, 0.000000000000000000, 0.000000000000000000 ) ;
#161 = DIMENSIONAL_EXPONENTS ( 1.000000000000000000, 0.000000000000000000, 0.000000000000000000, 0.000000000000000000, 0.000000000000000000, 0.000000000000000000, 0.000000000000000000 ) ;
#162 = PLANE ( 'NONE',  #167 ) ;
#163 = DIRECTION ( 'NONE',  ( -0.000000000000000000, -1.000000000000000000, -0.000000000000000000 ) ) ;
#164 = DIRECTION ( 'NONE',  ( -0.000000000000000000, -1.000000000000000000, -0.000000000000000000 ) ) ;
#165 = CIRCLE ( 'NONE', #59, 0.1875000000000001388 ) ;
#166 = COLOUR_RGB ( '',0.7921568627450980005, 0.8196078431372548767, 0.9333333333333333481 ) ;
#167 = AXIS2_PLACEMENT_3D ( 'NONE', #258, #173, #14 ) ;
#168 = ORIENTED_EDGE ( 'NONE', *, *, #82, .F. ) ;
#169 = ORIENTED_EDGE ( 'NONE', *, *, #149, .T. ) ;
#170 = ORIENTED_EDGE ( 'NONE', *, *, #138, .F. ) ;
#171 = FILL_AREA_STYLE_COLOUR ( '', #44 ) ;
#172 =( GEOMETRIC_REPRESENTATION_CONTEXT ( 3 ) GLOBAL_UNCERTAINTY_ASSIGNED_CONTEXT ( ( #175 ) ) GLOBAL_UNIT_ASSIGNED_CONTEXT ( ( #76, #256, #33 ) ) REPRESENTATION_CONTEXT ( 'NONE', 'WORKASPACE' ) );
#173 = DIRECTION ( 'NONE',  ( 0.000000000000000000, -1.000000000000000000, -0.000000000000000000 ) ) ;
#174 = LENGTH_MEASURE_WITH_UNIT ( LENGTH_MEASURE( 0.02539999999999999897 ), #21 );
#175 = UNCERTAINTY_MEASURE_WITH_UNIT (LENGTH_MEASURE( 1.000000000000000082E-05 ), #76, 'distance_accuracy_value', 'NONE');
#176 = PRODUCT_RELATED_PRODUCT_CATEGORY ( 'part', '', ( #189 ) ) ;
#177 =( GEOMETRIC_REPRESENTATION_CONTEXT ( 3 ) GLOBAL_UNCERTAINTY_ASSIGNED_CONTEXT ( ( #206 ) ) GLOBAL_UNIT_ASSIGNED_CONTEXT ( ( #195, #20, #10 ) ) REPRESENTATION_CONTEXT ( 'NONE', 'WORKASPACE' ) );
#178 =( LENGTH_UNIT ( ) NAMED_UNIT ( * ) SI_UNIT ( $, .METRE. ) );
#179 = CARTESIAN_POINT ( 'NONE',  ( 0.000000000000000000, 0.000000000000000000, 0.000000000000000000 ) ) ;
#180 = FACE_OUTER_BOUND ( 'NONE', #262, .T. ) ;
#181 = UNCERTAINTY_MEASURE_WITH_UNIT (LENGTH_MEASURE( 1.000000000000000082E-05 ), #196, 'distance_accuracy_value', 'NONE');
#182 = LINE ( 'NONE', #58, #61 ) ;
#183 = PRESENTATION_STYLE_ASSIGNMENT (( #93 ) ) ;
#184 = LENGTH_MEASURE_WITH_UNIT ( LENGTH_MEASURE( 0.02539999999999999897 ), #298 );
#185 = ADVANCED_FACE ( 'NONE', ( #180 ), #252, .T. ) ;
#186 = CIRCLE ( 'NONE', #86, 0.1875000000000000278 ) ;
#187 = CARTESIAN_POINT ( 'NONE',  ( -1.224646799147352714E-16, 4.000000000000000000, 0.000000000000000000 ) ) ;
#188 = CARTESIAN_POINT ( 'NONE',  ( 0.000000000000000000, 0.000000000000000000, 0.000000000000000000 ) ) ;
#189 = PRODUCT ( '82396', '82396', '', ( #55 ) ) ;
#190 = CARTESIAN_POINT ( 'NONE',  ( 2.296212748401287726E-17, 2.000000000000000000, 0.1875000000000000278 ) ) ;
#191 = CARTESIAN_POINT ( 'NONE',  ( 0.1875000000000000278, 4.000000000000000000, 0.000000000000000000 ) ) ;
#192 = STYLED_ITEM ( 'NONE', ( #96 ), #63 ) ;
#193 = DIRECTION ( 'NONE',  ( 6.123233995736763571E-17, -1.000000000000000000, 0.000000000000000000 ) ) ;
#194 = EDGE_LOOP ( 'NONE', ( #170, #301, #197, #235 ) ) ;
#195 =( CONVERSION_BASED_UNIT ( 'INCH', #67 ) LENGTH_UNIT ( ) NAMED_UNIT ( #39 ) );
#196 =( CONVERSION_BASED_UNIT ( 'INCH', #174 ) LENGTH_UNIT ( ) NAMED_UNIT ( #36 ) );
#197 = ORIENTED_EDGE ( 'NONE', *, *, #30, .T. ) ;
#198 = ADVANCED_FACE ( 'NONE', ( #221 ), #278, .F. ) ;
#199 = DIRECTION ( 'NONE',  ( -6.123233995736763571E-17, 1.000000000000000000, -0.000000000000000000 ) ) ;
#200 = DIRECTION ( 'NONE',  ( -0.000000000000000000, -1.000000000000000000, -0.000000000000000000 ) ) ;
#201 =( GEOMETRIC_REPRESENTATION_CONTEXT ( 3 ) GLOBAL_UNCERTAINTY_ASSIGNED_CONTEXT ( ( #211 ) ) GLOBAL_UNIT_ASSIGNED_CONTEXT ( ( #136, #128, #240 ) ) REPRESENTATION_CONTEXT ( 'NONE', 'WORKASPACE' ) );
#202 = AXIS2_PLACEMENT_3D ( 'NONE', #29, #163, #284 ) ;
#203 = PRESENTATION_STYLE_ASSIGNMENT (( #238 ) ) ;
#204 = FILL_AREA_STYLE ('',( #22 ) ) ;
#205 = EDGE_CURVE ( 'NONE', #143, #9, #141, .T. ) ;
#206 = UNCERTAINTY_MEASURE_WITH_UNIT (LENGTH_MEASURE( 1.000000000000000082E-05 ), #195, 'distance_accuracy_value', 'NONE');
#207 = AXIS2_PLACEMENT_3D ( 'NONE', #263, #290, #227 ) ;
#208 = FACE_OUTER_BOUND ( 'NONE', #75, .T. ) ;
#209 = ADVANCED_FACE ( 'NONE', ( #267 ), #81, .T. ) ;
#210 = FACE_OUTER_BOUND ( 'NONE', #288, .T. ) ;
#211 = UNCERTAINTY_MEASURE_WITH_UNIT (LENGTH_MEASURE( 1.000000000000000082E-05 ), #136, 'distance_accuracy_value', 'NONE');
#212 = AXIS2_PLACEMENT_3D ( 'NONE', #137, #228, #7 ) ;
#213 = FILL_AREA_STYLE_COLOUR ( '', #3 ) ;
#214 = MANIFOLD_SOLID_BREP ( 'Revolve - Cutting Edge', #40 ) ;
#215 = COLOUR_RGB ( '',0.7921568627450980005, 0.8196078431372548767, 0.9333333333333333481 ) ;
#216 = VERTEX_POINT ( 'NONE', #245 ) ;
#217 = ORIENTED_EDGE ( 'NONE', *, *, #41, .F. ) ;
#218 = EDGE_CURVE ( 'NONE', #9, #143, #302, .T. ) ;
#219 = ORIENTED_EDGE ( 'NONE', *, *, #149, .F. ) ;
#220 = VECTOR ( 'NONE', #156, 39.37007874015748143 ) ;
#221 = FACE_OUTER_BOUND ( 'NONE', #309, .T. ) ;
#222 = FILL_AREA_STYLE_COLOUR ( '', #215 ) ;
#223 = EDGE_CURVE ( 'NONE', #151, #116, #135, .T. ) ;
#224 = DIRECTION ( 'NONE',  ( -1.000000000000000000, 0.000000000000000000, 0.000000000000000000 ) ) ;
#225 = CARTESIAN_POINT ( 'NONE',  ( 0.000000000000000000, 0.000000000000000000, 0.000000000000000000 ) ) ;
#226 = AXIS2_PLACEMENT_3D ( 'NONE', #246, #272, #52 ) ;
#227 = DIRECTION ( 'NONE',  ( -1.000000000000000000, 0.000000000000000000, 0.000000000000000000 ) ) ;
#228 = DIRECTION ( 'NONE',  ( -0.000000000000000000, -1.000000000000000000, -0.000000000000000000 ) ) ;
#229 = ORIENTED_EDGE ( 'NONE', *, *, #37, .F. ) ;
#230 = AXIS2_PLACEMENT_3D ( 'NONE', #191, #193, #250 ) ;
#231 = SURFACE_SIDE_STYLE ('',( #283 ) ) ;
#232 = ORIENTED_EDGE ( 'NONE', *, *, #103, .F. ) ;
#233 = AXIS2_PLACEMENT_3D ( 'NONE', #268, #50, #2 ) ;
#234 = STYLED_ITEM ( 'NONE', ( #281 ), #214 ) ;
#235 = ORIENTED_EDGE ( 'NONE', *, *, #145, .F. ) ;
#236 = CARTESIAN_POINT ( 'NONE',  ( -1.224646799147352714E-16, 4.000000000000000000, 0.000000000000000000 ) ) ;
#237 = LINE ( 'NONE', #270, #220 ) ;
#238 = SURFACE_STYLE_USAGE ( .BOTH. , #294 ) ;
#239 = PRESENTATION_STYLE_ASSIGNMENT (( #150 ) ) ;
#240 =( NAMED_UNIT ( * ) SI_UNIT ( $, .STERADIAN. ) SOLID_ANGLE_UNIT ( ) );
#241 = MECHANICAL_DESIGN_GEOMETRIC_PRESENTATION_REPRESENTATION (  '', ( #192 ), #133 ) ;
#242 = FILL_AREA_STYLE_COLOUR ( '', #166 ) ;
#243 = PRODUCT_DEFINITION_FORMATION_WITH_SPECIFIED_SOURCE ( 'ANY', '', #189, .NOT_KNOWN. ) ;
#244 = DIRECTION ( 'NONE',  ( -0.000000000000000000, -1.000000000000000000, -0.000000000000000000 ) ) ;
#245 = CARTESIAN_POINT ( 'NONE',  ( 0.1875000000000000278, 4.000000000000000000, 2.296212748401288650E-17 ) ) ;
#246 = CARTESIAN_POINT ( 'NONE',  ( 1.516480271171051896E-32, 2.000000000000000000, 0.000000000000000000 ) ) ;
#247 =( CONVERSION_BASED_UNIT ( 'INCH', #307 ) LENGTH_UNIT ( ) NAMED_UNIT ( #160 ) );
#248 = FILL_AREA_STYLE ('',( #157 ) ) ;
#249 = ADVANCED_FACE ( 'NONE', ( #297 ), #45, .T. ) ;
#250 = DIRECTION ( 'NONE',  ( 1.000000000000000000, 6.123233995736763571E-17, 0.000000000000000000 ) ) ;
#251 = LENGTH_MEASURE_WITH_UNIT ( LENGTH_MEASURE( 0.02539999999999999897 ), #178 );
#252 = CYLINDRICAL_SURFACE ( 'NONE', #274, 0.1875000000000000833 ) ;
#253 = MECHANICAL_DESIGN_GEOMETRIC_PRESENTATION_REPRESENTATION (  '', ( #64 ), #201 ) ;
#254 = PRODUCT_DEFINITION_CONTEXT ( 'detailed design', #72, 'design' ) ;
#255 = PRESENTATION_LAYER_ASSIGNMENT (  '', '', ( #26 ) ) ;
#256 =( NAMED_UNIT ( * ) PLANE_ANGLE_UNIT ( ) SI_UNIT ( $, .RADIAN. ) );
#257 = DIRECTION ( 'NONE',  ( -0.000000000000000000, -1.000000000000000000, -0.000000000000000000 ) ) ;
#258 = CARTESIAN_POINT ( 'NONE',  ( 0.000000000000000000, 0.000000000000000000, 0.000000000000000000 ) ) ;
#259 = UNCERTAINTY_MEASURE_WITH_UNIT (LENGTH_MEASURE( 1.000000000000000082E-05 ), #60, 'distance_accuracy_value', 'NONE');
#260 =( CONVERSION_BASED_UNIT ( 'INCH', #251 ) LENGTH_UNIT ( ) NAMED_UNIT ( #79 ) );
#261 = AXIS2_PLACEMENT_3D ( 'NONE', #264, #134, #77 ) ;
#262 = EDGE_LOOP ( 'NONE', ( #287, #119, #217, #54 ) ) ;
#263 = CARTESIAN_POINT ( 'NONE',  ( 1.516480271171051896E-32, 2.000000000000000000, 0.000000000000000000 ) ) ;
#264 = CARTESIAN_POINT ( 'NONE',  ( -1.224646799147352714E-16, 4.000000000000000000, 0.000000000000000000 ) ) ;
#265 = VERTEX_POINT ( 'NONE', #57 ) ;
#266 = PRESENTATION_LAYER_ASSIGNMENT (  '', '', ( #87 ) ) ;
#267 = FACE_OUTER_BOUND ( 'NONE', #194, .T. ) ;
#268 = CARTESIAN_POINT ( 'NONE',  ( -1.224646799147352714E-16, 4.000000000000000000, 0.000000000000000000 ) ) ;
#269 = FILL_AREA_STYLE ('',( #222 ) ) ;
#270 = CARTESIAN_POINT ( 'NONE',  ( 0.1874999999999999445, 4.000000000000000000, 2.296212748401288342E-17 ) ) ;
#271 = EDGE_CURVE ( 'NONE', #19, #216, #237, .T. ) ;
#272 = DIRECTION ( 'NONE',  ( -6.123233995736763571E-17, 1.000000000000000000, -0.000000000000000000 ) ) ;
#273 = ORIENTED_EDGE ( 'NONE', *, *, #82, .T. ) ;
#274 = AXIS2_PLACEMENT_3D ( 'NONE', #187, #46, #73 ) ;
#275 = CARTESIAN_POINT ( 'NONE',  ( 0.000000000000000000, 0.000000000000000000, -0.1875000000000000278 ) ) ;
#276 = ADVANCED_FACE ( 'NONE', ( #51 ), #162, .T. ) ;
#277 = DIMENSIONAL_EXPONENTS ( 1.000000000000000000, 0.000000000000000000, 0.000000000000000000, 0.000000000000000000, 0.000000000000000000, 0.000000000000000000, 0.000000000000000000 ) ;
#278 = PLANE ( 'NONE',  #62 ) ;
#279 = DIRECTION ( 'NONE',  ( -0.000000000000000000, -1.000000000000000000, -0.000000000000000000 ) ) ;
#280 = PRODUCT_DEFINITION ( 'UNKNOWN', '', #243, #254 ) ;
#281 = PRESENTATION_STYLE_ASSIGNMENT (( #56 ) ) ;
#282 = COLOUR_RGB ( '',1.000000000000000000, 0.000000000000000000, 0.000000000000000000 ) ;
#283 = SURFACE_STYLE_FILL_AREA ( #204 ) ;
#284 = DIRECTION ( 'NONE',  ( 0.000000000000000000, 0.000000000000000000, -1.000000000000000000 ) ) ;
#285 = CARTESIAN_POINT ( 'NONE',  ( 3.515061990613726630E-34, 2.000000000000000000, 0.000000000000000000 ) ) ;
#286 = ADVANCED_BREP_SHAPE_REPRESENTATION ( '82396', ( #214, #308, #65 ), #124 ) ;
#287 = ORIENTED_EDGE ( 'NONE', *, *, #103, .T. ) ;
#288 = EDGE_LOOP ( 'NONE', ( #105, #117, #168, #91 ) ) ;
#289 = EDGE_LOOP ( 'NONE', ( #122, #12 ) ) ;
#290 = DIRECTION ( 'NONE',  ( -6.123233995736763571E-17, 1.000000000000000000, -0.000000000000000000 ) ) ;
#291 = FILL_AREA_STYLE ('',( #171 ) ) ;
#292 = DIRECTION ( 'NONE',  ( 0.000000000000000000, -0.000000000000000000, 1.000000000000000000 ) ) ;
#293 = PRESENTATION_LAYER_ASSIGNMENT (  '', '', ( #64 ) ) ;
#294 = SURFACE_SIDE_STYLE ('',( #130 ) ) ;
#295 =( NAMED_UNIT ( * ) SI_UNIT ( $, .STERADIAN. ) SOLID_ANGLE_UNIT ( ) );
#296 = ADVANCED_FACE ( 'NONE', ( #99 ), #123, .F. ) ;
#297 = FACE_OUTER_BOUND ( 'NONE', #80, .T. ) ;
#298 =( LENGTH_UNIT ( ) NAMED_UNIT ( * ) SI_UNIT ( $, .METRE. ) );
#299 =( NAMED_UNIT ( * ) SI_UNIT ( $, .STERADIAN. ) SOLID_ANGLE_UNIT ( ) );
#300 = CIRCLE ( 'NONE', #207, 0.1875000000000000278 ) ;
#301 = ORIENTED_EDGE ( 'NONE', *, *, #218, .T. ) ;
#302 = CIRCLE ( 'NONE', #202, 0.1875000000000000278 ) ;
#303 =( GEOMETRIC_REPRESENTATION_CONTEXT ( 3 ) GLOBAL_UNCERTAINTY_ASSIGNED_CONTEXT ( ( #110 ) ) GLOBAL_UNIT_ASSIGNED_CONTEXT ( ( #260, #66, #115 ) ) REPRESENTATION_CONTEXT ( 'NONE', 'WORKASPACE' ) );
#304 = APPLICATION_CONTEXT ( 'automotive_design' ) ;
#305 = CARTESIAN_POINT ( 'NONE',  ( -0.1875000000000002220, 4.000000000000000000, 0.000000000000000000 ) ) ;
#306 = CARTESIAN_POINT ( 'NONE',  ( 2.296212748401287726E-17, 0.000000000000000000, 0.1875000000000000278 ) ) ;
#307 = LENGTH_MEASURE_WITH_UNIT ( LENGTH_MEASURE( 0.02539999999999999897 ), #11 );
#308 = MANIFOLD_SOLID_BREP ( 'Revolve - Tool Body (Straight Shanked)', #32 ) ;
#309 = EDGE_LOOP ( 'NONE', ( #232, #219 ) ) ;
ENDSEC;
END-ISO-10303-21;
