ISO-10303-21;
HEADER;
FILE_DESCRIPTION (( 'STEP AP214' ),
    '1' );
FILE_NAME ('12407.STEP',
    '2023-06-30T21:51:22',
    ( '' ),
    ( '' ),
    'SwSTEP 2.0',
    'SolidWorks 2023',
    '' );
FILE_SCHEMA (( 'AUTOMOTIVE_DESIGN' ));
ENDSEC;

DATA;
#1 = SURFACE_SIDE_STYLE ('',( #86 ) ) ;
#2 = SURFACE_STYLE_USAGE ( .BOTH. , #225 ) ;
#3 = DIRECTION ( 'NONE',  ( -0.000000000000000000, -1.000000000000000000, -0.000000000000000000 ) ) ;
#4 = EDGE_CURVE ( 'NONE', #166, #11, #43, .T. ) ;
#5 = DIRECTION ( 'NONE',  ( 0.000000000000000000, 0.000000000000000000, -1.000000000000000000 ) ) ;
#6 = MECHANICAL_DESIGN_GEOMETRIC_PRESENTATION_REPRESENTATION (  '', ( #285 ), #146 ) ;
#7 = ORIENTED_EDGE ( 'NONE', *, *, #4, .T. ) ;
#8 = ORIENTED_EDGE ( 'NONE', *, *, #144, .T. ) ;
#9 =( LENGTH_UNIT ( ) NAMED_UNIT ( * ) SI_UNIT ( $, .METRE. ) );
#10 =( GEOMETRIC_REPRESENTATION_CONTEXT ( 3 ) GLOBAL_UNCERTAINTY_ASSIGNED_CONTEXT ( ( #168 ) ) GLOBAL_UNIT_ASSIGNED_CONTEXT ( ( #164, #52, #110 ) ) REPRESENTATION_CONTEXT ( 'NONE', 'WORKASPACE' ) );
#11 = VERTEX_POINT ( 'NONE', #293 ) ;
#12 = ADVANCED_FACE ( 'NONE', ( #122 ), #362, .T. ) ;
#13 = ORIENTED_EDGE ( 'NONE', *, *, #144, .F. ) ;
#14 = CIRCLE ( 'NONE', #236, 0.3124999999999999445 ) ;
#15 = DIRECTION ( 'NONE',  ( -1.000000000000000000, 0.000000000000000000, 0.000000000000000000 ) ) ;
#16 = DIRECTION ( 'NONE',  ( -1.232082441130762688E-16, 1.000000000000000000, -0.000000000000000000 ) ) ;
#17 = DIRECTION ( 'NONE',  ( -0.000000000000000000, -1.000000000000000000, -0.000000000000000000 ) ) ;
#18 = ORIENTED_EDGE ( 'NONE', *, *, #140, .F. ) ;
#19 = DIRECTION ( 'NONE',  ( 1.000000000000000000, 1.232082441130762688E-16, 0.000000000000000000 ) ) ;
#20 = EDGE_LOOP ( 'NONE', ( #30, #8, #199, #268, #148 ) ) ;
#21 = STYLED_ITEM ( 'NONE', ( #27 ), #342 ) ;
#22 = CARTESIAN_POINT ( 'NONE',  ( -0.3125000000000000000, 3.500000000000000000, 0.000000000000000000 ) ) ;
#23 = FILL_AREA_STYLE ('',( #218 ) ) ;
#24 = ORIENTED_EDGE ( 'NONE', *, *, #361, .T. ) ;
#25 = FILL_AREA_STYLE ('',( #135 ) ) ;
#26 = VECTOR ( 'NONE', #126, 39.37007874015748143 ) ;
#27 = PRESENTATION_STYLE_ASSIGNMENT (( #2 ) ) ;
#28 = APPLICATION_CONTEXT ( 'automotive_design' ) ;
#29 = CARTESIAN_POINT ( 'NONE',  ( 0.3124999999999998890, 3.500000000000000000, 3.827021247335477078E-17 ) ) ;
#30 = ORIENTED_EDGE ( 'NONE', *, *, #123, .T. ) ;
#31 = PRESENTATION_LAYER_ASSIGNMENT (  '', '', ( #111 ) ) ;
#32 = AXIS2_PLACEMENT_3D ( 'NONE', #254, #3, #94 ) ;
#33 = PRESENTATION_STYLE_ASSIGNMENT (( #291 ) ) ;
#34 = LINE ( 'NONE', #156, #196 ) ;
#35 = ORIENTED_EDGE ( 'NONE', *, *, #115, .T. ) ;
#36 = FILL_AREA_STYLE ('',( #159 ) ) ;
#37 = STYLED_ITEM ( 'NONE', ( #171 ), #89 ) ;
#38 =( GEOMETRIC_REPRESENTATION_CONTEXT ( 3 ) GLOBAL_UNCERTAINTY_ASSIGNED_CONTEXT ( ( #197 ) ) GLOBAL_UNIT_ASSIGNED_CONTEXT ( ( #350, #333, #136 ) ) REPRESENTATION_CONTEXT ( 'NONE', 'WORKASPACE' ) );
#39 = DIRECTION ( 'NONE',  ( -1.232082441130762688E-16, 1.000000000000000000, 0.000000000000000000 ) ) ;
#40 =( LENGTH_UNIT ( ) NAMED_UNIT ( * ) SI_UNIT ( $, .METRE. ) );
#41 = FACE_OUTER_BOUND ( 'NONE', #234, .T. ) ;
#42 = SURFACE_STYLE_FILL_AREA ( #23 ) ;
#43 = LINE ( 'NONE', #323, #193 ) ;
#44 = DIRECTION ( 'NONE',  ( 1.000000000000000000, 0.000000000000000000, 0.000000000000000000 ) ) ;
#45 = LENGTH_MEASURE_WITH_UNIT ( LENGTH_MEASURE( 0.02539999999999999897 ), #162 );
#46 = FILL_AREA_STYLE ('',( #188 ) ) ;
#47 = AXIS2_PLACEMENT_3D ( 'NONE', #244, #277, #108 ) ;
#48 = CARTESIAN_POINT ( 'NONE',  ( -3.827021247335478926E-17, 0.3125000000000000000, 0.000000000000000000 ) ) ;
#49 = EDGE_CURVE ( 'NONE', #119, #214, #55, .T. ) ;
#50 = SURFACE_STYLE_USAGE ( .BOTH. , #1 ) ;
#51 = LENGTH_MEASURE_WITH_UNIT ( LENGTH_MEASURE( 0.02539999999999999897 ), #191 );
#52 =( NAMED_UNIT ( * ) PLANE_ANGLE_UNIT ( ) SI_UNIT ( $, .RADIAN. ) );
#53 = APPLICATION_CONTEXT ( 'automotive_design' ) ;
#54 = DIRECTION ( 'NONE',  ( -1.000000000000000000, 0.000000000000000000, 0.000000000000000000 ) ) ;
#55 = CIRCLE ( 'NONE', #262, 0.3124999999999999445 ) ;
#56 = AXIS2_PLACEMENT_3D ( 'NONE', #109, #250, #311 ) ;
#57 = FACE_OUTER_BOUND ( 'NONE', #216, .T. ) ;
#58 = CARTESIAN_POINT ( 'NONE',  ( -0.3124999999999994449, 1.125000000000000222, 0.000000000000000000 ) ) ;
#59 = EDGE_LOOP ( 'NONE', ( #349, #266, #298, #177 ) ) ;
#60 = MECHANICAL_DESIGN_GEOMETRIC_PRESENTATION_REPRESENTATION (  '', ( #310 ), #10 ) ;
#61 = ADVANCED_FACE ( 'NONE', ( #79 ), #100, .T. ) ;
#62 = VERTEX_POINT ( 'NONE', #113 ) ;
#63 = DIRECTION ( 'NONE',  ( -1.000000000000000000, 0.000000000000000000, 0.000000000000000000 ) ) ;
#64 = VERTEX_POINT ( 'NONE', #58 ) ;
#65 = DIMENSIONAL_EXPONENTS ( 1.000000000000000000, 0.000000000000000000, 0.000000000000000000, 0.000000000000000000, 0.000000000000000000, 0.000000000000000000, 0.000000000000000000 ) ;
#66 = CIRCLE ( 'NONE', #179, 0.3125000000000000000 ) ;
#67 = DIRECTION ( 'NONE',  ( -1.232082441130762688E-16, 1.000000000000000000, -0.000000000000000000 ) ) ;
#68 = ORIENTED_EDGE ( 'NONE', *, *, #74, .F. ) ;
#69 = UNCERTAINTY_MEASURE_WITH_UNIT (LENGTH_MEASURE( 1.000000000000000082E-05 ), #308, 'distance_accuracy_value', 'NONE');
#70 = DIRECTION ( 'NONE',  ( 1.000000000000000000, 0.000000000000000000, 0.000000000000000000 ) ) ;
#71 = ORIENTED_EDGE ( 'NONE', *, *, #204, .T. ) ;
#72 = ORIENTED_EDGE ( 'NONE', *, *, #181, .T. ) ;
#73 = CIRCLE ( 'NONE', #130, 0.3124999999999996669 ) ;
#74 = EDGE_CURVE ( 'NONE', #64, #211, #344, .T. ) ;
#75 = CARTESIAN_POINT ( 'NONE',  ( 2.313872398111884625E-16, 1.125000000000000222, 0.000000000000000000 ) ) ;
#76 = PRODUCT_CONTEXT ( 'NONE', #53, 'mechanical' ) ;
#77 = ORIENTED_EDGE ( 'NONE', *, *, #372, .T. ) ;
#78 = SURFACE_STYLE_USAGE ( .BOTH. , #332 ) ;
#79 = FACE_OUTER_BOUND ( 'NONE', #20, .T. ) ;
#80 = EDGE_CURVE ( 'NONE', #152, #62, #66, .T. ) ;
#81 = FILL_AREA_STYLE_COLOUR ( '', #203 ) ;
#82 = CARTESIAN_POINT ( 'NONE',  ( 0.000000000000000000, 0.3125000000000000555, 0.000000000000000000 ) ) ;
#83 = MECHANICAL_DESIGN_GEOMETRIC_PRESENTATION_REPRESENTATION (  '', ( #175 ), #306 ) ;
#84 = SURFACE_SIDE_STYLE ('',( #343 ) ) ;
#85 = SURFACE_STYLE_FILL_AREA ( #365 ) ;
#86 = SURFACE_STYLE_FILL_AREA ( #46 ) ;
#87 =( NAMED_UNIT ( * ) PLANE_ANGLE_UNIT ( ) SI_UNIT ( $, .RADIAN. ) );
#88 = AXIS2_PLACEMENT_3D ( 'NONE', #190, #222, #226 ) ;
#89 = MANIFOLD_SOLID_BREP ( 'Revolve - Tool Body (Straight Shanked)', #304 ) ;
#90 = PRODUCT_DEFINITION ( 'UNKNOWN', '', #131, #316 ) ;
#91 = MECHANICAL_DESIGN_GEOMETRIC_PRESENTATION_REPRESENTATION (  '', ( #157 ), #289 ) ;
#92 = LENGTH_MEASURE_WITH_UNIT ( LENGTH_MEASURE( 0.02539999999999999897 ), #149 );
#93 = ORIENTED_EDGE ( 'NONE', *, *, #80, .T. ) ;
#94 = DIRECTION ( 'NONE',  ( 0.000000000000000000, 0.000000000000000000, -1.000000000000000000 ) ) ;
#95 = ADVANCED_BREP_SHAPE_REPRESENTATION ( '12407', ( #342, #89, #103 ), #38 ) ;
#96 = CLOSED_SHELL ( 'NONE', ( #198, #61, #313, #12, #329 ) ) ;
#97 = PRESENTATION_LAYER_ASSIGNMENT (  '', '', ( #37 ) ) ;
#98 = UNCERTAINTY_MEASURE_WITH_UNIT (LENGTH_MEASURE( 1.000000000000000082E-05 ), #346, 'distance_accuracy_value', 'NONE');
#99 = PRESENTATION_LAYER_ASSIGNMENT (  '', '', ( #21 ) ) ;
#100 = CYLINDRICAL_SURFACE ( 'NONE', #56, 0.3124999999999999445 ) ;
#101 = CARTESIAN_POINT ( 'NONE',  ( -6.123233995736758640E-17, 3.500000000000000000, 0.000000000000000000 ) ) ;
#102 = AXIS2_PLACEMENT_3D ( 'NONE', #143, #284, #141 ) ;
#103 = AXIS2_PLACEMENT_3D ( 'NONE', #360, #208, #70 ) ;
#104 = UNCERTAINTY_MEASURE_WITH_UNIT (LENGTH_MEASURE( 1.000000000000000082E-05 ), #256, 'distance_accuracy_value', 'NONE');
#105 = DIRECTION ( 'NONE',  ( -1.000000000000000000, 0.000000000000000000, 0.000000000000000000 ) ) ;
#106 = ADVANCED_FACE ( 'NONE', ( #57 ), #174, .T. ) ;
#107 = DIRECTION ( 'NONE',  ( 1.232082441130762688E-16, -1.000000000000000000, 0.000000000000000000 ) ) ;
#108 = DIRECTION ( 'NONE',  ( 0.000000000000000000, -0.000000000000000000, 1.000000000000000000 ) ) ;
#109 = CARTESIAN_POINT ( 'NONE',  ( 0.000000000000000000, 0.000000000000000000, 0.000000000000000000 ) ) ;
#110 =( NAMED_UNIT ( * ) SI_UNIT ( $, .STERADIAN. ) SOLID_ANGLE_UNIT ( ) );
#111 = STYLED_ITEM ( 'NONE', ( #158 ), #12 ) ;
#112 = SURFACE_STYLE_FILL_AREA ( #25 ) ;
#113 = CARTESIAN_POINT ( 'NONE',  ( 3.827021247335478926E-17, 0.3125000000000000555, 0.3125000000000000000 ) ) ;
#114 = AXIS2_PLACEMENT_3D ( 'NONE', #322, #294, #15 ) ;
#115 = EDGE_CURVE ( 'NONE', #245, #166, #229, .T. ) ;
#116 = ORIENTED_EDGE ( 'NONE', *, *, #220, .T. ) ;
#117 = EDGE_LOOP ( 'NONE', ( #353, #24, #206, #93 ) ) ;
#118 = CIRCLE ( 'NONE', #165, 0.3125000000000000000 ) ;
#119 = VERTEX_POINT ( 'NONE', #29 ) ;
#120 = CARTESIAN_POINT ( 'NONE',  ( 0.3125000000000000000, 0.3125000000000000555, 0.000000000000000000 ) ) ;
#121 = PRESENTATION_LAYER_ASSIGNMENT (  '', '', ( #175 ) ) ;
#122 = FACE_OUTER_BOUND ( 'NONE', #182, .T. ) ;
#123 = EDGE_CURVE ( 'NONE', #166, #245, #213, .T. ) ;
#124 = FILL_AREA_STYLE_COLOUR ( '', #338 ) ;
#125 = VERTEX_POINT ( 'NONE', #269 ) ;
#126 = DIRECTION ( 'NONE',  ( -1.232082441130762688E-16, 1.000000000000000000, -0.000000000000000000 ) ) ;
#127 = ORIENTED_EDGE ( 'NONE', *, *, #372, .F. ) ;
#128 = DIRECTION ( 'NONE',  ( -1.000000000000000000, 0.000000000000000000, 0.000000000000000000 ) ) ;
#129 = PLANE ( 'NONE',  #47 ) ;
#130 = AXIS2_PLACEMENT_3D ( 'NONE', #75, #326, #128 ) ;
#131 = PRODUCT_DEFINITION_FORMATION_WITH_SPECIFIED_SOURCE ( 'ANY', '', #223, .NOT_KNOWN. ) ;
#132 = CARTESIAN_POINT ( 'NONE',  ( -0.3124999999999998890, 3.500000000000000000, 0.000000000000000000 ) ) ;
#133 = LENGTH_MEASURE_WITH_UNIT ( LENGTH_MEASURE( 0.02539999999999999897 ), #40 );
#134 = PRODUCT_DEFINITION_SHAPE ( 'NONE', 'NONE',  #90 ) ;
#135 = FILL_AREA_STYLE_COLOUR ( '', #194 ) ;
#136 =( NAMED_UNIT ( * ) SI_UNIT ( $, .STERADIAN. ) SOLID_ANGLE_UNIT ( ) );
#137 =( CONVERSION_BASED_UNIT ( 'INCH', #369 ) LENGTH_UNIT ( ) NAMED_UNIT ( #65 ) );
#138 = SURFACE_STYLE_USAGE ( .BOTH. , #339 ) ;
#139 = AXIS2_PLACEMENT_3D ( 'NONE', #355, #368, #295 ) ;
#140 = EDGE_CURVE ( 'NONE', #211, #119, #34, .T. ) ;
#141 = DIRECTION ( 'NONE',  ( 0.000000000000000000, 0.000000000000000000, -1.000000000000000000 ) ) ;
#142 = CARTESIAN_POINT ( 'NONE',  ( -6.123233995736758640E-17, 3.500000000000000000, 0.000000000000000000 ) ) ;
#143 = CARTESIAN_POINT ( 'NONE',  ( 0.000000000000000000, 1.125000000000000000, 0.000000000000000000 ) ) ;
#144 = EDGE_CURVE ( 'NONE', #245, #62, #272, .T. ) ;
#145 = COLOUR_RGB ( '',1.000000000000000000, 0.000000000000000000, 0.000000000000000000 ) ;
#146 =( GEOMETRIC_REPRESENTATION_CONTEXT ( 3 ) GLOBAL_UNCERTAINTY_ASSIGNED_CONTEXT ( ( #69 ) ) GLOBAL_UNIT_ASSIGNED_CONTEXT ( ( #308, #336, #373 ) ) REPRESENTATION_CONTEXT ( 'NONE', 'WORKASPACE' ) );
#147 = DIRECTION ( 'NONE',  ( -1.232082441130762688E-16, 1.000000000000000000, -0.000000000000000000 ) ) ;
#148 = ORIENTED_EDGE ( 'NONE', *, *, #4, .F. ) ;
#149 =( LENGTH_UNIT ( ) NAMED_UNIT ( * ) SI_UNIT ( $, .METRE. ) );
#150 = VERTEX_POINT ( 'NONE', #200 ) ;
#151 = AXIS2_PLACEMENT_3D ( 'NONE', #48, #169, #279 ) ;
#152 = VERTEX_POINT ( 'NONE', #120 ) ;
#153 = ORIENTED_EDGE ( 'NONE', *, *, #49, .F. ) ;
#154 = DIMENSIONAL_EXPONENTS ( 1.000000000000000000, 0.000000000000000000, 0.000000000000000000, 0.000000000000000000, 0.000000000000000000, 0.000000000000000000, 0.000000000000000000 ) ;
#155 = ADVANCED_FACE ( 'NONE', ( #237 ), #183, .F. ) ;
#156 = CARTESIAN_POINT ( 'NONE',  ( 0.3124999999999997224, 3.500000000000000000, 3.827021247335476461E-17 ) ) ;
#157 = STYLED_ITEM ( 'NONE', ( #170 ), #61 ) ;
#158 = PRESENTATION_STYLE_ASSIGNMENT (( #270 ) ) ;
#159 = FILL_AREA_STYLE_COLOUR ( '', #145 ) ;
#160 = DIMENSIONAL_EXPONENTS ( 1.000000000000000000, 0.000000000000000000, 0.000000000000000000, 0.000000000000000000, 0.000000000000000000, 0.000000000000000000, 0.000000000000000000 ) ;
#161 = DIRECTION ( 'NONE',  ( -0.000000000000000000, -1.000000000000000000, -0.000000000000000000 ) ) ;
#162 =( LENGTH_UNIT ( ) NAMED_UNIT ( * ) SI_UNIT ( $, .METRE. ) );
#163 = CYLINDRICAL_SURFACE ( 'NONE', #221, 0.3124999999999998335 ) ;
#164 =( CONVERSION_BASED_UNIT ( 'INCH', #51 ) LENGTH_UNIT ( ) NAMED_UNIT ( #187 ) );
#165 = AXIS2_PLACEMENT_3D ( 'NONE', #212, #161, #359 ) ;
#166 = VERTEX_POINT ( 'NONE', #180 ) ;
#167 = AXIS2_PLACEMENT_3D ( 'NONE', #258, #314, #176 ) ;
#168 = UNCERTAINTY_MEASURE_WITH_UNIT (LENGTH_MEASURE( 1.000000000000000082E-05 ), #164, 'distance_accuracy_value', 'NONE');
#169 = DIRECTION ( 'NONE',  ( 0.000000000000000000, 0.000000000000000000, 1.000000000000000000 ) ) ;
#170 = PRESENTATION_STYLE_ASSIGNMENT (( #50 ) ) ;
#171 = PRESENTATION_STYLE_ASSIGNMENT (( #195 ) ) ;
#172 = FILL_AREA_STYLE_COLOUR ( '', #363 ) ;
#173 = CIRCLE ( 'NONE', #167, 0.3125000000000000000 ) ;
#174 = CYLINDRICAL_SURFACE ( 'NONE', #88, 0.3124999999999998335 ) ;
#175 = STYLED_ITEM ( 'NONE', ( #33 ), #198 ) ;
#176 = DIRECTION ( 'NONE',  ( 1.000000000000000000, 0.000000000000000000, -1.224646799147353207E-16 ) ) ;
#177 = ORIENTED_EDGE ( 'NONE', *, *, #204, .F. ) ;
#178 = LINE ( 'NONE', #132, #26 ) ;
#179 = AXIS2_PLACEMENT_3D ( 'NONE', #82, #228, #340 ) ;
#180 = CARTESIAN_POINT ( 'NONE',  ( 0.000000000000000000, 1.125000000000000000, -0.3124999999999998890 ) ) ;
#181 = EDGE_CURVE ( 'NONE', #152, #125, #276, .T. ) ;
#182 = EDGE_LOOP ( 'NONE', ( #13, #35, #7, #127, #186 ) ) ;
#183 = PLANE ( 'NONE',  #235 ) ;
#184 = CARTESIAN_POINT ( 'NONE',  ( 2.313872398111884625E-16, 1.125000000000000000, 0.000000000000000000 ) ) ;
#185 = COLOUR_RGB ( '',1.000000000000000000, 0.000000000000000000, 0.000000000000000000 ) ;
#186 = ORIENTED_EDGE ( 'NONE', *, *, #288, .F. ) ;
#187 = DIMENSIONAL_EXPONENTS ( 1.000000000000000000, 0.000000000000000000, 0.000000000000000000, 0.000000000000000000, 0.000000000000000000, 0.000000000000000000, 0.000000000000000000 ) ;
#188 = FILL_AREA_STYLE_COLOUR ( '', #315 ) ;
#189 = VECTOR ( 'NONE', #239, 39.37007874015748143 ) ;
#190 = CARTESIAN_POINT ( 'NONE',  ( -6.123233995736759873E-17, 3.500000000000000000, 0.000000000000000000 ) ) ;
#191 =( LENGTH_UNIT ( ) NAMED_UNIT ( * ) SI_UNIT ( $, .METRE. ) );
#192 = PRESENTATION_STYLE_ASSIGNMENT (( #78 ) ) ;
#193 = VECTOR ( 'NONE', #357, 39.37007874015748143 ) ;
#194 = COLOUR_RGB ( '',0.7921568627450980005, 0.8196078431372548767, 0.9333333333333333481 ) ;
#195 = SURFACE_STYLE_USAGE ( .BOTH. , #84 ) ;
#196 = VECTOR ( 'NONE', #67, 39.37007874015748143 ) ;
#197 = UNCERTAINTY_MEASURE_WITH_UNIT (LENGTH_MEASURE( 1.000000000000000082E-05 ), #350, 'distance_accuracy_value', 'NONE');
#198 = ADVANCED_FACE ( 'NONE', ( #233 ), #215, .T. ) ;
#199 = ORIENTED_EDGE ( 'NONE', *, *, #80, .F. ) ;
#200 = CARTESIAN_POINT ( 'NONE',  ( -0.3125000000000000000, 0.3125000000000000555, 3.827021247335477694E-17 ) ) ;
#201 = DIMENSIONAL_EXPONENTS ( 1.000000000000000000, 0.000000000000000000, 0.000000000000000000, 0.000000000000000000, 0.000000000000000000, 0.000000000000000000, 0.000000000000000000 ) ;
#202 = EDGE_LOOP ( 'NONE', ( #352, #209 ) ) ;
#203 = COLOUR_RGB ( '',1.000000000000000000, 0.000000000000000000, 0.000000000000000000 ) ;
#204 = EDGE_CURVE ( 'NONE', #64, #214, #178, .T. ) ;
#205 =( NAMED_UNIT ( * ) PLANE_ANGLE_UNIT ( ) SI_UNIT ( $, .RADIAN. ) );
#206 = ORIENTED_EDGE ( 'NONE', *, *, #181, .F. ) ;
#207 = DIRECTION ( 'NONE',  ( -1.000000000000000000, -1.232082441130762688E-16, 0.000000000000000000 ) ) ;
#208 = DIRECTION ( 'NONE',  ( 0.000000000000000000, 0.000000000000000000, 1.000000000000000000 ) ) ;
#209 = ORIENTED_EDGE ( 'NONE', *, *, #115, .F. ) ;
#210 = DIMENSIONAL_EXPONENTS ( 1.000000000000000000, 0.000000000000000000, 0.000000000000000000, 0.000000000000000000, 0.000000000000000000, 0.000000000000000000, 0.000000000000000000 ) ;
#211 = VERTEX_POINT ( 'NONE', #367 ) ;
#212 = CARTESIAN_POINT ( 'NONE',  ( 0.000000000000000000, 0.3125000000000000555, 0.000000000000000000 ) ) ;
#213 = CIRCLE ( 'NONE', #32, 0.3124999999999998890 ) ;
#214 = VERTEX_POINT ( 'NONE', #22 ) ;
#215 = SPHERICAL_SURFACE ( 'NONE', #230, 0.3125000000000000000 ) ;
#216 = EDGE_LOOP ( 'NONE', ( #18, #116, #71, #153 ) ) ;
#217 = CARTESIAN_POINT ( 'NONE',  ( -6.123233995736759873E-17, 3.500000000000000000, 0.000000000000000000 ) ) ;
#218 = FILL_AREA_STYLE_COLOUR ( '', #185 ) ;
#219 = FILL_AREA_STYLE ('',( #172 ) ) ;
#220 = EDGE_CURVE ( 'NONE', #211, #64, #73, .T. ) ;
#221 = AXIS2_PLACEMENT_3D ( 'NONE', #217, #246, #105 ) ;
#222 = DIRECTION ( 'NONE',  ( -1.232082441130762688E-16, 1.000000000000000000, -0.000000000000000000 ) ) ;
#223 = PRODUCT ( '12407', '12407', '', ( #76 ) ) ;
#224 = CIRCLE ( 'NONE', #271, 0.3125000000000000000 ) ;
#225 = SURFACE_SIDE_STYLE ('',( #112 ) ) ;
#226 = DIRECTION ( 'NONE',  ( -1.000000000000000000, 0.000000000000000000, 0.000000000000000000 ) ) ;
#227 = CARTESIAN_POINT ( 'NONE',  ( 2.313872398111884625E-16, 1.125000000000000222, 0.000000000000000000 ) ) ;
#228 = DIRECTION ( 'NONE',  ( -0.000000000000000000, -1.000000000000000000, -0.000000000000000000 ) ) ;
#229 = CIRCLE ( 'NONE', #102, 0.3124999999999998890 ) ;
#230 = AXIS2_PLACEMENT_3D ( 'NONE', #301, #242, #44 ) ;
#231 = LENGTH_MEASURE_WITH_UNIT ( LENGTH_MEASURE( 0.02539999999999999897 ), #260 );
#232 =( NAMED_UNIT ( * ) SI_UNIT ( $, .STERADIAN. ) SOLID_ANGLE_UNIT ( ) );
#233 = FACE_OUTER_BOUND ( 'NONE', #117, .T. ) ;
#234 = EDGE_LOOP ( 'NONE', ( #261, #334 ) ) ;
#235 = AXIS2_PLACEMENT_3D ( 'NONE', #184, #39, #207 ) ;
#236 = AXIS2_PLACEMENT_3D ( 'NONE', #142, #147, #63 ) ;
#237 = FACE_OUTER_BOUND ( 'NONE', #300, .T. ) ;
#238 = SURFACE_SIDE_STYLE ('',( #278 ) ) ;
#239 = DIRECTION ( 'NONE',  ( -0.000000000000000000, -1.000000000000000000, -0.000000000000000000 ) ) ;
#240 = DIRECTION ( 'NONE',  ( -1.000000000000000000, 0.000000000000000000, 0.000000000000000000 ) ) ;
#241 =( NAMED_UNIT ( * ) SI_UNIT ( $, .STERADIAN. ) SOLID_ANGLE_UNIT ( ) );
#242 = DIRECTION ( 'NONE',  ( 0.000000000000000000, 0.000000000000000000, 1.000000000000000000 ) ) ;
#243 = MECHANICAL_DESIGN_GEOMETRIC_PRESENTATION_REPRESENTATION (  '', ( #111 ), #324 ) ;
#244 = CARTESIAN_POINT ( 'NONE',  ( 0.000000000000000000, 1.125000000000000000, 0.000000000000000000 ) ) ;
#245 = VERTEX_POINT ( 'NONE', #364 ) ;
#246 = DIRECTION ( 'NONE',  ( -1.232082441130762688E-16, 1.000000000000000000, -0.000000000000000000 ) ) ;
#247 = PRESENTATION_STYLE_ASSIGNMENT (( #138 ) ) ;
#248 =( NAMED_UNIT ( * ) PLANE_ANGLE_UNIT ( ) SI_UNIT ( $, .RADIAN. ) );
#249 = DIRECTION ( 'NONE',  ( 0.000000000000000000, 0.000000000000000000, -1.000000000000000000 ) ) ;
#250 = DIRECTION ( 'NONE',  ( -0.000000000000000000, -1.000000000000000000, -0.000000000000000000 ) ) ;
#251 = FACE_OUTER_BOUND ( 'NONE', #287, .T. ) ;
#252 = LENGTH_MEASURE_WITH_UNIT ( LENGTH_MEASURE( 0.02539999999999999897 ), #280 );
#253 =( NAMED_UNIT ( * ) SI_UNIT ( $, .STERADIAN. ) SOLID_ANGLE_UNIT ( ) );
#254 = CARTESIAN_POINT ( 'NONE',  ( 0.000000000000000000, 1.125000000000000000, 0.000000000000000000 ) ) ;
#255 = CARTESIAN_POINT ( 'NONE',  ( 0.000000000000000000, 0.3125000000000000555, 0.000000000000000000 ) ) ;
#256 =( CONVERSION_BASED_UNIT ( 'INCH', #252 ) LENGTH_UNIT ( ) NAMED_UNIT ( #358 ) );
#257 = PRESENTATION_LAYER_ASSIGNMENT (  '', '', ( #285 ) ) ;
#258 = CARTESIAN_POINT ( 'NONE',  ( -3.827021247335478926E-17, 0.3125000000000000000, 0.000000000000000000 ) ) ;
#259 = ORIENTED_EDGE ( 'NONE', *, *, #220, .F. ) ;
#260 =( LENGTH_UNIT ( ) NAMED_UNIT ( * ) SI_UNIT ( $, .METRE. ) );
#261 = ORIENTED_EDGE ( 'NONE', *, *, #354, .T. ) ;
#262 = AXIS2_PLACEMENT_3D ( 'NONE', #101, #16, #240 ) ;
#263 = AXIS2_PLACEMENT_3D ( 'NONE', #227, #283, #54 ) ;
#264 = MECHANICAL_DESIGN_GEOMETRIC_PRESENTATION_REPRESENTATION (  '', ( #21 ), #325 ) ;
#265 = ADVANCED_FACE ( 'NONE', ( #41 ), #274, .F. ) ;
#266 = ORIENTED_EDGE ( 'NONE', *, *, #140, .T. ) ;
#267 =( CONVERSION_BASED_UNIT ( 'INCH', #351 ) LENGTH_UNIT ( ) NAMED_UNIT ( #319 ) );
#268 = ORIENTED_EDGE ( 'NONE', *, *, #302, .F. ) ;
#269 = CARTESIAN_POINT ( 'NONE',  ( -1.913510623667739463E-17, 0.000000000000000000, 0.000000000000000000 ) ) ;
#270 = SURFACE_STYLE_USAGE ( .BOTH. , #238 ) ;
#271 = AXIS2_PLACEMENT_3D ( 'NONE', #255, #317, #5 ) ;
#272 = LINE ( 'NONE', #292, #189 ) ;
#273 = CARTESIAN_POINT ( 'NONE',  ( 0.000000000000000000, 0.3125000000000000555, 0.000000000000000000 ) ) ;
#274 = PLANE ( 'NONE',  #320 ) ;
#275 = UNCERTAINTY_MEASURE_WITH_UNIT (LENGTH_MEASURE( 1.000000000000000082E-05 ), #321, 'distance_accuracy_value', 'NONE');
#276 = CIRCLE ( 'NONE', #114, 0.3125000000000000000 ) ;
#277 = DIRECTION ( 'NONE',  ( 0.000000000000000000, 1.000000000000000000, 0.000000000000000000 ) ) ;
#278 = SURFACE_STYLE_FILL_AREA ( #36 ) ;
#279 = DIRECTION ( 'NONE',  ( 1.000000000000000000, 0.000000000000000000, 0.000000000000000000 ) ) ;
#280 =( LENGTH_UNIT ( ) NAMED_UNIT ( * ) SI_UNIT ( $, .METRE. ) );
#281 = PRODUCT_RELATED_PRODUCT_CATEGORY ( 'part', '', ( #223 ) ) ;
#282 = AXIS2_PLACEMENT_3D ( 'NONE', #273, #17, #249 ) ;
#283 = DIRECTION ( 'NONE',  ( -1.232082441130762688E-16, 1.000000000000000000, -0.000000000000000000 ) ) ;
#284 = DIRECTION ( 'NONE',  ( -0.000000000000000000, -1.000000000000000000, -0.000000000000000000 ) ) ;
#285 = STYLED_ITEM ( 'NONE', ( #192 ), #329 ) ;
#286 = ADVANCED_FACE ( 'NONE', ( #335 ), #163, .T. ) ;
#287 = EDGE_LOOP ( 'NONE', ( #328, #77, #303, #72 ) ) ;
#288 = EDGE_CURVE ( 'NONE', #62, #150, #118, .T. ) ;
#289 =( GEOMETRIC_REPRESENTATION_CONTEXT ( 3 ) GLOBAL_UNCERTAINTY_ASSIGNED_CONTEXT ( ( #104 ) ) GLOBAL_UNIT_ASSIGNED_CONTEXT ( ( #256, #307, #309 ) ) REPRESENTATION_CONTEXT ( 'NONE', 'WORKASPACE' ) );
#290 =( GEOMETRIC_REPRESENTATION_CONTEXT ( 3 ) GLOBAL_UNCERTAINTY_ASSIGNED_CONTEXT ( ( #305 ) ) GLOBAL_UNIT_ASSIGNED_CONTEXT ( ( #137, #87, #253 ) ) REPRESENTATION_CONTEXT ( 'NONE', 'WORKASPACE' ) );
#291 = SURFACE_STYLE_USAGE ( .BOTH. , #296 ) ;
#292 = CARTESIAN_POINT ( 'NONE',  ( 3.827021247335477694E-17, 0.000000000000000000, 0.3124999999999999445 ) ) ;
#293 = CARTESIAN_POINT ( 'NONE',  ( 0.000000000000000000, 0.3125000000000000555, -0.3125000000000000000 ) ) ;
#294 = DIRECTION ( 'NONE',  ( 0.000000000000000000, 0.000000000000000000, -1.000000000000000000 ) ) ;
#295 = DIRECTION ( 'NONE',  ( 0.000000000000000000, 0.000000000000000000, -1.000000000000000000 ) ) ;
#296 = SURFACE_SIDE_STYLE ('',( #318 ) ) ;
#297 = SHAPE_DEFINITION_REPRESENTATION ( #134, #95 ) ;
#298 = ORIENTED_EDGE ( 'NONE', *, *, #354, .F. ) ;
#299 =( NAMED_UNIT ( * ) SI_UNIT ( $, .STERADIAN. ) SOLID_ANGLE_UNIT ( ) );
#300 = EDGE_LOOP ( 'NONE', ( #68, #259 ) ) ;
#301 = CARTESIAN_POINT ( 'NONE',  ( -3.827021247335478926E-17, 0.3125000000000000000, 0.000000000000000000 ) ) ;
#302 = EDGE_CURVE ( 'NONE', #11, #152, #371, .T. ) ;
#303 = ORIENTED_EDGE ( 'NONE', *, *, #302, .T. ) ;
#304 = CLOSED_SHELL ( 'NONE', ( #286, #155, #106, #265 ) ) ;
#305 = UNCERTAINTY_MEASURE_WITH_UNIT (LENGTH_MEASURE( 1.000000000000000082E-05 ), #137, 'distance_accuracy_value', 'NONE');
#306 =( GEOMETRIC_REPRESENTATION_CONTEXT ( 3 ) GLOBAL_UNCERTAINTY_ASSIGNED_CONTEXT ( ( #330 ) ) GLOBAL_UNIT_ASSIGNED_CONTEXT ( ( #267, #205, #299 ) ) REPRESENTATION_CONTEXT ( 'NONE', 'WORKASPACE' ) );
#307 =( NAMED_UNIT ( * ) PLANE_ANGLE_UNIT ( ) SI_UNIT ( $, .RADIAN. ) );
#308 =( CONVERSION_BASED_UNIT ( 'INCH', #45 ) LENGTH_UNIT ( ) NAMED_UNIT ( #154 ) );
#309 =( NAMED_UNIT ( * ) SI_UNIT ( $, .STERADIAN. ) SOLID_ANGLE_UNIT ( ) );
#310 = STYLED_ITEM ( 'NONE', ( #247 ), #313 ) ;
#311 = DIRECTION ( 'NONE',  ( 0.000000000000000000, 0.000000000000000000, -1.000000000000000000 ) ) ;
#312 =( LENGTH_UNIT ( ) NAMED_UNIT ( * ) SI_UNIT ( $, .METRE. ) );
#313 = ADVANCED_FACE ( 'NONE', ( #341 ), #129, .T. ) ;
#314 = DIRECTION ( 'NONE',  ( 1.224646799147353207E-16, -0.000000000000000000, 1.000000000000000000 ) ) ;
#315 = COLOUR_RGB ( '',1.000000000000000000, 0.000000000000000000, 0.000000000000000000 ) ;
#316 = PRODUCT_DEFINITION_CONTEXT ( 'detailed design', #28, 'design' ) ;
#317 = DIRECTION ( 'NONE',  ( -0.000000000000000000, -1.000000000000000000, -0.000000000000000000 ) ) ;
#318 = SURFACE_STYLE_FILL_AREA ( #356 ) ;
#319 = DIMENSIONAL_EXPONENTS ( 1.000000000000000000, 0.000000000000000000, 0.000000000000000000, 0.000000000000000000, 0.000000000000000000, 0.000000000000000000, 0.000000000000000000 ) ;
#320 = AXIS2_PLACEMENT_3D ( 'NONE', #331, #107, #19 ) ;
#321 =( CONVERSION_BASED_UNIT ( 'INCH', #133 ) LENGTH_UNIT ( ) NAMED_UNIT ( #201 ) );
#322 = CARTESIAN_POINT ( 'NONE',  ( -3.827021247335478926E-17, 0.3125000000000000000, 0.000000000000000000 ) ) ;
#323 = CARTESIAN_POINT ( 'NONE',  ( 0.000000000000000000, 0.000000000000000000, -0.3124999999999999445 ) ) ;
#324 =( GEOMETRIC_REPRESENTATION_CONTEXT ( 3 ) GLOBAL_UNCERTAINTY_ASSIGNED_CONTEXT ( ( #275 ) ) GLOBAL_UNIT_ASSIGNED_CONTEXT ( ( #321, #248, #241 ) ) REPRESENTATION_CONTEXT ( 'NONE', 'WORKASPACE' ) );
#325 =( GEOMETRIC_REPRESENTATION_CONTEXT ( 3 ) GLOBAL_UNCERTAINTY_ASSIGNED_CONTEXT ( ( #98 ) ) GLOBAL_UNIT_ASSIGNED_CONTEXT ( ( #346, #347, #232 ) ) REPRESENTATION_CONTEXT ( 'NONE', 'WORKASPACE' ) );
#326 = DIRECTION ( 'NONE',  ( -1.232082441130762688E-16, 1.000000000000000000, -0.000000000000000000 ) ) ;
#327 = SPHERICAL_SURFACE ( 'NONE', #151, 0.3125000000000000000 ) ;
#328 = ORIENTED_EDGE ( 'NONE', *, *, #361, .F. ) ;
#329 = ADVANCED_FACE ( 'NONE', ( #251 ), #327, .T. ) ;
#330 = UNCERTAINTY_MEASURE_WITH_UNIT (LENGTH_MEASURE( 1.000000000000000082E-05 ), #267, 'distance_accuracy_value', 'NONE');
#331 = CARTESIAN_POINT ( 'NONE',  ( 0.3124999999999998890, 3.500000000000000000, 0.000000000000000000 ) ) ;
#332 = SURFACE_SIDE_STYLE ('',( #42 ) ) ;
#333 =( NAMED_UNIT ( * ) PLANE_ANGLE_UNIT ( ) SI_UNIT ( $, .RADIAN. ) );
#334 = ORIENTED_EDGE ( 'NONE', *, *, #49, .T. ) ;
#335 = FACE_OUTER_BOUND ( 'NONE', #59, .T. ) ;
#336 =( NAMED_UNIT ( * ) PLANE_ANGLE_UNIT ( ) SI_UNIT ( $, .RADIAN. ) );
#337 = APPLICATION_PROTOCOL_DEFINITION ( 'draft international standard', 'automotive_design', 1998, #53 ) ;
#338 = COLOUR_RGB ( '',1.000000000000000000, 0.000000000000000000, 0.000000000000000000 ) ;
#339 = SURFACE_SIDE_STYLE ('',( #85 ) ) ;
#340 = DIRECTION ( 'NONE',  ( 0.000000000000000000, 0.000000000000000000, -1.000000000000000000 ) ) ;
#341 = FACE_OUTER_BOUND ( 'NONE', #202, .T. ) ;
#342 = MANIFOLD_SOLID_BREP ( 'Revolve - Cutting Edge', #96 ) ;
#343 = SURFACE_STYLE_FILL_AREA ( #219 ) ;
#344 = CIRCLE ( 'NONE', #263, 0.3124999999999996669 ) ;
#345 = PRESENTATION_LAYER_ASSIGNMENT (  '', '', ( #310 ) ) ;
#346 =( CONVERSION_BASED_UNIT ( 'INCH', #92 ) LENGTH_UNIT ( ) NAMED_UNIT ( #210 ) );
#347 =( NAMED_UNIT ( * ) PLANE_ANGLE_UNIT ( ) SI_UNIT ( $, .RADIAN. ) );
#348 = MECHANICAL_DESIGN_GEOMETRIC_PRESENTATION_REPRESENTATION (  '', ( #37 ), #290 ) ;
#349 = ORIENTED_EDGE ( 'NONE', *, *, #74, .T. ) ;
#350 =( CONVERSION_BASED_UNIT ( 'INCH', #231 ) LENGTH_UNIT ( ) NAMED_UNIT ( #160 ) );
#351 = LENGTH_MEASURE_WITH_UNIT ( LENGTH_MEASURE( 0.02539999999999999897 ), #9 );
#352 = ORIENTED_EDGE ( 'NONE', *, *, #123, .F. ) ;
#353 = ORIENTED_EDGE ( 'NONE', *, *, #288, .T. ) ;
#354 = EDGE_CURVE ( 'NONE', #214, #119, #14, .T. ) ;
#355 = CARTESIAN_POINT ( 'NONE',  ( 0.000000000000000000, 0.000000000000000000, 0.000000000000000000 ) ) ;
#356 = FILL_AREA_STYLE ('',( #124 ) ) ;
#357 = DIRECTION ( 'NONE',  ( -0.000000000000000000, -1.000000000000000000, -0.000000000000000000 ) ) ;
#358 = DIMENSIONAL_EXPONENTS ( 1.000000000000000000, 0.000000000000000000, 0.000000000000000000, 0.000000000000000000, 0.000000000000000000, 0.000000000000000000, 0.000000000000000000 ) ;
#359 = DIRECTION ( 'NONE',  ( 0.000000000000000000, 0.000000000000000000, -1.000000000000000000 ) ) ;
#360 = CARTESIAN_POINT ( 'NONE',  ( 0.000000000000000000, 0.000000000000000000, 0.000000000000000000 ) ) ;
#361 = EDGE_CURVE ( 'NONE', #150, #125, #173, .T. ) ;
#362 = CYLINDRICAL_SURFACE ( 'NONE', #139, 0.3124999999999999445 ) ;
#363 = COLOUR_RGB ( '',0.7921568627450980005, 0.8196078431372548767, 0.9333333333333333481 ) ;
#364 = CARTESIAN_POINT ( 'NONE',  ( 3.827021247335477694E-17, 1.125000000000000000, 0.3124999999999998890 ) ) ;
#365 = FILL_AREA_STYLE ('',( #81 ) ) ;
#366 = APPLICATION_PROTOCOL_DEFINITION ( 'draft international standard', 'automotive_design', 1998, #28 ) ;
#367 = CARTESIAN_POINT ( 'NONE',  ( 0.3124999999999998890, 1.125000000000000222, 3.827021247335477078E-17 ) ) ;
#368 = DIRECTION ( 'NONE',  ( -0.000000000000000000, -1.000000000000000000, -0.000000000000000000 ) ) ;
#369 = LENGTH_MEASURE_WITH_UNIT ( LENGTH_MEASURE( 0.02539999999999999897 ), #312 );
#370 = PRESENTATION_LAYER_ASSIGNMENT (  '', '', ( #157 ) ) ;
#371 = CIRCLE ( 'NONE', #282, 0.3125000000000000000 ) ;
#372 = EDGE_CURVE ( 'NONE', #150, #11, #224, .T. ) ;
#373 =( NAMED_UNIT ( * ) SI_UNIT ( $, .STERADIAN. ) SOLID_ANGLE_UNIT ( ) );
ENDSEC;
END-ISO-10303-21;
