ISO-10303-21;
HEADER;
FILE_DESCRIPTION (( 'STEP AP214' ),
    '1' );
FILE_NAME ('Micro_RNC-250-1X.STEP',
    '2021-09-03T17:35:40',
    ( '' ),
    ( '' ),
    'SwSTEP 2.0',
    'SolidWorks 2020',
    '' );
FILE_SCHEMA (( 'AUTOMOTIVE_DESIGN' ));
ENDSEC;

DATA;
#1 = CARTESIAN_POINT ( 'NONE',  ( 0.0000000000000000000, 0.0000000000000000000, 0.0000000000000000000 ) ) ;
#2 = PRESENTATION_STYLE_ASSIGNMENT (( #194 ) ) ;
#3 = ORIENTED_EDGE ( 'NONE', *, *, #63, .F. ) ;
#4 = VERTEX_POINT ( 'NONE', #203 ) ;
#5 = EDGE_CURVE ( 'NONE', #233, #164, #75, .T. ) ;
#6 = VERTEX_POINT ( 'NONE', #142 ) ;
#7 = ORIENTED_EDGE ( 'NONE', *, *, #90, .F. ) ;
#8 = CARTESIAN_POINT ( 'NONE',  ( 0.0000000000000000000, 0.0000000000000000000, 0.0000000000000000000 ) ) ;
#9 = PRODUCT ( 'Micro_RNC-250-1X', 'Micro_RNC-250-1X', '', ( #128 ) ) ;
#10 =( GEOMETRIC_REPRESENTATION_CONTEXT ( 3 ) GLOBAL_UNCERTAINTY_ASSIGNED_CONTEXT ( ( #56 ) ) GLOBAL_UNIT_ASSIGNED_CONTEXT ( ( #127, #158, #172 ) ) REPRESENTATION_CONTEXT ( 'NONE', 'WORKASPACE' ) );
#11 = DIRECTION ( 'NONE',  ( 0.0000000000000000000, 0.0000000000000000000, -1.000000000000000000 ) ) ;
#12 = PRODUCT_DEFINITION ( 'UNKNOWN', '', #86, #28 ) ;
#13 = DIRECTION ( 'NONE',  ( 0.0000000000000000000, 0.0000000000000000000, 1.000000000000000000 ) ) ;
#14 = CARTESIAN_POINT ( 'NONE',  ( -0.1250000000000000000, 0.0000000000000000000, 2.485000000000000320 ) ) ;
#15 = APPLICATION_CONTEXT ( 'automotive_design' ) ;
#16 = APPLICATION_PROTOCOL_DEFINITION ( 'draft international standard', 'automotive_design', 1998, #41 ) ;
#17 = MECHANICAL_DESIGN_GEOMETRIC_PRESENTATION_REPRESENTATION (  '', ( #31 ), #163 ) ;
#18 = CARTESIAN_POINT ( 'NONE',  ( 0.1250000000000000000, 1.530808498934191509E-17, 0.1209999999999995107 ) ) ;
#19 = CARTESIAN_POINT ( 'NONE',  ( 0.0000000000000000000, 0.0000000000000000000, 0.0000000000000000000 ) ) ;
#20 = ADVANCED_FACE ( 'NONE', ( #228 ), #199, .F. ) ;
#21 = DIRECTION ( 'NONE',  ( -1.000000000000000000, 0.0000000000000000000, 0.0000000000000000000 ) ) ;
#22 = AXIS2_PLACEMENT_3D ( 'NONE', #1, #211, #157 ) ;
#23 = DIRECTION ( 'NONE',  ( 1.000000000000000000, 0.0000000000000000000, 0.0000000000000000000 ) ) ;
#24 = CIRCLE ( 'NONE', #22, 0.003999999999999999216 ) ;
#25 = DIRECTION ( 'NONE',  ( 1.000000000000000000, 0.0000000000000000000, 0.0000000000000000000 ) ) ;
#26 = FACE_OUTER_BOUND ( 'NONE', #46, .T. ) ;
#27 = CARTESIAN_POINT ( 'NONE',  ( 0.0000000000000000000, 0.0000000000000000000, 2.500000000000000000 ) ) ;
#28 = PRODUCT_DEFINITION_CONTEXT ( 'detailed design', #41, 'design' ) ;
#29 = CARTESIAN_POINT ( 'NONE',  ( 0.0000000000000000000, 0.0000000000000000000, 2.500000000000000000 ) ) ;
#30 = CARTESIAN_POINT ( 'NONE',  ( 0.0000000000000000000, 0.0000000000000000000, 2.500000000000000000 ) ) ;
#31 = STYLED_ITEM ( 'NONE', ( #2 ), #170 ) ;
#32 = APPLICATION_PROTOCOL_DEFINITION ( 'draft international standard', 'automotive_design', 1998, #15 ) ;
#33 =( LENGTH_UNIT ( ) NAMED_UNIT ( * ) SI_UNIT ( $, .METRE. ) );
#34 = EDGE_LOOP ( 'NONE', ( #198, #70, #234, #116 ) ) ;
#35 = CARTESIAN_POINT ( 'NONE',  ( 0.0000000000000000000, 0.0000000000000000000, 2.500000000000000000 ) ) ;
#36 = DIRECTION ( 'NONE',  ( 1.000000000000000000, 0.0000000000000000000, 0.0000000000000000000 ) ) ;
#37 = AXIS2_PLACEMENT_3D ( 'NONE', #150, #50, #224 ) ;
#38 = COLOUR_RGB ( '',0.7921568627450980005, 0.8196078431372548767, 0.9333333333333333481 ) ;
#39 = FACE_OUTER_BOUND ( 'NONE', #43, .T. ) ;
#40 = CARTESIAN_POINT ( 'NONE',  ( -0.1100000000000001948, 0.0000000000000000000, 2.500000000000000000 ) ) ;
#41 = APPLICATION_CONTEXT ( 'automotive_design' ) ;
#42 = ADVANCED_FACE ( 'NONE', ( #57 ), #187, .T. ) ;
#43 = EDGE_LOOP ( 'NONE', ( #176, #220, #3, #111 ) ) ;
#44 = DIRECTION ( 'NONE',  ( -1.000000000000000000, 0.0000000000000000000, 0.0000000000000000000 ) ) ;
#45 = VECTOR ( 'NONE', #154, 39.37007874015748143 ) ;
#46 = EDGE_LOOP ( 'NONE', ( #7, #138, #84, #136 ) ) ;
#47 = DIRECTION ( 'NONE',  ( -0.0000000000000000000, -0.0000000000000000000, -1.000000000000000000 ) ) ;
#48 = AXIS2_PLACEMENT_3D ( 'NONE', #35, #153, #23 ) ;
#49 = ORIENTED_EDGE ( 'NONE', *, *, #230, .F. ) ;
#50 = DIRECTION ( 'NONE',  ( -0.0000000000000000000, -0.0000000000000000000, -1.000000000000000000 ) ) ;
#51 = ORIENTED_EDGE ( 'NONE', *, *, #230, .T. ) ;
#52 = AXIS2_PLACEMENT_3D ( 'NONE', #247, #132, #209 ) ;
#53 = CONICAL_SURFACE ( 'NONE', #58, 0.1100000000000001948, 0.7853981633974517207 ) ;
#54 = STYLED_ITEM ( 'NONE', ( #227 ), #69 ) ;
#55 = ADVANCED_FACE ( 'NONE', ( #26 ), #76, .T. ) ;
#56 = UNCERTAINTY_MEASURE_WITH_UNIT (LENGTH_MEASURE( 1.000000000000000082E-05 ), #127, 'distance_accuracy_value', 'NONE');
#57 = FACE_OUTER_BOUND ( 'NONE', #34, .T. ) ;
#58 = AXIS2_PLACEMENT_3D ( 'NONE', #79, #134, #44 ) ;
#59 = DIRECTION ( 'NONE',  ( 0.0000000000000000000, 0.0000000000000000000, 1.000000000000000000 ) ) ;
#60 = FILL_AREA_STYLE ('',( #96 ) ) ;
#61 = DIRECTION ( 'NONE',  ( -0.0000000000000000000, -0.0000000000000000000, -1.000000000000000000 ) ) ;
#62 = VECTOR ( 'NONE', #155, 39.37007874015748143 ) ;
#63 = EDGE_CURVE ( 'NONE', #118, #233, #239, .T. ) ;
#64 = LINE ( 'NONE', #66, #125 ) ;
#65 = EDGE_LOOP ( 'NONE', ( #179, #202 ) ) ;
#66 = CARTESIAN_POINT ( 'NONE',  ( 0.003999999999999999216, 0.0000000000000000000, 0.0000000000000000000 ) ) ;
#67 = VERTEX_POINT ( 'NONE', #92 ) ;
#68 = ADVANCED_FACE ( 'NONE', ( #104 ), #182, .T. ) ;
#69 = ADVANCED_BREP_SHAPE_REPRESENTATION ( 'Micro_RNC-250-1X', ( #170, #213 ), #205 ) ;
#70 = ORIENTED_EDGE ( 'NONE', *, *, #5, .T. ) ;
#71 = AXIS2_PLACEMENT_3D ( 'NONE', #8, #13, #223 ) ;
#72 = LINE ( 'NONE', #105, #94 ) ;
#73 = DIRECTION ( 'NONE',  ( -0.7071067811865490160, 8.659560562354951347E-17, 0.7071067811865460184 ) ) ;
#74 = CONICAL_SURFACE ( 'NONE', #212, 0.1100000000000001948, 0.7853981633974517207 ) ;
#75 = LINE ( 'NONE', #88, #177 ) ;
#76 = CONICAL_SURFACE ( 'NONE', #130, 0.003999999999999999216, 0.7853981633974503884 ) ;
#77 = CARTESIAN_POINT ( 'NONE',  ( 0.0000000000000000000, 0.0000000000000000000, 0.0000000000000000000 ) ) ;
#78 = PRESENTATION_LAYER_ASSIGNMENT (  '', '', ( #54 ) ) ;
#79 = CARTESIAN_POINT ( 'NONE',  ( 0.0000000000000000000, 0.0000000000000000000, 2.500000000000000000 ) ) ;
#80 = DIRECTION ( 'NONE',  ( 0.7071067811865499042, 8.659560562354961208E-17, -0.7071067811865451302 ) ) ;
#81 = EDGE_LOOP ( 'NONE', ( #160, #195, #190, #49 ) ) ;
#82 = SURFACE_SIDE_STYLE ('',( #174 ) ) ;
#83 =( NAMED_UNIT ( * ) SI_UNIT ( $, .STERADIAN. ) SOLID_ANGLE_UNIT ( ) );
#84 = ORIENTED_EDGE ( 'NONE', *, *, #236, .T. ) ;
#85 = CLOSED_SHELL ( 'NONE', ( #201, #197, #42, #68, #243, #103, #55, #20 ) ) ;
#86 = PRODUCT_DEFINITION_FORMATION_WITH_SPECIFIED_SOURCE ( 'ANY', '', #9, .NOT_KNOWN. ) ;
#87 = EDGE_LOOP ( 'NONE', ( #215, #241 ) ) ;
#88 = CARTESIAN_POINT ( 'NONE',  ( 0.1250000000000000000, 1.530808498934191509E-17, 2.500000000000000000 ) ) ;
#89 = CARTESIAN_POINT ( 'NONE',  ( 0.0000000000000000000, 0.0000000000000000000, 0.1209999999999995107 ) ) ;
#90 = EDGE_CURVE ( 'NONE', #4, #218, #72, .T. ) ;
#91 =( NAMED_UNIT ( * ) SI_UNIT ( $, .STERADIAN. ) SOLID_ANGLE_UNIT ( ) );
#92 = CARTESIAN_POINT ( 'NONE',  ( 0.003999999999999999216, 0.0000000000000000000, 0.0000000000000000000 ) ) ;
#93 =( CONVERSION_BASED_UNIT ( 'INCH', #189 ) LENGTH_UNIT ( ) NAMED_UNIT ( #131 ) );
#94 = VECTOR ( 'NONE', #73, 39.37007874015748143 ) ;
#95 = DIRECTION ( 'NONE',  ( -0.0000000000000000000, -0.0000000000000000000, -1.000000000000000000 ) ) ;
#96 = FILL_AREA_STYLE_COLOUR ( '', #139 ) ;
#97 = AXIS2_PLACEMENT_3D ( 'NONE', #135, #59, #36 ) ;
#98 = LINE ( 'NONE', #40, #62 ) ;
#99 = EDGE_CURVE ( 'NONE', #164, #218, #181, .T. ) ;
#100 = CARTESIAN_POINT ( 'NONE',  ( -0.1250000000000000000, 0.0000000000000000000, 2.500000000000000000 ) ) ;
#101 = DIRECTION ( 'NONE',  ( 0.0000000000000000000, 0.0000000000000000000, 1.000000000000000000 ) ) ;
#102 = FACE_OUTER_BOUND ( 'NONE', #87, .T. ) ;
#103 = ADVANCED_FACE ( 'NONE', ( #122 ), #74, .T. ) ;
#104 = FACE_OUTER_BOUND ( 'NONE', #159, .T. ) ;
#105 = CARTESIAN_POINT ( 'NONE',  ( -0.003999999999999999216, 4.898587196589411612E-19, 0.0000000000000000000 ) ) ;
#106 = DIRECTION ( 'NONE',  ( 0.0000000000000000000, 0.0000000000000000000, -1.000000000000000000 ) ) ;
#107 = AXIS2_PLACEMENT_3D ( 'NONE', #221, #166, #238 ) ;
#108 = MECHANICAL_DESIGN_GEOMETRIC_PRESENTATION_REPRESENTATION (  '', ( #54 ), #10 ) ;
#109 = ORIENTED_EDGE ( 'NONE', *, *, #99, .F. ) ;
#110 = EDGE_CURVE ( 'NONE', #218, #164, #217, .T. ) ;
#111 = ORIENTED_EDGE ( 'NONE', *, *, #208, .F. ) ;
#112 = CARTESIAN_POINT ( 'NONE',  ( 0.1100000000000001948, 1.347111479062090784E-17, 2.500000000000000000 ) ) ;
#113 = FACE_OUTER_BOUND ( 'NONE', #167, .T. ) ;
#114 = CARTESIAN_POINT ( 'NONE',  ( -0.1100000000000001948, 0.0000000000000000000, 2.500000000000000000 ) ) ;
#115 = ORIENTED_EDGE ( 'NONE', *, *, #90, .T. ) ;
#116 = ORIENTED_EDGE ( 'NONE', *, *, #143, .F. ) ;
#117 = UNCERTAINTY_MEASURE_WITH_UNIT (LENGTH_MEASURE( 1.000000000000000082E-05 ), #229, 'distance_accuracy_value', 'NONE');
#118 = VERTEX_POINT ( 'NONE', #14 ) ;
#119 = CIRCLE ( 'NONE', #186, 0.003999999999999999216 ) ;
#120 = ORIENTED_EDGE ( 'NONE', *, *, #110, .T. ) ;
#121 = DIRECTION ( 'NONE',  ( 1.000000000000000000, 0.0000000000000000000, -0.0000000000000000000 ) ) ;
#122 = FACE_OUTER_BOUND ( 'NONE', #81, .T. ) ;
#123 = DIRECTION ( 'NONE',  ( -1.000000000000000000, 0.0000000000000000000, 0.0000000000000000000 ) ) ;
#124 = AXIS2_PLACEMENT_3D ( 'NONE', #19, #101, #214 ) ;
#125 = VECTOR ( 'NONE', #216, 39.37007874015748143 ) ;
#126 =( NAMED_UNIT ( * ) PLANE_ANGLE_UNIT ( ) SI_UNIT ( $, .RADIAN. ) );
#127 =( CONVERSION_BASED_UNIT ( 'INCH', #169 ) LENGTH_UNIT ( ) NAMED_UNIT ( #175 ) );
#128 = PRODUCT_CONTEXT ( 'NONE', #15, 'mechanical' ) ;
#129 = VERTEX_POINT ( 'NONE', #114 ) ;
#130 = AXIS2_PLACEMENT_3D ( 'NONE', #151, #173, #237 ) ;
#131 = DIMENSIONAL_EXPONENTS ( 1.000000000000000000, 0.0000000000000000000, 0.0000000000000000000, 0.0000000000000000000, 0.0000000000000000000, 0.0000000000000000000, 0.0000000000000000000 ) ;
#132 = DIRECTION ( 'NONE',  ( 0.0000000000000000000, 0.0000000000000000000, -1.000000000000000000 ) ) ;
#133 = EDGE_CURVE ( 'NONE', #6, #233, #193, .T. ) ;
#134 = DIRECTION ( 'NONE',  ( 0.0000000000000000000, 0.0000000000000000000, -1.000000000000000000 ) ) ;
#135 = CARTESIAN_POINT ( 'NONE',  ( 0.0000000000000000000, 0.0000000000000000000, 2.500000000000000000 ) ) ;
#136 = ORIENTED_EDGE ( 'NONE', *, *, #99, .T. ) ;
#137 = LENGTH_MEASURE_WITH_UNIT ( LENGTH_MEASURE( 0.02539999999999999897 ), #210 );
#138 = ORIENTED_EDGE ( 'NONE', *, *, #184, .F. ) ;
#139 = COLOUR_RGB ( '',0.7921568627450980005, 0.8196078431372548767, 0.9333333333333333481 ) ;
#140 = ORIENTED_EDGE ( 'NONE', *, *, #148, .F. ) ;
#141 = DIRECTION ( 'NONE',  ( -1.000000000000000000, 0.0000000000000000000, 0.0000000000000000000 ) ) ;
#142 = CARTESIAN_POINT ( 'NONE',  ( 0.1100000000000001948, 1.438959988998141146E-17, 2.500000000000000000 ) ) ;
#143 = EDGE_CURVE ( 'NONE', #118, #218, #249, .T. ) ;
#144 = DIRECTION ( 'NONE',  ( -0.0000000000000000000, -0.0000000000000000000, -1.000000000000000000 ) ) ;
#145 = DIRECTION ( 'NONE',  ( 0.0000000000000000000, 0.0000000000000000000, 1.000000000000000000 ) ) ;
#146 = FILL_AREA_STYLE_COLOUR ( '', #38 ) ;
#147 = SURFACE_SIDE_STYLE ('',( #206 ) ) ;
#148 = EDGE_CURVE ( 'NONE', #4, #67, #119, .T. ) ;
#149 = SURFACE_STYLE_USAGE ( .BOTH. , #147 ) ;
#150 = CARTESIAN_POINT ( 'NONE',  ( 0.0000000000000000000, 0.0000000000000000000, 2.500000000000000000 ) ) ;
#151 = CARTESIAN_POINT ( 'NONE',  ( 0.0000000000000000000, 0.0000000000000000000, 0.0000000000000000000 ) ) ;
#152 = VECTOR ( 'NONE', #80, 39.37007874015748143 ) ;
#153 = DIRECTION ( 'NONE',  ( 0.0000000000000000000, 0.0000000000000000000, 1.000000000000000000 ) ) ;
#154 = DIRECTION ( 'NONE',  ( -0.0000000000000000000, -0.0000000000000000000, -1.000000000000000000 ) ) ;
#155 = DIRECTION ( 'NONE',  ( -0.7071067811865499042, 0.0000000000000000000, -0.7071067811865451302 ) ) ;
#156 = PRESENTATION_LAYER_ASSIGNMENT (  '', '', ( #31 ) ) ;
#157 = DIRECTION ( 'NONE',  ( -1.000000000000000000, 0.0000000000000000000, 0.0000000000000000000 ) ) ;
#158 =( NAMED_UNIT ( * ) PLANE_ANGLE_UNIT ( ) SI_UNIT ( $, .RADIAN. ) );
#159 = EDGE_LOOP ( 'NONE', ( #161, #51, #244, #109 ) ) ;
#160 = ORIENTED_EDGE ( 'NONE', *, *, #133, .F. ) ;
#161 = ORIENTED_EDGE ( 'NONE', *, *, #5, .F. ) ;
#162 = CIRCLE ( 'NONE', #52, 0.1250000000000000000 ) ;
#163 =( GEOMETRIC_REPRESENTATION_CONTEXT ( 3 ) GLOBAL_UNCERTAINTY_ASSIGNED_CONTEXT ( ( #117 ) ) GLOBAL_UNIT_ASSIGNED_CONTEXT ( ( #229, #191, #83 ) ) REPRESENTATION_CONTEXT ( 'NONE', 'WORKASPACE' ) );
#164 = VERTEX_POINT ( 'NONE', #18 ) ;
#165 = PLANE ( 'NONE',  #219 ) ;
#166 = DIRECTION ( 'NONE',  ( -0.0000000000000000000, -0.0000000000000000000, -1.000000000000000000 ) ) ;
#167 = EDGE_LOOP ( 'NONE', ( #140, #115, #120, #183 ) ) ;
#168 = CIRCLE ( 'NONE', #48, 0.1100000000000001948 ) ;
#169 = LENGTH_MEASURE_WITH_UNIT ( LENGTH_MEASURE( 0.02539999999999999897 ), #33 );
#170 = MANIFOLD_SOLID_BREP ( 'Cut-Revolve1', #85 ) ;
#171 = DIRECTION ( 'NONE',  ( 1.000000000000000000, 0.0000000000000000000, 0.0000000000000000000 ) ) ;
#172 =( NAMED_UNIT ( * ) SI_UNIT ( $, .STERADIAN. ) SOLID_ANGLE_UNIT ( ) );
#173 = DIRECTION ( 'NONE',  ( 0.0000000000000000000, 0.0000000000000000000, 1.000000000000000000 ) ) ;
#174 = SURFACE_STYLE_FILL_AREA ( #60 ) ;
#175 = DIMENSIONAL_EXPONENTS ( 1.000000000000000000, 0.0000000000000000000, 0.0000000000000000000, 0.0000000000000000000, 0.0000000000000000000, 0.0000000000000000000, 0.0000000000000000000 ) ;
#176 = ORIENTED_EDGE ( 'NONE', *, *, #180, .F. ) ;
#177 = VECTOR ( 'NONE', #95, 39.37007874015748143 ) ;
#178 = CARTESIAN_POINT ( 'NONE',  ( 0.1250000000000000000, 1.530808498934191509E-17, 2.485000000000000320 ) ) ;
#179 = ORIENTED_EDGE ( 'NONE', *, *, #184, .T. ) ;
#180 = EDGE_CURVE ( 'NONE', #6, #129, #204, .T. ) ;
#181 = CIRCLE ( 'NONE', #107, 0.1250000000000000000 ) ;
#182 = CYLINDRICAL_SURFACE ( 'NONE', #37, 0.1250000000000000000 ) ;
#183 = ORIENTED_EDGE ( 'NONE', *, *, #236, .F. ) ;
#184 = EDGE_CURVE ( 'NONE', #67, #4, #24, .T. ) ;
#185 = DIRECTION ( 'NONE',  ( -1.000000000000000000, 0.0000000000000000000, 0.0000000000000000000 ) ) ;
#186 = AXIS2_PLACEMENT_3D ( 'NONE', #231, #61, #21 ) ;
#187 = CYLINDRICAL_SURFACE ( 'NONE', #222, 0.1250000000000000000 ) ;
#188 = PRODUCT_RELATED_PRODUCT_CATEGORY ( 'part', '', ( #9 ) ) ;
#189 = LENGTH_MEASURE_WITH_UNIT ( LENGTH_MEASURE( 0.02539999999999999897 ), #207 );
#190 = ORIENTED_EDGE ( 'NONE', *, *, #208, .T. ) ;
#191 =( NAMED_UNIT ( * ) PLANE_ANGLE_UNIT ( ) SI_UNIT ( $, .RADIAN. ) );
#192 = DIMENSIONAL_EXPONENTS ( 1.000000000000000000, 0.0000000000000000000, 0.0000000000000000000, 0.0000000000000000000, 0.0000000000000000000, 0.0000000000000000000, 0.0000000000000000000 ) ;
#193 = LINE ( 'NONE', #112, #152 ) ;
#194 = SURFACE_STYLE_USAGE ( .BOTH. , #82 ) ;
#195 = ORIENTED_EDGE ( 'NONE', *, *, #240, .F. ) ;
#196 = PRODUCT_DEFINITION_SHAPE ( 'NONE', 'NONE',  #12 ) ;
#197 = ADVANCED_FACE ( 'NONE', ( #39 ), #53, .T. ) ;
#198 = ORIENTED_EDGE ( 'NONE', *, *, #63, .T. ) ;
#199 = PLANE ( 'NONE',  #71 ) ;
#200 = UNCERTAINTY_MEASURE_WITH_UNIT (LENGTH_MEASURE( 1.000000000000000082E-05 ), #93, 'distance_accuracy_value', 'NONE');
#201 = ADVANCED_FACE ( 'NONE', ( #113 ), #235, .T. ) ;
#202 = ORIENTED_EDGE ( 'NONE', *, *, #148, .T. ) ;
#203 = CARTESIAN_POINT ( 'NONE',  ( -0.003999999999999999216, 7.898971854500427644E-18, 0.0000000000000000000 ) ) ;
#204 = CIRCLE ( 'NONE', #97, 0.1100000000000001948 ) ;
#205 =( GEOMETRIC_REPRESENTATION_CONTEXT ( 3 ) GLOBAL_UNCERTAINTY_ASSIGNED_CONTEXT ( ( #200 ) ) GLOBAL_UNIT_ASSIGNED_CONTEXT ( ( #93, #126, #91 ) ) REPRESENTATION_CONTEXT ( 'NONE', 'WORKASPACE' ) );
#206 = SURFACE_STYLE_FILL_AREA ( #225 ) ;
#207 =( LENGTH_UNIT ( ) NAMED_UNIT ( * ) SI_UNIT ( $, .METRE. ) );
#208 = EDGE_CURVE ( 'NONE', #129, #118, #98, .T. ) ;
#209 = DIRECTION ( 'NONE',  ( 1.000000000000000000, 0.0000000000000000000, 0.0000000000000000000 ) ) ;
#210 =( LENGTH_UNIT ( ) NAMED_UNIT ( * ) SI_UNIT ( $, .METRE. ) );
#211 = DIRECTION ( 'NONE',  ( -0.0000000000000000000, -0.0000000000000000000, -1.000000000000000000 ) ) ;
#212 = AXIS2_PLACEMENT_3D ( 'NONE', #29, #106, #185 ) ;
#213 = AXIS2_PLACEMENT_3D ( 'NONE', #77, #242, #171 ) ;
#214 = DIRECTION ( 'NONE',  ( 1.000000000000000000, 0.0000000000000000000, 0.0000000000000000000 ) ) ;
#215 = ORIENTED_EDGE ( 'NONE', *, *, #240, .T. ) ;
#216 = DIRECTION ( 'NONE',  ( 0.7071067811865490160, 0.0000000000000000000, 0.7071067811865460184 ) ) ;
#217 = CIRCLE ( 'NONE', #246, 0.1250000000000000000 ) ;
#218 = VERTEX_POINT ( 'NONE', #232 ) ;
#219 = AXIS2_PLACEMENT_3D ( 'NONE', #27, #145, #121 ) ;
#220 = ORIENTED_EDGE ( 'NONE', *, *, #133, .T. ) ;
#221 = CARTESIAN_POINT ( 'NONE',  ( 0.0000000000000000000, 0.0000000000000000000, 0.1209999999999995107 ) ) ;
#222 = AXIS2_PLACEMENT_3D ( 'NONE', #30, #47, #141 ) ;
#223 = DIRECTION ( 'NONE',  ( 1.000000000000000000, 0.0000000000000000000, -0.0000000000000000000 ) ) ;
#224 = DIRECTION ( 'NONE',  ( -1.000000000000000000, 0.0000000000000000000, 0.0000000000000000000 ) ) ;
#225 = FILL_AREA_STYLE ('',( #146 ) ) ;
#226 = AXIS2_PLACEMENT_3D ( 'NONE', #245, #11, #25 ) ;
#227 = PRESENTATION_STYLE_ASSIGNMENT (( #149 ) ) ;
#228 = FACE_OUTER_BOUND ( 'NONE', #65, .T. ) ;
#229 =( CONVERSION_BASED_UNIT ( 'INCH', #137 ) LENGTH_UNIT ( ) NAMED_UNIT ( #192 ) );
#230 = EDGE_CURVE ( 'NONE', #233, #118, #162, .T. ) ;
#231 = CARTESIAN_POINT ( 'NONE',  ( 0.0000000000000000000, 0.0000000000000000000, 0.0000000000000000000 ) ) ;
#232 = CARTESIAN_POINT ( 'NONE',  ( -0.1250000000000000000, 0.0000000000000000000, 0.1209999999999995107 ) ) ;
#233 = VERTEX_POINT ( 'NONE', #178 ) ;
#234 = ORIENTED_EDGE ( 'NONE', *, *, #110, .F. ) ;
#235 = CONICAL_SURFACE ( 'NONE', #124, 0.003999999999999999216, 0.7853981633974503884 ) ;
#236 = EDGE_CURVE ( 'NONE', #67, #164, #64, .T. ) ;
#237 = DIRECTION ( 'NONE',  ( 1.000000000000000000, 0.0000000000000000000, 0.0000000000000000000 ) ) ;
#238 = DIRECTION ( 'NONE',  ( -1.000000000000000000, 0.0000000000000000000, 0.0000000000000000000 ) ) ;
#239 = CIRCLE ( 'NONE', #226, 0.1250000000000000000 ) ;
#240 = EDGE_CURVE ( 'NONE', #129, #6, #168, .T. ) ;
#241 = ORIENTED_EDGE ( 'NONE', *, *, #180, .T. ) ;
#242 = DIRECTION ( 'NONE',  ( 0.0000000000000000000, 0.0000000000000000000, 1.000000000000000000 ) ) ;
#243 = ADVANCED_FACE ( 'NONE', ( #102 ), #165, .T. ) ;
#244 = ORIENTED_EDGE ( 'NONE', *, *, #143, .T. ) ;
#245 = CARTESIAN_POINT ( 'NONE',  ( 0.0000000000000000000, 0.0000000000000000000, 2.485000000000000320 ) ) ;
#246 = AXIS2_PLACEMENT_3D ( 'NONE', #89, #144, #123 ) ;
#247 = CARTESIAN_POINT ( 'NONE',  ( 0.0000000000000000000, 0.0000000000000000000, 2.485000000000000320 ) ) ;
#248 = SHAPE_DEFINITION_REPRESENTATION ( #196, #69 ) ;
#249 = LINE ( 'NONE', #100, #45 ) ;
ENDSEC;
END-ISO-10303-21;
