ISO-10303-21;
HEADER;
FILE_DESCRIPTION (( 'STEP AP214' ),
    '1' );
FILE_NAME ('05757.STEP',
    '2023-06-22T16:22:06',
    ( '' ),
    ( '' ),
    'SwSTEP 2.0',
    'SolidWorks 2023',
    '' );
FILE_SCHEMA (( 'AUTOMOTIVE_DESIGN' ));
ENDSEC;

DATA;
#1 = COLOUR_RGB ( '',1.000000000000000000, 0.000000000000000000, 0.000000000000000000 ) ;
#2 = ORIENTED_EDGE ( 'NONE', *, *, #81, .T. ) ;
#3 = CARTESIAN_POINT ( 'NONE',  ( 0.000000000000000000, 0.000000000000000000, -0.3750000000000000555 ) ) ;
#4 = DIMENSIONAL_EXPONENTS ( 1.000000000000000000, 0.000000000000000000, 0.000000000000000000, 0.000000000000000000, 0.000000000000000000, 0.000000000000000000, 0.000000000000000000 ) ;
#5 = CYLINDRICAL_SURFACE ( 'NONE', #186, 0.3750000000000001110 ) ;
#6 = EDGE_CURVE ( 'NONE', #114, #82, #15, .T. ) ;
#7 =( CONVERSION_BASED_UNIT ( 'INCH', #72 ) LENGTH_UNIT ( ) NAMED_UNIT ( #293 ) );
#8 = CARTESIAN_POINT ( 'NONE',  ( 0.000000000000000000, 3.500000000000000000, 0.000000000000000000 ) ) ;
#9 = MECHANICAL_DESIGN_GEOMETRIC_PRESENTATION_REPRESENTATION (  '', ( #301 ), #228 ) ;
#10 = SURFACE_SIDE_STYLE ('',( #78 ) ) ;
#11 = CARTESIAN_POINT ( 'NONE',  ( 4.592425496802575451E-17, 0.000000000000000000, 0.3750000000000000555 ) ) ;
#12 = CARTESIAN_POINT ( 'NONE',  ( 0.000000000000000000, 0.000000000000000000, -0.3750000000000000555 ) ) ;
#13 = CARTESIAN_POINT ( 'NONE',  ( 4.499279347985580008E-34, 3.500000000000000000, 0.000000000000000000 ) ) ;
#14 =( NAMED_UNIT ( * ) PLANE_ANGLE_UNIT ( ) SI_UNIT ( $, .RADIAN. ) );
#15 = CIRCLE ( 'NONE', #281, 0.3750000000000000555 ) ;
#16 =( CONVERSION_BASED_UNIT ( 'INCH', #307 ) LENGTH_UNIT ( ) NAMED_UNIT ( #269 ) );
#17 = AXIS2_PLACEMENT_3D ( 'NONE', #232, #85, #34 ) ;
#18 = SURFACE_STYLE_USAGE ( .BOTH. , #40 ) ;
#19 = EDGE_CURVE ( 'NONE', #94, #118, #304, .T. ) ;
#20 = ORIENTED_EDGE ( 'NONE', *, *, #161, .T. ) ;
#21 = CARTESIAN_POINT ( 'NONE',  ( 1.516480271171051896E-32, 3.500000000000000000, 0.000000000000000000 ) ) ;
#22 = MECHANICAL_DESIGN_GEOMETRIC_PRESENTATION_REPRESENTATION (  '', ( #46 ), #168 ) ;
#23 = UNCERTAINTY_MEASURE_WITH_UNIT (LENGTH_MEASURE( 1.000000000000000082E-05 ), #124, 'distance_accuracy_value', 'NONE');
#24 =( LENGTH_UNIT ( ) NAMED_UNIT ( * ) SI_UNIT ( $, .METRE. ) );
#25 = DIRECTION ( 'NONE',  ( 0.000000000000000000, 0.000000000000000000, -1.000000000000000000 ) ) ;
#26 = VECTOR ( 'NONE', #107, 39.37007874015748143 ) ;
#27 = PRODUCT_CONTEXT ( 'NONE', #123, 'mechanical' ) ;
#28 = DIRECTION ( 'NONE',  ( -0.000000000000000000, -1.000000000000000000, -0.000000000000000000 ) ) ;
#29 = DIRECTION ( 'NONE',  ( -1.000000000000000000, 0.000000000000000000, 0.000000000000000000 ) ) ;
#30 = ORIENTED_EDGE ( 'NONE', *, *, #90, .F. ) ;
#31 =( NAMED_UNIT ( * ) PLANE_ANGLE_UNIT ( ) SI_UNIT ( $, .RADIAN. ) );
#32 = CYLINDRICAL_SURFACE ( 'NONE', #64, 0.3750000000000000555 ) ;
#33 = PRODUCT ( '05757', '05757', '', ( #27 ) ) ;
#34 = DIRECTION ( 'NONE',  ( 0.000000000000000000, 0.000000000000000000, -1.000000000000000000 ) ) ;
#35 = CIRCLE ( 'NONE', #214, 0.3750000000000000555 ) ;
#36 = ADVANCED_FACE ( 'NONE', ( #270 ), #32, .T. ) ;
#37 = FILL_AREA_STYLE ('',( #181 ) ) ;
#38 = UNCERTAINTY_MEASURE_WITH_UNIT (LENGTH_MEASURE( 1.000000000000000082E-05 ), #133, 'distance_accuracy_value', 'NONE');
#39 = ORIENTED_EDGE ( 'NONE', *, *, #75, .F. ) ;
#40 = SURFACE_SIDE_STYLE ('',( #140 ) ) ;
#41 = COLOUR_RGB ( '',1.000000000000000000, 0.000000000000000000, 0.000000000000000000 ) ;
#42 = DIRECTION ( 'NONE',  ( 1.000000000000000000, 4.898587196589416773E-17, 0.000000000000000000 ) ) ;
#43 = ORIENTED_EDGE ( 'NONE', *, *, #102, .F. ) ;
#44 = SURFACE_STYLE_FILL_AREA ( #309 ) ;
#45 = ADVANCED_FACE ( 'NONE', ( #199 ), #5, .T. ) ;
#46 = STYLED_ITEM ( 'NONE', ( #259 ), #185 ) ;
#47 =( NAMED_UNIT ( * ) SI_UNIT ( $, .STERADIAN. ) SOLID_ANGLE_UNIT ( ) );
#48 = DIRECTION ( 'NONE',  ( -1.000000000000000000, 0.000000000000000000, 0.000000000000000000 ) ) ;
#49 = EDGE_LOOP ( 'NONE', ( #264, #189, #240, #143 ) ) ;
#50 = DIRECTION ( 'NONE',  ( -0.000000000000000000, -1.000000000000000000, -0.000000000000000000 ) ) ;
#51 = DIRECTION ( 'NONE',  ( 0.000000000000000000, 0.000000000000000000, -1.000000000000000000 ) ) ;
#52 = FACE_OUTER_BOUND ( 'NONE', #74, .T. ) ;
#53 = AXIS2_PLACEMENT_3D ( 'NONE', #278, #231, #136 ) ;
#54 = CARTESIAN_POINT ( 'NONE',  ( 4.592425496802575451E-17, 0.000000000000000000, 0.3750000000000000555 ) ) ;
#55 = SURFACE_STYLE_FILL_AREA ( #285 ) ;
#56 = EDGE_CURVE ( 'NONE', #139, #183, #148, .T. ) ;
#57 = PLANE ( 'NONE',  #209 ) ;
#58 = PRESENTATION_LAYER_ASSIGNMENT (  '', '', ( #46 ) ) ;
#59 = PRODUCT_DEFINITION_CONTEXT ( 'detailed design', #182, 'design' ) ;
#60 = CARTESIAN_POINT ( 'NONE',  ( -0.3750000000000002776, 6.000000000000000888, 0.000000000000000000 ) ) ;
#61 = FACE_OUTER_BOUND ( 'NONE', #151, .T. ) ;
#62 = FACE_OUTER_BOUND ( 'NONE', #287, .T. ) ;
#63 = ORIENTED_EDGE ( 'NONE', *, *, #56, .F. ) ;
#64 = AXIS2_PLACEMENT_3D ( 'NONE', #225, #28, #51 ) ;
#65 = FACE_OUTER_BOUND ( 'NONE', #220, .T. ) ;
#66 =( GEOMETRIC_REPRESENTATION_CONTEXT ( 3 ) GLOBAL_UNCERTAINTY_ASSIGNED_CONTEXT ( ( #97 ) ) GLOBAL_UNIT_ASSIGNED_CONTEXT ( ( #193, #243, #289 ) ) REPRESENTATION_CONTEXT ( 'NONE', 'WORKASPACE' ) );
#67 = UNCERTAINTY_MEASURE_WITH_UNIT (LENGTH_MEASURE( 1.000000000000000082E-05 ), #122, 'distance_accuracy_value', 'NONE');
#68 = CARTESIAN_POINT ( 'NONE',  ( 0.000000000000000000, 0.000000000000000000, 0.000000000000000000 ) ) ;
#69 = VERTEX_POINT ( 'NONE', #11 ) ;
#70 = DIRECTION ( 'NONE',  ( -4.898587196589416773E-17, 1.000000000000000000, -0.000000000000000000 ) ) ;
#71 = AXIS2_PLACEMENT_3D ( 'NONE', #299, #153, #29 ) ;
#72 = LENGTH_MEASURE_WITH_UNIT ( LENGTH_MEASURE( 0.02539999999999999897 ), #128 );
#73 = APPLICATION_PROTOCOL_DEFINITION ( 'draft international standard', 'automotive_design', 1998, #123 ) ;
#74 = EDGE_LOOP ( 'NONE', ( #288, #116 ) ) ;
#75 = EDGE_CURVE ( 'NONE', #114, #69, #201, .T. ) ;
#76 = CARTESIAN_POINT ( 'NONE',  ( -0.3750000000000002220, 6.000000000000000888, 0.000000000000000000 ) ) ;
#77 = MECHANICAL_DESIGN_GEOMETRIC_PRESENTATION_REPRESENTATION (  '', ( #112 ), #66 ) ;
#78 = SURFACE_STYLE_FILL_AREA ( #170 ) ;
#79 =( NAMED_UNIT ( * ) PLANE_ANGLE_UNIT ( ) SI_UNIT ( $, .RADIAN. ) );
#80 = CARTESIAN_POINT ( 'NONE',  ( 0.000000000000000000, 0.000000000000000000, 0.000000000000000000 ) ) ;
#81 = EDGE_CURVE ( 'NONE', #82, #215, #230, .T. ) ;
#82 = VERTEX_POINT ( 'NONE', #205 ) ;
#83 = SURFACE_STYLE_USAGE ( .BOTH. , #104 ) ;
#84 = DIRECTION ( 'NONE',  ( -1.000000000000000000, -4.898587196589416773E-17, 0.000000000000000000 ) ) ;
#85 = DIRECTION ( 'NONE',  ( -0.000000000000000000, -1.000000000000000000, -0.000000000000000000 ) ) ;
#86 = SURFACE_SIDE_STYLE ('',( #55 ) ) ;
#87 = CLOSED_SHELL ( 'NONE', ( #45, #144, #246, #222 ) ) ;
#88 = AXIS2_PLACEMENT_3D ( 'NONE', #80, #154, #173 ) ;
#89 = CARTESIAN_POINT ( 'NONE',  ( 0.3750000000000000555, 6.000000000000000888, 4.592425496802576684E-17 ) ) ;
#90 = EDGE_CURVE ( 'NONE', #94, #183, #300, .T. ) ;
#91 = ORIENTED_EDGE ( 'NONE', *, *, #161, .F. ) ;
#92 = CIRCLE ( 'NONE', #53, 0.3750000000000001665 ) ;
#93 = VECTOR ( 'NONE', #296, 39.37007874015748143 ) ;
#94 = VERTEX_POINT ( 'NONE', #273 ) ;
#95 = FILL_AREA_STYLE_COLOUR ( '', #242 ) ;
#96 = DIRECTION ( 'NONE',  ( -0.000000000000000000, -1.000000000000000000, -0.000000000000000000 ) ) ;
#97 = UNCERTAINTY_MEASURE_WITH_UNIT (LENGTH_MEASURE( 1.000000000000000082E-05 ), #193, 'distance_accuracy_value', 'NONE');
#98 = DIRECTION ( 'NONE',  ( -4.898587196589416773E-17, 1.000000000000000000, -0.000000000000000000 ) ) ;
#99 = DIRECTION ( 'NONE',  ( -1.000000000000000000, 0.000000000000000000, 0.000000000000000000 ) ) ;
#100 = DIRECTION ( 'NONE',  ( -4.898587196589416773E-17, 1.000000000000000000, -0.000000000000000000 ) ) ;
#101 = AXIS2_PLACEMENT_3D ( 'NONE', #263, #100, #48 ) ;
#102 = EDGE_CURVE ( 'NONE', #82, #114, #164, .T. ) ;
#103 = CARTESIAN_POINT ( 'NONE',  ( 0.000000000000000000, 0.000000000000000000, 0.000000000000000000 ) ) ;
#104 = SURFACE_SIDE_STYLE ('',( #149 ) ) ;
#105 = FILL_AREA_STYLE_COLOUR ( '', #111 ) ;
#106 = CARTESIAN_POINT ( 'NONE',  ( 0.3750000000000000555, 3.500000000000000000, 4.592425496802576684E-17 ) ) ;
#107 = DIRECTION ( 'NONE',  ( -4.898587196589416773E-17, 1.000000000000000000, -0.000000000000000000 ) ) ;
#108 = ADVANCED_FACE ( 'NONE', ( #208 ), #57, .T. ) ;
#109 = UNCERTAINTY_MEASURE_WITH_UNIT (LENGTH_MEASURE( 1.000000000000000082E-05 ), #16, 'distance_accuracy_value', 'NONE');
#110 = CYLINDRICAL_SURFACE ( 'NONE', #254, 0.3750000000000000555 ) ;
#111 = COLOUR_RGB ( '',1.000000000000000000, 0.000000000000000000, 0.000000000000000000 ) ;
#112 = STYLED_ITEM ( 'NONE', ( #146 ), #213 ) ;
#113 =( GEOMETRIC_REPRESENTATION_CONTEXT ( 3 ) GLOBAL_UNCERTAINTY_ASSIGNED_CONTEXT ( ( #257 ) ) GLOBAL_UNIT_ASSIGNED_CONTEXT ( ( #169, #31, #152 ) ) REPRESENTATION_CONTEXT ( 'NONE', 'WORKASPACE' ) );
#114 = VERTEX_POINT ( 'NONE', #303 ) ;
#115 =( LENGTH_UNIT ( ) NAMED_UNIT ( * ) SI_UNIT ( $, .METRE. ) );
#116 = ORIENTED_EDGE ( 'NONE', *, *, #297, .T. ) ;
#117 = SURFACE_STYLE_USAGE ( .BOTH. , #142 ) ;
#118 = VERTEX_POINT ( 'NONE', #106 ) ;
#119 = PRESENTATION_LAYER_ASSIGNMENT (  '', '', ( #286 ) ) ;
#120 = LENGTH_MEASURE_WITH_UNIT ( LENGTH_MEASURE( 0.02539999999999999897 ), #241 );
#121 =( NAMED_UNIT ( * ) PLANE_ANGLE_UNIT ( ) SI_UNIT ( $, .RADIAN. ) );
#122 =( CONVERSION_BASED_UNIT ( 'INCH', #145 ) LENGTH_UNIT ( ) NAMED_UNIT ( #271 ) );
#123 = APPLICATION_CONTEXT ( 'automotive_design' ) ;
#124 =( CONVERSION_BASED_UNIT ( 'INCH', #249 ) LENGTH_UNIT ( ) NAMED_UNIT ( #266 ) );
#125 = APPLICATION_PROTOCOL_DEFINITION ( 'draft international standard', 'automotive_design', 1998, #182 ) ;
#126 = CARTESIAN_POINT ( 'NONE',  ( -1.224646799147354440E-16, 6.000000000000000888, 0.000000000000000000 ) ) ;
#127 =( NAMED_UNIT ( * ) SI_UNIT ( $, .STERADIAN. ) SOLID_ANGLE_UNIT ( ) );
#128 =( LENGTH_UNIT ( ) NAMED_UNIT ( * ) SI_UNIT ( $, .METRE. ) );
#129 = CIRCLE ( 'NONE', #247, 0.3750000000000000555 ) ;
#130 = DIRECTION ( 'NONE',  ( -0.000000000000000000, -1.000000000000000000, -0.000000000000000000 ) ) ;
#131 = DIRECTION ( 'NONE',  ( 0.000000000000000000, 1.000000000000000000, 0.000000000000000000 ) ) ;
#132 = EDGE_CURVE ( 'NONE', #183, #139, #92, .T. ) ;
#133 =( CONVERSION_BASED_UNIT ( 'INCH', #256 ) LENGTH_UNIT ( ) NAMED_UNIT ( #4 ) );
#134 = COLOUR_RGB ( '',0.7921568627450980005, 0.8196078431372548767, 0.9333333333333333481 ) ;
#135 = PRODUCT_DEFINITION_SHAPE ( 'NONE', 'NONE',  #226 ) ;
#136 = DIRECTION ( 'NONE',  ( -1.000000000000000000, 0.000000000000000000, 0.000000000000000000 ) ) ;
#137 = AXIS2_PLACEMENT_3D ( 'NONE', #251, #227, #203 ) ;
#138 = UNCERTAINTY_MEASURE_WITH_UNIT (LENGTH_MEASURE( 1.000000000000000082E-05 ), #7, 'distance_accuracy_value', 'NONE');
#139 = VERTEX_POINT ( 'NONE', #89 ) ;
#140 = SURFACE_STYLE_FILL_AREA ( #290 ) ;
#141 = ORIENTED_EDGE ( 'NONE', *, *, #202, .T. ) ;
#142 = SURFACE_SIDE_STYLE ('',( #44 ) ) ;
#143 = ORIENTED_EDGE ( 'NONE', *, *, #81, .F. ) ;
#144 = ADVANCED_FACE ( 'NONE', ( #61 ), #302, .F. ) ;
#145 = LENGTH_MEASURE_WITH_UNIT ( LENGTH_MEASURE( 0.02539999999999999897 ), #115 );
#146 = PRESENTATION_STYLE_ASSIGNMENT (( #117 ) ) ;
#147 = DIRECTION ( 'NONE',  ( 0.000000000000000000, 0.000000000000000000, 1.000000000000000000 ) ) ;
#148 = CIRCLE ( 'NONE', #272, 0.3750000000000001665 ) ;
#149 = SURFACE_STYLE_FILL_AREA ( #298 ) ;
#150 = LENGTH_MEASURE_WITH_UNIT ( LENGTH_MEASURE( 0.02539999999999999897 ), #24 );
#151 = EDGE_LOOP ( 'NONE', ( #239, #165 ) ) ;
#152 =( NAMED_UNIT ( * ) SI_UNIT ( $, .STERADIAN. ) SOLID_ANGLE_UNIT ( ) );
#153 = DIRECTION ( 'NONE',  ( -4.898587196589416773E-17, 1.000000000000000000, -0.000000000000000000 ) ) ;
#154 = DIRECTION ( 'NONE',  ( 0.000000000000000000, -1.000000000000000000, -0.000000000000000000 ) ) ;
#155 = DIRECTION ( 'NONE',  ( -1.000000000000000000, 0.000000000000000000, 0.000000000000000000 ) ) ;
#156 = PRESENTATION_LAYER_ASSIGNMENT (  '', '', ( #291 ) ) ;
#157 = STYLED_ITEM ( 'NONE', ( #192 ), #216 ) ;
#158 = PRESENTATION_STYLE_ASSIGNMENT (( #280 ) ) ;
#159 = SURFACE_STYLE_FILL_AREA ( #37 ) ;
#160 = AXIS2_PLACEMENT_3D ( 'NONE', #238, #184, #42 ) ;
#161 = EDGE_CURVE ( 'NONE', #118, #139, #178, .T. ) ;
#162 =( LENGTH_UNIT ( ) NAMED_UNIT ( * ) SI_UNIT ( $, .METRE. ) );
#163 = SURFACE_STYLE_USAGE ( .BOTH. , #284 ) ;
#164 = CIRCLE ( 'NONE', #17, 0.3750000000000000555 ) ;
#165 = ORIENTED_EDGE ( 'NONE', *, *, #202, .F. ) ;
#166 = CYLINDRICAL_SURFACE ( 'NONE', #101, 0.3750000000000001110 ) ;
#167 = DIRECTION ( 'NONE',  ( 0.000000000000000000, 0.000000000000000000, -1.000000000000000000 ) ) ;
#168 =( GEOMETRIC_REPRESENTATION_CONTEXT ( 3 ) GLOBAL_UNCERTAINTY_ASSIGNED_CONTEXT ( ( #109 ) ) GLOBAL_UNIT_ASSIGNED_CONTEXT ( ( #16, #210, #47 ) ) REPRESENTATION_CONTEXT ( 'NONE', 'WORKASPACE' ) );
#169 =( CONVERSION_BASED_UNIT ( 'INCH', #150 ) LENGTH_UNIT ( ) NAMED_UNIT ( #218 ) );
#170 = FILL_AREA_STYLE ('',( #244 ) ) ;
#171 = DIRECTION ( 'NONE',  ( -4.898587196589416773E-17, 1.000000000000000000, -0.000000000000000000 ) ) ;
#172 = CARTESIAN_POINT ( 'NONE',  ( 0.000000000000000000, 0.000000000000000000, 0.000000000000000000 ) ) ;
#173 = DIRECTION ( 'NONE',  ( 0.000000000000000000, 0.000000000000000000, -1.000000000000000000 ) ) ;
#174 = EDGE_LOOP ( 'NONE', ( #43, #191 ) ) ;
#175 =( LENGTH_UNIT ( ) NAMED_UNIT ( * ) SI_UNIT ( $, .METRE. ) );
#176 =( GEOMETRIC_REPRESENTATION_CONTEXT ( 3 ) GLOBAL_UNCERTAINTY_ASSIGNED_CONTEXT ( ( #23 ) ) GLOBAL_UNIT_ASSIGNED_CONTEXT ( ( #124, #79, #127 ) ) REPRESENTATION_CONTEXT ( 'NONE', 'WORKASPACE' ) );
#177 = COLOUR_RGB ( '',1.000000000000000000, 0.000000000000000000, 0.000000000000000000 ) ;
#178 = LINE ( 'NONE', #258, #26 ) ;
#179 = FACE_OUTER_BOUND ( 'NONE', #267, .T. ) ;
#180 =( NAMED_UNIT ( * ) SI_UNIT ( $, .STERADIAN. ) SOLID_ANGLE_UNIT ( ) );
#181 = FILL_AREA_STYLE_COLOUR ( '', #1 ) ;
#182 = APPLICATION_CONTEXT ( 'automotive_design' ) ;
#183 = VERTEX_POINT ( 'NONE', #60 ) ;
#184 = DIRECTION ( 'NONE',  ( 4.898587196589416773E-17, -1.000000000000000000, 0.000000000000000000 ) ) ;
#185 = ADVANCED_FACE ( 'NONE', ( #179 ), #110, .T. ) ;
#186 = AXIS2_PLACEMENT_3D ( 'NONE', #126, #223, #99 ) ;
#187 = AXIS2_PLACEMENT_3D ( 'NONE', #13, #234, #84 ) ;
#188 = ADVANCED_BREP_SHAPE_REPRESENTATION ( '05757', ( #213, #216, #207 ), #113 ) ;
#189 = ORIENTED_EDGE ( 'NONE', *, *, #75, .T. ) ;
#190 = FILL_AREA_STYLE_COLOUR ( '', #134 ) ;
#191 = ORIENTED_EDGE ( 'NONE', *, *, #6, .F. ) ;
#192 = PRESENTATION_STYLE_ASSIGNMENT (( #18 ) ) ;
#193 =( CONVERSION_BASED_UNIT ( 'INCH', #120 ) LENGTH_UNIT ( ) NAMED_UNIT ( #197 ) );
#194 = MECHANICAL_DESIGN_GEOMETRIC_PRESENTATION_REPRESENTATION (  '', ( #291 ), #176 ) ;
#195 = MECHANICAL_DESIGN_GEOMETRIC_PRESENTATION_REPRESENTATION (  '', ( #286 ), #233 ) ;
#196 = PLANE ( 'NONE',  #160 ) ;
#197 = DIMENSIONAL_EXPONENTS ( 1.000000000000000000, 0.000000000000000000, 0.000000000000000000, 0.000000000000000000, 0.000000000000000000, 0.000000000000000000, 0.000000000000000000 ) ;
#198 =( NAMED_UNIT ( * ) PLANE_ANGLE_UNIT ( ) SI_UNIT ( $, .RADIAN. ) );
#199 = FACE_OUTER_BOUND ( 'NONE', #261, .T. ) ;
#200 = SURFACE_STYLE_USAGE ( .BOTH. , #10 ) ;
#201 = LINE ( 'NONE', #54, #268 ) ;
#202 = EDGE_CURVE ( 'NONE', #118, #94, #35, .T. ) ;
#203 = DIRECTION ( 'NONE',  ( 0.000000000000000000, 0.000000000000000000, -1.000000000000000000 ) ) ;
#204 = ORIENTED_EDGE ( 'NONE', *, *, #132, .F. ) ;
#205 = CARTESIAN_POINT ( 'NONE',  ( 0.000000000000000000, 3.500000000000000000, -0.3750000000000000555 ) ) ;
#206 = FILL_AREA_STYLE_COLOUR ( '', #177 ) ;
#207 = AXIS2_PLACEMENT_3D ( 'NONE', #103, #147, #248 ) ;
#208 = FACE_OUTER_BOUND ( 'NONE', #174, .T. ) ;
#209 = AXIS2_PLACEMENT_3D ( 'NONE', #235, #131, #282 ) ;
#210 =( NAMED_UNIT ( * ) PLANE_ANGLE_UNIT ( ) SI_UNIT ( $, .RADIAN. ) );
#211 = ORIENTED_EDGE ( 'NONE', *, *, #6, .T. ) ;
#212 = ORIENTED_EDGE ( 'NONE', *, *, #132, .T. ) ;
#213 = MANIFOLD_SOLID_BREP ( 'Revolve - Cutting Edge', #253 ) ;
#214 = AXIS2_PLACEMENT_3D ( 'NONE', #21, #70, #265 ) ;
#215 = VERTEX_POINT ( 'NONE', #3 ) ;
#216 = MANIFOLD_SOLID_BREP ( 'Revolve - Tool Body (Straight Shanked)', #87 ) ;
#217 =( NAMED_UNIT ( * ) SI_UNIT ( $, .STERADIAN. ) SOLID_ANGLE_UNIT ( ) );
#218 = DIMENSIONAL_EXPONENTS ( 1.000000000000000000, 0.000000000000000000, 0.000000000000000000, 0.000000000000000000, 0.000000000000000000, 0.000000000000000000, 0.000000000000000000 ) ;
#219 = MECHANICAL_DESIGN_GEOMETRIC_PRESENTATION_REPRESENTATION (  '', ( #157 ), #277 ) ;
#220 = EDGE_LOOP ( 'NONE', ( #91, #141, #294, #63 ) ) ;
#221 = SHAPE_DEFINITION_REPRESENTATION ( #135, #188 ) ;
#222 = ADVANCED_FACE ( 'NONE', ( #62 ), #196, .F. ) ;
#223 = DIRECTION ( 'NONE',  ( -4.898587196589416773E-17, 1.000000000000000000, -0.000000000000000000 ) ) ;
#224 =( NAMED_UNIT ( * ) SI_UNIT ( $, .STERADIAN. ) SOLID_ANGLE_UNIT ( ) );
#225 = CARTESIAN_POINT ( 'NONE',  ( 0.000000000000000000, 0.000000000000000000, 0.000000000000000000 ) ) ;
#226 = PRODUCT_DEFINITION ( 'UNKNOWN', '', #306, #59 ) ;
#227 = DIRECTION ( 'NONE',  ( -0.000000000000000000, -1.000000000000000000, -0.000000000000000000 ) ) ;
#228 =( GEOMETRIC_REPRESENTATION_CONTEXT ( 3 ) GLOBAL_UNCERTAINTY_ASSIGNED_CONTEXT ( ( #138 ) ) GLOBAL_UNIT_ASSIGNED_CONTEXT ( ( #7, #198, #224 ) ) REPRESENTATION_CONTEXT ( 'NONE', 'WORKASPACE' ) );
#229 = CARTESIAN_POINT ( 'NONE',  ( -1.224646799147354440E-16, 6.000000000000000888, 0.000000000000000000 ) ) ;
#230 = LINE ( 'NONE', #12, #93 ) ;
#231 = DIRECTION ( 'NONE',  ( -4.898587196589416773E-17, 1.000000000000000000, -0.000000000000000000 ) ) ;
#232 = CARTESIAN_POINT ( 'NONE',  ( 0.000000000000000000, 3.500000000000000000, 0.000000000000000000 ) ) ;
#233 =( GEOMETRIC_REPRESENTATION_CONTEXT ( 3 ) GLOBAL_UNCERTAINTY_ASSIGNED_CONTEXT ( ( #38 ) ) GLOBAL_UNIT_ASSIGNED_CONTEXT ( ( #133, #14, #180 ) ) REPRESENTATION_CONTEXT ( 'NONE', 'WORKASPACE' ) );
#234 = DIRECTION ( 'NONE',  ( -4.898587196589416773E-17, 1.000000000000000000, 0.000000000000000000 ) ) ;
#235 = CARTESIAN_POINT ( 'NONE',  ( 0.000000000000000000, 3.500000000000000000, 0.000000000000000000 ) ) ;
#236 = PRESENTATION_LAYER_ASSIGNMENT (  '', '', ( #157 ) ) ;
#237 = ORIENTED_EDGE ( 'NONE', *, *, #19, .T. ) ;
#238 = CARTESIAN_POINT ( 'NONE',  ( 0.3750000000000000555, 6.000000000000000888, 0.000000000000000000 ) ) ;
#239 = ORIENTED_EDGE ( 'NONE', *, *, #19, .F. ) ;
#240 = ORIENTED_EDGE ( 'NONE', *, *, #275, .F. ) ;
#241 =( LENGTH_UNIT ( ) NAMED_UNIT ( * ) SI_UNIT ( $, .METRE. ) );
#242 = COLOUR_RGB ( '',0.7921568627450980005, 0.8196078431372548767, 0.9333333333333333481 ) ;
#243 =( NAMED_UNIT ( * ) PLANE_ANGLE_UNIT ( ) SI_UNIT ( $, .RADIAN. ) );
#244 = FILL_AREA_STYLE_COLOUR ( '', #41 ) ;
#245 = ORIENTED_EDGE ( 'NONE', *, *, #297, .F. ) ;
#246 = ADVANCED_FACE ( 'NONE', ( #65 ), #166, .T. ) ;
#247 = AXIS2_PLACEMENT_3D ( 'NONE', #172, #50, #274 ) ;
#248 = DIRECTION ( 'NONE',  ( 1.000000000000000000, 0.000000000000000000, 0.000000000000000000 ) ) ;
#249 = LENGTH_MEASURE_WITH_UNIT ( LENGTH_MEASURE( 0.02539999999999999897 ), #175 );
#250 = PRODUCT_RELATED_PRODUCT_CATEGORY ( 'part', '', ( #33 ) ) ;
#251 = CARTESIAN_POINT ( 'NONE',  ( 0.000000000000000000, 0.000000000000000000, 0.000000000000000000 ) ) ;
#252 = DIRECTION ( 'NONE',  ( -0.000000000000000000, -1.000000000000000000, -0.000000000000000000 ) ) ;
#253 = CLOSED_SHELL ( 'NONE', ( #36, #108, #185, #279 ) ) ;
#254 = AXIS2_PLACEMENT_3D ( 'NONE', #68, #96, #167 ) ;
#255 = PRESENTATION_STYLE_ASSIGNMENT (( #83 ) ) ;
#256 = LENGTH_MEASURE_WITH_UNIT ( LENGTH_MEASURE( 0.02539999999999999897 ), #162 );
#257 = UNCERTAINTY_MEASURE_WITH_UNIT (LENGTH_MEASURE( 1.000000000000000082E-05 ), #169, 'distance_accuracy_value', 'NONE');
#258 = CARTESIAN_POINT ( 'NONE',  ( 0.3749999999999999445, 6.000000000000000888, 4.592425496802576068E-17 ) ) ;
#259 = PRESENTATION_STYLE_ASSIGNMENT (( #163 ) ) ;
#260 = VECTOR ( 'NONE', #171, 39.37007874015748143 ) ;
#261 = EDGE_LOOP ( 'NONE', ( #237, #20, #204, #30 ) ) ;
#262 = PRESENTATION_LAYER_ASSIGNMENT (  '', '', ( #301 ) ) ;
#263 = CARTESIAN_POINT ( 'NONE',  ( -1.224646799147354440E-16, 6.000000000000000888, 0.000000000000000000 ) ) ;
#264 = ORIENTED_EDGE ( 'NONE', *, *, #102, .T. ) ;
#265 = DIRECTION ( 'NONE',  ( -1.000000000000000000, 0.000000000000000000, 0.000000000000000000 ) ) ;
#266 = DIMENSIONAL_EXPONENTS ( 1.000000000000000000, 0.000000000000000000, 0.000000000000000000, 0.000000000000000000, 0.000000000000000000, 0.000000000000000000, 0.000000000000000000 ) ;
#267 = EDGE_LOOP ( 'NONE', ( #39, #211, #2, #245 ) ) ;
#268 = VECTOR ( 'NONE', #130, 39.37007874015748143 ) ;
#269 = DIMENSIONAL_EXPONENTS ( 1.000000000000000000, 0.000000000000000000, 0.000000000000000000, 0.000000000000000000, 0.000000000000000000, 0.000000000000000000, 0.000000000000000000 ) ;
#270 = FACE_OUTER_BOUND ( 'NONE', #49, .T. ) ;
#271 = DIMENSIONAL_EXPONENTS ( 1.000000000000000000, 0.000000000000000000, 0.000000000000000000, 0.000000000000000000, 0.000000000000000000, 0.000000000000000000, 0.000000000000000000 ) ;
#272 = AXIS2_PLACEMENT_3D ( 'NONE', #229, #98, #155 ) ;
#273 = CARTESIAN_POINT ( 'NONE',  ( -0.3750000000000000555, 3.500000000000000000, 0.000000000000000000 ) ) ;
#274 = DIRECTION ( 'NONE',  ( 0.000000000000000000, 0.000000000000000000, -1.000000000000000000 ) ) ;
#275 = EDGE_CURVE ( 'NONE', #215, #69, #283, .T. ) ;
#276 = PLANE ( 'NONE',  #88 ) ;
#277 =( GEOMETRIC_REPRESENTATION_CONTEXT ( 3 ) GLOBAL_UNCERTAINTY_ASSIGNED_CONTEXT ( ( #67 ) ) GLOBAL_UNIT_ASSIGNED_CONTEXT ( ( #122, #121, #217 ) ) REPRESENTATION_CONTEXT ( 'NONE', 'WORKASPACE' ) );
#278 = CARTESIAN_POINT ( 'NONE',  ( -1.224646799147354440E-16, 6.000000000000000888, 0.000000000000000000 ) ) ;
#279 = ADVANCED_FACE ( 'NONE', ( #52 ), #276, .T. ) ;
#280 = SURFACE_STYLE_USAGE ( .BOTH. , #86 ) ;
#281 = AXIS2_PLACEMENT_3D ( 'NONE', #8, #252, #25 ) ;
#282 = DIRECTION ( 'NONE',  ( 0.000000000000000000, -0.000000000000000000, 1.000000000000000000 ) ) ;
#283 = CIRCLE ( 'NONE', #137, 0.3750000000000000555 ) ;
#284 = SURFACE_SIDE_STYLE ('',( #159 ) ) ;
#285 = FILL_AREA_STYLE ('',( #206 ) ) ;
#286 = STYLED_ITEM ( 'NONE', ( #158 ), #108 ) ;
#287 = EDGE_LOOP ( 'NONE', ( #212, #308 ) ) ;
#288 = ORIENTED_EDGE ( 'NONE', *, *, #275, .T. ) ;
#289 =( NAMED_UNIT ( * ) SI_UNIT ( $, .STERADIAN. ) SOLID_ANGLE_UNIT ( ) );
#290 = FILL_AREA_STYLE ('',( #95 ) ) ;
#291 = STYLED_ITEM ( 'NONE', ( #255 ), #36 ) ;
#292 = PRESENTATION_LAYER_ASSIGNMENT (  '', '', ( #112 ) ) ;
#293 = DIMENSIONAL_EXPONENTS ( 1.000000000000000000, 0.000000000000000000, 0.000000000000000000, 0.000000000000000000, 0.000000000000000000, 0.000000000000000000, 0.000000000000000000 ) ;
#294 = ORIENTED_EDGE ( 'NONE', *, *, #90, .T. ) ;
#295 = PRESENTATION_STYLE_ASSIGNMENT (( #200 ) ) ;
#296 = DIRECTION ( 'NONE',  ( -0.000000000000000000, -1.000000000000000000, -0.000000000000000000 ) ) ;
#297 = EDGE_CURVE ( 'NONE', #69, #215, #129, .T. ) ;
#298 = FILL_AREA_STYLE ('',( #105 ) ) ;
#299 = CARTESIAN_POINT ( 'NONE',  ( 1.516480271171051896E-32, 3.500000000000000000, 0.000000000000000000 ) ) ;
#300 = LINE ( 'NONE', #76, #260 ) ;
#301 = STYLED_ITEM ( 'NONE', ( #295 ), #279 ) ;
#302 = PLANE ( 'NONE',  #187 ) ;
#303 = CARTESIAN_POINT ( 'NONE',  ( 4.592425496802575451E-17, 3.500000000000000000, 0.3750000000000000555 ) ) ;
#304 = CIRCLE ( 'NONE', #71, 0.3750000000000000555 ) ;
#305 =( LENGTH_UNIT ( ) NAMED_UNIT ( * ) SI_UNIT ( $, .METRE. ) );
#306 = PRODUCT_DEFINITION_FORMATION_WITH_SPECIFIED_SOURCE ( 'ANY', '', #33, .NOT_KNOWN. ) ;
#307 = LENGTH_MEASURE_WITH_UNIT ( LENGTH_MEASURE( 0.02539999999999999897 ), #305 );
#308 = ORIENTED_EDGE ( 'NONE', *, *, #56, .T. ) ;
#309 = FILL_AREA_STYLE ('',( #190 ) ) ;
ENDSEC;
END-ISO-10303-21;
