ISO-10303-21;
HEADER;
FILE_DESCRIPTION (( 'STEP AP214' ),
    '1' );
FILE_NAME ('Micro_EMS-031-2.STEP',
    '2021-09-01T17:30:33',
    ( '' ),
    ( '' ),
    'SwSTEP 2.0',
    'SolidWorks 2020',
    '' );
FILE_SCHEMA (( 'AUTOMOTIVE_DESIGN' ));
ENDSEC;

DATA;
#1 = VERTEX_POINT ( 'NONE', #9 ) ;
#2 = FACE_OUTER_BOUND ( 'NONE', #263, .T. ) ;
#3 = EDGE_LOOP ( 'NONE', ( #277, #123 ) ) ;
#4 = CARTESIAN_POINT ( 'NONE',  ( 0.04750000000000064587, 5.817072295950006528E-18, 1.500000000000000222 ) ) ;
#5 = CIRCLE ( 'NONE', #298, 0.01558440000000000519 ) ;
#6 = VERTEX_POINT ( 'NONE', #125 ) ;
#7 =( GEOMETRIC_REPRESENTATION_CONTEXT ( 3 ) GLOBAL_UNCERTAINTY_ASSIGNED_CONTEXT ( ( #293 ) ) GLOBAL_UNIT_ASSIGNED_CONTEXT ( ( #13, #289, #217 ) ) REPRESENTATION_CONTEXT ( 'NONE', 'WORKASPACE' ) );
#8 = LENGTH_MEASURE_WITH_UNIT ( LENGTH_MEASURE( 0.02539999999999999897 ), #214 );
#9 = CARTESIAN_POINT ( 'NONE',  ( -0.04750000000000064587, 0.0000000000000000000, 1.500000000000000222 ) ) ;
#10 = DIRECTION ( 'NONE',  ( -1.224646799147353700E-16, -0.0000000000000000000, -1.000000000000000000 ) ) ;
#11 = AXIS2_PLACEMENT_3D ( 'NONE', #155, #39, #76 ) ;
#12 = EDGE_CURVE ( 'NONE', #120, #280, #57, .T. ) ;
#13 =( CONVERSION_BASED_UNIT ( 'INCH', #244 ) LENGTH_UNIT ( ) NAMED_UNIT ( #58 ) );
#14 = FACE_OUTER_BOUND ( 'NONE', #189, .T. ) ;
#15 = PRESENTATION_STYLE_ASSIGNMENT (( #129 ) ) ;
#16 = COLOUR_RGB ( '',0.7921568627450980005, 0.8196078431372548767, 0.9333333333333333481 ) ;
#17 = APPLICATION_PROTOCOL_DEFINITION ( 'draft international standard', 'automotive_design', 1998, #167 ) ;
#18 = ORIENTED_EDGE ( 'NONE', *, *, #247, .T. ) ;
#19 = PRODUCT_RELATED_PRODUCT_CATEGORY ( 'part', '', ( #193 ) ) ;
#20 = DIRECTION ( 'NONE',  ( 1.000000000000000000, 0.0000000000000000000, 0.0000000000000000000 ) ) ;
#21 = CIRCLE ( 'NONE', #212, 0.01558440000000001387 ) ;
#22 = AXIS2_PLACEMENT_3D ( 'NONE', #211, #190, #283 ) ;
#23 = FACE_OUTER_BOUND ( 'NONE', #161, .T. ) ;
#24 = CARTESIAN_POINT ( 'NONE',  ( 0.0000000000000000000, 0.0000000000000000000, 1.500000000000000222 ) ) ;
#25 = CARTESIAN_POINT ( 'NONE',  ( 9.552245033349369302E-18, 0.0000000000000000000, 0.07800000000000009703 ) ) ;
#26 = VERTEX_POINT ( 'NONE', #101 ) ;
#27 = LINE ( 'NONE', #276, #272 ) ;
#28 = ORIENTED_EDGE ( 'NONE', *, *, #279, .F. ) ;
#29 = ORIENTED_EDGE ( 'NONE', *, *, #122, .F. ) ;
#30 = SURFACE_STYLE_FILL_AREA ( #264 ) ;
#31 = ORIENTED_EDGE ( 'NONE', *, *, #88, .F. ) ;
#32 = DIRECTION ( 'NONE',  ( 0.0000000000000000000, 0.0000000000000000000, 1.000000000000000000 ) ) ;
#33 = ORIENTED_EDGE ( 'NONE', *, *, #220, .T. ) ;
#34 = ORIENTED_EDGE ( 'NONE', *, *, #115, .F. ) ;
#35 =( NAMED_UNIT ( * ) SI_UNIT ( $, .STERADIAN. ) SOLID_ANGLE_UNIT ( ) );
#36 = AXIS2_PLACEMENT_3D ( 'NONE', #170, #267, #226 ) ;
#37 = ORIENTED_EDGE ( 'NONE', *, *, #290, .F. ) ;
#38 = EDGE_CURVE ( 'NONE', #1, #26, #178, .T. ) ;
#39 = DIRECTION ( 'NONE',  ( 0.0000000000000000000, 0.0000000000000000000, 1.000000000000000000 ) ) ;
#40 = CARTESIAN_POINT ( 'NONE',  ( 2.337285635691549169E-34, 0.0000000000000000000, 1.908538557663203788E-18 ) ) ;
#41 = CARTESIAN_POINT ( 'NONE',  ( 0.0000000000000000000, 0.0000000000000000000, 0.0000000000000000000 ) ) ;
#42 = ADVANCED_FACE ( 'NONE', ( #14 ), #60, .T. ) ;
#43 = CARTESIAN_POINT ( 'NONE',  ( 0.01558440000000001560, 1.908538557663202632E-18, 0.0000000000000000000 ) ) ;
#44 = EDGE_LOOP ( 'NONE', ( #28, #186, #237, #92 ) ) ;
#45 = CYLINDRICAL_SURFACE ( 'NONE', #134, 0.06250000000000002776 ) ;
#46 =( GEOMETRIC_REPRESENTATION_CONTEXT ( 3 ) GLOBAL_UNCERTAINTY_ASSIGNED_CONTEXT ( ( #222 ) ) GLOBAL_UNIT_ASSIGNED_CONTEXT ( ( #151, #198, #35 ) ) REPRESENTATION_CONTEXT ( 'NONE', 'WORKASPACE' ) );
#47 = EDGE_CURVE ( 'NONE', #96, #1, #196, .T. ) ;
#48 = DIRECTION ( 'NONE',  ( 1.000000000000000000, 0.0000000000000000000, 0.0000000000000000000 ) ) ;
#49 = PRODUCT_DEFINITION_SHAPE ( 'NONE', 'NONE',  #128 ) ;
#50 = ORIENTED_EDGE ( 'NONE', *, *, #242, .T. ) ;
#51 = VECTOR ( 'NONE', #84, 39.37007874015748143 ) ;
#52 = VERTEX_POINT ( 'NONE', #250 ) ;
#53 = CIRCLE ( 'NONE', #22, 0.06250000000000002776 ) ;
#54 = ORIENTED_EDGE ( 'NONE', *, *, #38, .F. ) ;
#55 = SURFACE_STYLE_USAGE ( .BOTH. , #236 ) ;
#56 = ORIENTED_EDGE ( 'NONE', *, *, #225, .F. ) ;
#57 = LINE ( 'NONE', #286, #81 ) ;
#58 = DIMENSIONAL_EXPONENTS ( 1.000000000000000000, 0.0000000000000000000, 0.0000000000000000000, 0.0000000000000000000, 0.0000000000000000000, 0.0000000000000000000, 0.0000000000000000000 ) ;
#59 = AXIS2_PLACEMENT_3D ( 'NONE', #25, #260, #64 ) ;
#60 = CYLINDRICAL_SURFACE ( 'NONE', #176, 0.01558440000000000866 ) ;
#61 =( LENGTH_UNIT ( ) NAMED_UNIT ( * ) SI_UNIT ( $, .METRE. ) );
#62 = CARTESIAN_POINT ( 'NONE',  ( 0.0000000000000000000, 0.0000000000000000000, 1.500000000000000222 ) ) ;
#63 = AXIS2_PLACEMENT_3D ( 'NONE', #107, #268, #180 ) ;
#64 = DIRECTION ( 'NONE',  ( -1.000000000000000000, 0.0000000000000000000, 0.0000000000000000000 ) ) ;
#65 = DIRECTION ( 'NONE',  ( 0.0000000000000000000, 0.0000000000000000000, 1.000000000000000000 ) ) ;
#66 = DIRECTION ( 'NONE',  ( -1.224646799147353700E-16, -0.0000000000000000000, -1.000000000000000000 ) ) ;
#67 = ORIENTED_EDGE ( 'NONE', *, *, #191, .T. ) ;
#68 = DIRECTION ( 'NONE',  ( 1.000000000000000000, 0.0000000000000000000, 0.0000000000000000000 ) ) ;
#69 = AXIS2_PLACEMENT_3D ( 'NONE', #278, #65, #208 ) ;
#70 = PRESENTATION_LAYER_ASSIGNMENT (  '', '', ( #109 ) ) ;
#71 = ORIENTED_EDGE ( 'NONE', *, *, #172, .F. ) ;
#72 = DIRECTION ( 'NONE',  ( 1.224646799147353700E-16, 0.0000000000000000000, 1.000000000000000000 ) ) ;
#73 = ORIENTED_EDGE ( 'NONE', *, *, #115, .T. ) ;
#74 = ORIENTED_EDGE ( 'NONE', *, *, #47, .T. ) ;
#75 = PRODUCT_CONTEXT ( 'NONE', #292, 'mechanical' ) ;
#76 = DIRECTION ( 'NONE',  ( 1.000000000000000000, 0.0000000000000000000, 0.0000000000000000000 ) ) ;
#77 = FACE_OUTER_BOUND ( 'NONE', #166, .T. ) ;
#78 = DIRECTION ( 'NONE',  ( -1.000000000000000000, 0.0000000000000000000, 1.224646799147353700E-16 ) ) ;
#79 = CARTESIAN_POINT ( 'NONE',  ( -0.06250000000000002776, 0.0000000000000000000, 1.500000000000000222 ) ) ;
#80 = EDGE_CURVE ( 'NONE', #1, #96, #141, .T. ) ;
#81 = VECTOR ( 'NONE', #221, 39.37007874015748143 ) ;
#82 = SHAPE_DEFINITION_REPRESENTATION ( #49, #274 ) ;
#83 = CONICAL_SURFACE ( 'NONE', #63, 0.04750000000000064587, 0.7853981633974466137 ) ;
#84 = DIRECTION ( 'NONE',  ( -1.224646799147353700E-16, -0.0000000000000000000, -1.000000000000000000 ) ) ;
#85 = DIMENSIONAL_EXPONENTS ( 1.000000000000000000, 0.0000000000000000000, 0.0000000000000000000, 0.0000000000000000000, 0.0000000000000000000, 0.0000000000000000000, 0.0000000000000000000 ) ;
#86 = DIRECTION ( 'NONE',  ( 0.0000000000000000000, 0.0000000000000000000, -1.000000000000000000 ) ) ;
#87 = ADVANCED_FACE ( 'NONE', ( #133 ), #83, .T. ) ;
#88 = EDGE_CURVE ( 'NONE', #120, #192, #175, .T. ) ;
#89 = MANIFOLD_SOLID_BREP ( 'Cut-Revolve1', #216 ) ;
#90 = FACE_OUTER_BOUND ( 'NONE', #3, .T. ) ;
#91 = DIRECTION ( 'NONE',  ( -1.000000000000000000, 0.0000000000000000000, 0.0000000000000000000 ) ) ;
#92 = ORIENTED_EDGE ( 'NONE', *, *, #220, .F. ) ;
#93 = LINE ( 'NONE', #185, #102 ) ;
#94 = EDGE_LOOP ( 'NONE', ( #165, #33, #241, #37 ) ) ;
#95 = DIRECTION ( 'NONE',  ( -0.1736481776669311639, 2.126576849575782392E-17, 0.9848077530122080203 ) ) ;
#96 = VERTEX_POINT ( 'NONE', #291 ) ;
#97 = DIRECTION ( 'NONE',  ( 0.7071067811865462405, 8.659560562354916834E-17, -0.7071067811865486830 ) ) ;
#98 = CONICAL_SURFACE ( 'NONE', #177, 0.01558440000000000519, 0.1745329251994338360 ) ;
#99 = ORIENTED_EDGE ( 'NONE', *, *, #209, .T. ) ;
#100 = ORIENTED_EDGE ( 'NONE', *, *, #242, .F. ) ;
#101 = CARTESIAN_POINT ( 'NONE',  ( -0.06250000000000002776, 0.0000000000000000000, 1.485000000000000764 ) ) ;
#102 = VECTOR ( 'NONE', #110, 39.37007874015748143 ) ;
#103 = SURFACE_SIDE_STYLE ('',( #294 ) ) ;
#104 = EDGE_CURVE ( 'NONE', #26, #6, #246, .T. ) ;
#105 = VECTOR ( 'NONE', #157, 39.37007874015748143 ) ;
#106 = UNCERTAINTY_MEASURE_WITH_UNIT (LENGTH_MEASURE( 1.000000000000000082E-05 ), #143, 'distance_accuracy_value', 'NONE');
#107 = CARTESIAN_POINT ( 'NONE',  ( 0.0000000000000000000, 0.0000000000000000000, 1.500000000000000222 ) ) ;
#108 = AXIS2_PLACEMENT_3D ( 'NONE', #41, #66, #162 ) ;
#109 = STYLED_ITEM ( 'NONE', ( #150 ), #274 ) ;
#110 = DIRECTION ( 'NONE',  ( -1.224646799147353700E-16, -0.0000000000000000000, -1.000000000000000000 ) ) ;
#111 = CARTESIAN_POINT ( 'NONE',  ( 2.337285635691549169E-34, 0.0000000000000000000, 1.908538557663203788E-18 ) ) ;
#112 = DIRECTION ( 'NONE',  ( -0.0000000000000000000, -0.0000000000000000000, -1.000000000000000000 ) ) ;
#113 = CARTESIAN_POINT ( 'NONE',  ( 9.552245033349369302E-18, 0.0000000000000000000, 0.07800000000000009703 ) ) ;
#114 = AXIS2_PLACEMENT_3D ( 'NONE', #144, #32, #121 ) ;
#115 = EDGE_CURVE ( 'NONE', #261, #117, #93, .T. ) ;
#116 = FACE_OUTER_BOUND ( 'NONE', #218, .T. ) ;
#117 = VERTEX_POINT ( 'NONE', #160 ) ;
#118 = EDGE_LOOP ( 'NONE', ( #29, #100, #243, #239 ) ) ;
#119 = AXIS2_PLACEMENT_3D ( 'NONE', #24, #112, #91 ) ;
#120 = VERTEX_POINT ( 'NONE', #210 ) ;
#121 = DIRECTION ( 'NONE',  ( 1.000000000000000000, 0.0000000000000000000, 0.0000000000000000000 ) ) ;
#122 = EDGE_CURVE ( 'NONE', #261, #6, #27, .T. ) ;
#123 = ORIENTED_EDGE ( 'NONE', *, *, #225, .T. ) ;
#124 =( LENGTH_UNIT ( ) NAMED_UNIT ( * ) SI_UNIT ( $, .METRE. ) );
#125 = CARTESIAN_POINT ( 'NONE',  ( -0.06249999999999997918, 0.0000000000000000000, 0.3440715893364554301 ) ) ;
#126 =( NAMED_UNIT ( * ) PLANE_ANGLE_UNIT ( ) SI_UNIT ( $, .RADIAN. ) );
#127 = AXIS2_PLACEMENT_3D ( 'NONE', #139, #86, #281 ) ;
#128 = PRODUCT_DEFINITION ( 'UNKNOWN', '', #224, #202 ) ;
#129 = SURFACE_STYLE_USAGE ( .BOTH. , #103 ) ;
#130 = CONICAL_SURFACE ( 'NONE', #127, 0.04750000000000064587, 0.7853981633974466137 ) ;
#131 = ADVANCED_FACE ( 'NONE', ( #90 ), #204, .F. ) ;
#132 = FILL_AREA_STYLE ('',( #288 ) ) ;
#133 = FACE_OUTER_BOUND ( 'NONE', #44, .T. ) ;
#134 = AXIS2_PLACEMENT_3D ( 'NONE', #62, #137, #142 ) ;
#135 = AXIS2_PLACEMENT_3D ( 'NONE', #275, #164, #297 ) ;
#136 = CARTESIAN_POINT ( 'NONE',  ( 4.213661705584329151E-17, 0.0000000000000000000, 0.3440715893364554301 ) ) ;
#137 = DIRECTION ( 'NONE',  ( -0.0000000000000000000, -0.0000000000000000000, -1.000000000000000000 ) ) ;
#138 = EDGE_CURVE ( 'NONE', #26, #52, #154, .T. ) ;
#139 = CARTESIAN_POINT ( 'NONE',  ( 0.0000000000000000000, 0.0000000000000000000, 1.500000000000000222 ) ) ;
#140 = ORIENTED_EDGE ( 'NONE', *, *, #12, .F. ) ;
#141 = CIRCLE ( 'NONE', #11, 0.04750000000000064587 ) ;
#142 = DIRECTION ( 'NONE',  ( -1.000000000000000000, 0.0000000000000000000, 0.0000000000000000000 ) ) ;
#143 =( CONVERSION_BASED_UNIT ( 'INCH', #8 ) LENGTH_UNIT ( ) NAMED_UNIT ( #85 ) );
#144 = CARTESIAN_POINT ( 'NONE',  ( 0.0000000000000000000, 0.0000000000000000000, 0.0000000000000000000 ) ) ;
#145 = AXIS2_PLACEMENT_3D ( 'NONE', #227, #251, #20 ) ;
#146 = ORIENTED_EDGE ( 'NONE', *, *, #279, .T. ) ;
#147 = CARTESIAN_POINT ( 'NONE',  ( -0.01558439999999999652, 4.781290526167081051E-18, 0.07800000000000009703 ) ) ;
#148 = ADVANCED_FACE ( 'NONE', ( #116 ), #203, .T. ) ;
#149 = CARTESIAN_POINT ( 'NONE',  ( 0.01558440000000000866, 1.908538557663202247E-18, -1.908538557663203017E-18 ) ) ;
#150 = PRESENTATION_STYLE_ASSIGNMENT (( #55 ) ) ;
#151 =( CONVERSION_BASED_UNIT ( 'INCH', #156 ) LENGTH_UNIT ( ) NAMED_UNIT ( #213 ) );
#152 = CIRCLE ( 'NONE', #228, 0.06250000000000002776 ) ;
#153 = CARTESIAN_POINT ( 'NONE',  ( -0.04750000000000064587, 0.0000000000000000000, 1.500000000000000222 ) ) ;
#154 = CIRCLE ( 'NONE', #223, 0.06250000000000002776 ) ;
#155 = CARTESIAN_POINT ( 'NONE',  ( 0.0000000000000000000, 0.0000000000000000000, 1.500000000000000222 ) ) ;
#156 = LENGTH_MEASURE_WITH_UNIT ( LENGTH_MEASURE( 0.02539999999999999897 ), #61 );
#157 = DIRECTION ( 'NONE',  ( -0.0000000000000000000, -0.0000000000000000000, -1.000000000000000000 ) ) ;
#158 = CONICAL_SURFACE ( 'NONE', #207, 0.01558440000000000519, 0.1745329251994338360 ) ;
#159 = DIRECTION ( 'NONE',  ( -1.224646799147353700E-16, -0.0000000000000000000, -1.000000000000000000 ) ) ;
#160 = CARTESIAN_POINT ( 'NONE',  ( -0.01558440000000001387, 0.0000000000000000000, 3.817077115326407575E-18 ) ) ;
#161 = EDGE_LOOP ( 'NONE', ( #163, #74 ) ) ;
#162 = DIRECTION ( 'NONE',  ( -1.000000000000000000, 0.0000000000000000000, 1.224646799147353700E-16 ) ) ;
#163 = ORIENTED_EDGE ( 'NONE', *, *, #80, .T. ) ;
#164 = DIRECTION ( 'NONE',  ( 0.0000000000000000000, 0.0000000000000000000, 1.000000000000000000 ) ) ;
#165 = ORIENTED_EDGE ( 'NONE', *, *, #191, .F. ) ;
#166 = EDGE_LOOP ( 'NONE', ( #255, #271, #99, #140 ) ) ;
#167 = APPLICATION_CONTEXT ( 'automotive_design' ) ;
#168 =( NAMED_UNIT ( * ) SI_UNIT ( $, .STERADIAN. ) SOLID_ANGLE_UNIT ( ) );
#169 = APPLICATION_PROTOCOL_DEFINITION ( 'draft international standard', 'automotive_design', 1998, #292 ) ;
#170 = CARTESIAN_POINT ( 'NONE',  ( 0.0000000000000000000, 0.0000000000000000000, 1.500000000000000222 ) ) ;
#171 = CARTESIAN_POINT ( 'NONE',  ( 0.06250000000000006939, 7.654042494670963708E-18, 0.3440715893364554301 ) ) ;
#172 = EDGE_CURVE ( 'NONE', #117, #192, #219, .T. ) ;
#173 = DIRECTION ( 'NONE',  ( -0.7071067811865462405, 0.0000000000000000000, -0.7071067811865486830 ) ) ;
#174 = LINE ( 'NONE', #4, #248 ) ;
#175 = LINE ( 'NONE', #149, #51 ) ;
#176 = AXIS2_PLACEMENT_3D ( 'NONE', #249, #10, #78 ) ;
#177 = AXIS2_PLACEMENT_3D ( 'NONE', #262, #197, #285 ) ;
#178 = LINE ( 'NONE', #153, #245 ) ;
#179 = STYLED_ITEM ( 'NONE', ( #15 ), #89 ) ;
#180 = DIRECTION ( 'NONE',  ( -1.000000000000000000, 0.0000000000000000000, 0.0000000000000000000 ) ) ;
#181 = DIRECTION ( 'NONE',  ( -1.224646799147353700E-16, -0.0000000000000000000, -1.000000000000000000 ) ) ;
#182 = LINE ( 'NONE', #256, #258 ) ;
#183 = MECHANICAL_DESIGN_GEOMETRIC_PRESENTATION_REPRESENTATION (  '', ( #109 ), #7 ) ;
#184 = FACE_OUTER_BOUND ( 'NONE', #118, .T. ) ;
#185 = CARTESIAN_POINT ( 'NONE',  ( -0.01558440000000000866, 0.0000000000000000000, 1.908538557663203017E-18 ) ) ;
#186 = ORIENTED_EDGE ( 'NONE', *, *, #80, .F. ) ;
#187 = CARTESIAN_POINT ( 'NONE',  ( 0.0000000000000000000, 0.0000000000000000000, 1.485000000000000764 ) ) ;
#188 = ADVANCED_FACE ( 'NONE', ( #295 ), #45, .T. ) ;
#189 = EDGE_LOOP ( 'NONE', ( #31, #50, #73, #56 ) ) ;
#190 = DIRECTION ( 'NONE',  ( -1.224646799147353700E-16, -0.0000000000000000000, -1.000000000000000000 ) ) ;
#191 = EDGE_CURVE ( 'NONE', #52, #280, #182, .T. ) ;
#192 = VERTEX_POINT ( 'NONE', #43 ) ;
#193 = PRODUCT ( 'Micro_EMS-031-2', 'Micro_EMS-031-2', '', ( #75 ) ) ;
#194 = EDGE_LOOP ( 'NONE', ( #232, #67, #269, #284 ) ) ;
#195 = DIRECTION ( 'NONE',  ( 1.000000000000000000, 0.0000000000000000000, 0.0000000000000000000 ) ) ;
#196 = CIRCLE ( 'NONE', #36, 0.04750000000000064587 ) ;
#197 = DIRECTION ( 'NONE',  ( 1.224646799147353700E-16, 0.0000000000000000000, 1.000000000000000000 ) ) ;
#198 =( NAMED_UNIT ( * ) PLANE_ANGLE_UNIT ( ) SI_UNIT ( $, .RADIAN. ) );
#199 = COLOUR_RGB ( '',0.7921568627450980005, 0.8196078431372548767, 0.9333333333333333481 ) ;
#200 = ORIENTED_EDGE ( 'NONE', *, *, #47, .F. ) ;
#201 = PRESENTATION_LAYER_ASSIGNMENT (  '', '', ( #179 ) ) ;
#202 = PRODUCT_DEFINITION_CONTEXT ( 'detailed design', #167, 'design' ) ;
#203 = CYLINDRICAL_SURFACE ( 'NONE', #108, 0.01558440000000000866 ) ;
#204 = PLANE ( 'NONE',  #69 ) ;
#205 = DIRECTION ( 'NONE',  ( -1.224646799147353700E-16, -0.0000000000000000000, -1.000000000000000000 ) ) ;
#206 = ADVANCED_FACE ( 'NONE', ( #2 ), #130, .T. ) ;
#207 = AXIS2_PLACEMENT_3D ( 'NONE', #266, #72, #195 ) ;
#208 = DIRECTION ( 'NONE',  ( 1.000000000000000000, 0.0000000000000000000, -0.0000000000000000000 ) ) ;
#209 = EDGE_CURVE ( 'NONE', #6, #280, #152, .T. ) ;
#210 = CARTESIAN_POINT ( 'NONE',  ( 0.01558440000000001387, 0.0000000000000000000, 0.07800000000000009703 ) ) ;
#211 = CARTESIAN_POINT ( 'NONE',  ( 4.213661705584329151E-17, 0.0000000000000000000, 0.3440715893364554301 ) ) ;
#212 = AXIS2_PLACEMENT_3D ( 'NONE', #40, #181, #229 ) ;
#213 = DIMENSIONAL_EXPONENTS ( 1.000000000000000000, 0.0000000000000000000, 0.0000000000000000000, 0.0000000000000000000, 0.0000000000000000000, 0.0000000000000000000, 0.0000000000000000000 ) ;
#214 =( LENGTH_UNIT ( ) NAMED_UNIT ( * ) SI_UNIT ( $, .METRE. ) );
#215 = ORIENTED_EDGE ( 'NONE', *, *, #138, .F. ) ;
#216 = CLOSED_SHELL ( 'NONE', ( #148, #270, #206, #253, #188, #233, #87, #257, #42, #131 ) ) ;
#217 =( NAMED_UNIT ( * ) SI_UNIT ( $, .STERADIAN. ) SOLID_ANGLE_UNIT ( ) );
#218 = EDGE_LOOP ( 'NONE', ( #18, #235, #71, #34 ) ) ;
#219 = CIRCLE ( 'NONE', #287, 0.01558440000000001387 ) ;
#220 = EDGE_CURVE ( 'NONE', #52, #26, #240, .T. ) ;
#221 = DIRECTION ( 'NONE',  ( 0.1736481776669313304, 0.0000000000000000000, 0.9848077530122077983 ) ) ;
#222 = UNCERTAINTY_MEASURE_WITH_UNIT (LENGTH_MEASURE( 1.000000000000000082E-05 ), #151, 'distance_accuracy_value', 'NONE');
#223 = AXIS2_PLACEMENT_3D ( 'NONE', #187, #254, #48 ) ;
#224 = PRODUCT_DEFINITION_FORMATION_WITH_SPECIFIED_SOURCE ( 'ANY', '', #193, .NOT_KNOWN. ) ;
#225 = EDGE_CURVE ( 'NONE', #192, #117, #21, .T. ) ;
#226 = DIRECTION ( 'NONE',  ( 1.000000000000000000, 0.0000000000000000000, 0.0000000000000000000 ) ) ;
#227 = CARTESIAN_POINT ( 'NONE',  ( 0.0000000000000000000, 0.0000000000000000000, 1.485000000000000764 ) ) ;
#228 = AXIS2_PLACEMENT_3D ( 'NONE', #136, #296, #68 ) ;
#229 = DIRECTION ( 'NONE',  ( -1.000000000000000000, 0.0000000000000000000, 1.224646799147353700E-16 ) ) ;
#230 = FACE_OUTER_BOUND ( 'NONE', #194, .T. ) ;
#231 = PLANE ( 'NONE',  #135 ) ;
#232 = ORIENTED_EDGE ( 'NONE', *, *, #138, .T. ) ;
#233 = ADVANCED_FACE ( 'NONE', ( #23 ), #231, .T. ) ;
#234 = DIRECTION ( 'NONE',  ( -0.0000000000000000000, -0.0000000000000000000, -1.000000000000000000 ) ) ;
#235 = ORIENTED_EDGE ( 'NONE', *, *, #88, .T. ) ;
#236 = SURFACE_SIDE_STYLE ('',( #30 ) ) ;
#237 = ORIENTED_EDGE ( 'NONE', *, *, #38, .T. ) ;
#238 = FILL_AREA_STYLE_COLOUR ( '', #16 ) ;
#239 = ORIENTED_EDGE ( 'NONE', *, *, #290, .T. ) ;
#240 = CIRCLE ( 'NONE', #145, 0.06250000000000002776 ) ;
#241 = ORIENTED_EDGE ( 'NONE', *, *, #104, .T. ) ;
#242 = EDGE_CURVE ( 'NONE', #120, #261, #265, .T. ) ;
#243 = ORIENTED_EDGE ( 'NONE', *, *, #12, .T. ) ;
#244 = LENGTH_MEASURE_WITH_UNIT ( LENGTH_MEASURE( 0.02539999999999999897 ), #124 );
#245 = VECTOR ( 'NONE', #173, 39.37007874015748854 ) ;
#246 = LINE ( 'NONE', #79, #105 ) ;
#247 = EDGE_CURVE ( 'NONE', #261, #120, #5, .T. ) ;
#248 = VECTOR ( 'NONE', #97, 39.37007874015748854 ) ;
#249 = CARTESIAN_POINT ( 'NONE',  ( 0.0000000000000000000, 0.0000000000000000000, 0.0000000000000000000 ) ) ;
#250 = CARTESIAN_POINT ( 'NONE',  ( 0.06250000000000002776, 7.654042494670959086E-18, 1.485000000000000764 ) ) ;
#251 = DIRECTION ( 'NONE',  ( 0.0000000000000000000, 0.0000000000000000000, -1.000000000000000000 ) ) ;
#252 = DIRECTION ( 'NONE',  ( -1.000000000000000000, 0.0000000000000000000, 0.0000000000000000000 ) ) ;
#253 = ADVANCED_FACE ( 'NONE', ( #230 ), #299, .T. ) ;
#254 = DIRECTION ( 'NONE',  ( 0.0000000000000000000, 0.0000000000000000000, -1.000000000000000000 ) ) ;
#255 = ORIENTED_EDGE ( 'NONE', *, *, #247, .F. ) ;
#256 = CARTESIAN_POINT ( 'NONE',  ( 0.06250000000000002776, 7.654042494670959086E-18, 1.500000000000000222 ) ) ;
#257 = ADVANCED_FACE ( 'NONE', ( #184 ), #158, .T. ) ;
#258 = VECTOR ( 'NONE', #234, 39.37007874015748143 ) ;
#259 =( GEOMETRIC_REPRESENTATION_CONTEXT ( 3 ) GLOBAL_UNCERTAINTY_ASSIGNED_CONTEXT ( ( #106 ) ) GLOBAL_UNIT_ASSIGNED_CONTEXT ( ( #143, #126, #168 ) ) REPRESENTATION_CONTEXT ( 'NONE', 'WORKASPACE' ) );
#260 = DIRECTION ( 'NONE',  ( -1.224646799147353700E-16, -0.0000000000000000000, -1.000000000000000000 ) ) ;
#261 = VERTEX_POINT ( 'NONE', #147 ) ;
#262 = CARTESIAN_POINT ( 'NONE',  ( 9.552245033349369302E-18, 0.0000000000000000000, 0.07800000000000009703 ) ) ;
#263 = EDGE_LOOP ( 'NONE', ( #200, #146, #215, #54 ) ) ;
#264 = FILL_AREA_STYLE ('',( #238 ) ) ;
#265 = CIRCLE ( 'NONE', #59, 0.01558440000000000519 ) ;
#266 = CARTESIAN_POINT ( 'NONE',  ( 9.552245033349369302E-18, 0.0000000000000000000, 0.07800000000000009703 ) ) ;
#267 = DIRECTION ( 'NONE',  ( 0.0000000000000000000, 0.0000000000000000000, 1.000000000000000000 ) ) ;
#268 = DIRECTION ( 'NONE',  ( 0.0000000000000000000, 0.0000000000000000000, -1.000000000000000000 ) ) ;
#269 = ORIENTED_EDGE ( 'NONE', *, *, #209, .F. ) ;
#270 = ADVANCED_FACE ( 'NONE', ( #77 ), #98, .T. ) ;
#271 = ORIENTED_EDGE ( 'NONE', *, *, #122, .T. ) ;
#272 = VECTOR ( 'NONE', #95, 39.37007874015747433 ) ;
#273 = DIRECTION ( 'NONE',  ( -1.000000000000000000, 0.0000000000000000000, 1.224646799147353700E-16 ) ) ;
#274 = ADVANCED_BREP_SHAPE_REPRESENTATION ( 'Micro_EMS-031-2', ( #89, #114 ), #259 ) ;
#275 = CARTESIAN_POINT ( 'NONE',  ( 0.0000000000000000000, 0.0000000000000000000, 1.500000000000000222 ) ) ;
#276 = CARTESIAN_POINT ( 'NONE',  ( -0.01558439999999999652, 1.908538557663201862E-18, 0.07800000000000009703 ) ) ;
#277 = ORIENTED_EDGE ( 'NONE', *, *, #172, .T. ) ;
#278 = CARTESIAN_POINT ( 'NONE',  ( 0.0000000000000000000, 0.0000000000000000000, 0.0000000000000000000 ) ) ;
#279 = EDGE_CURVE ( 'NONE', #96, #52, #174, .T. ) ;
#280 = VERTEX_POINT ( 'NONE', #171 ) ;
#281 = DIRECTION ( 'NONE',  ( -1.000000000000000000, 0.0000000000000000000, 0.0000000000000000000 ) ) ;
#282 = MECHANICAL_DESIGN_GEOMETRIC_PRESENTATION_REPRESENTATION (  '', ( #179 ), #46 ) ;
#283 = DIRECTION ( 'NONE',  ( 1.000000000000000000, 0.0000000000000000000, 0.0000000000000000000 ) ) ;
#284 = ORIENTED_EDGE ( 'NONE', *, *, #104, .F. ) ;
#285 = DIRECTION ( 'NONE',  ( 1.000000000000000000, 0.0000000000000000000, 0.0000000000000000000 ) ) ;
#286 = CARTESIAN_POINT ( 'NONE',  ( 0.01558440000000001387, 0.0000000000000000000, 0.07800000000000009703 ) ) ;
#287 = AXIS2_PLACEMENT_3D ( 'NONE', #111, #205, #273 ) ;
#288 = FILL_AREA_STYLE_COLOUR ( '', #199 ) ;
#289 =( NAMED_UNIT ( * ) PLANE_ANGLE_UNIT ( ) SI_UNIT ( $, .RADIAN. ) );
#290 = EDGE_CURVE ( 'NONE', #280, #6, #53, .T. ) ;
#291 = CARTESIAN_POINT ( 'NONE',  ( 0.04750000000000064587, 6.735557395310483192E-18, 1.500000000000000222 ) ) ;
#292 = APPLICATION_CONTEXT ( 'automotive_design' ) ;
#293 = UNCERTAINTY_MEASURE_WITH_UNIT (LENGTH_MEASURE( 1.000000000000000082E-05 ), #13, 'distance_accuracy_value', 'NONE');
#294 = SURFACE_STYLE_FILL_AREA ( #132 ) ;
#295 = FACE_OUTER_BOUND ( 'NONE', #94, .T. ) ;
#296 = DIRECTION ( 'NONE',  ( -1.224646799147353700E-16, -0.0000000000000000000, -1.000000000000000000 ) ) ;
#297 = DIRECTION ( 'NONE',  ( 1.000000000000000000, 0.0000000000000000000, -0.0000000000000000000 ) ) ;
#298 = AXIS2_PLACEMENT_3D ( 'NONE', #113, #159, #252 ) ;
#299 = CYLINDRICAL_SURFACE ( 'NONE', #119, 0.06250000000000002776 ) ;
ENDSEC;
END-ISO-10303-21;
