ISO-10303-21;
HEADER;
FILE_DESCRIPTION (( 'STEP AP214' ),
    '1' );
FILE_NAME ('59466.STEP',
    '2023-07-24T15:07:03',
    ( '' ),
    ( '' ),
    'SwSTEP 2.0',
    'SolidWorks 2023',
    '' );
FILE_SCHEMA (( 'AUTOMOTIVE_DESIGN' ));
ENDSEC;

DATA;
#1 = ORIENTED_EDGE ( 'NONE', *, *, #48, .T. ) ;
#2 =( NAMED_UNIT ( * ) SI_UNIT ( $, .STERADIAN. ) SOLID_ANGLE_UNIT ( ) );
#3 = SURFACE_STYLE_FILL_AREA ( #340 ) ;
#4 = DIRECTION ( 'NONE',  ( -2.776049417962620302E-16, 1.000000000000000000, -0.000000000000000000 ) ) ;
#5 = DIRECTION ( 'NONE',  ( -2.776049417962620302E-16, 1.000000000000000000, -0.000000000000000000 ) ) ;
#6 = AXIS2_PLACEMENT_3D ( 'NONE', #298, #359, #100 ) ;
#7 = DIRECTION ( 'NONE',  ( 0.000000000000000000, 0.000000000000000000, -1.000000000000000000 ) ) ;
#8 = UNCERTAINTY_MEASURE_WITH_UNIT (LENGTH_MEASURE( 1.000000000000000082E-05 ), #310, 'distance_accuracy_value', 'NONE');
#9 = FACE_OUTER_BOUND ( 'NONE', #110, .T. ) ;
#10 =( LENGTH_UNIT ( ) NAMED_UNIT ( * ) SI_UNIT ( .MILLI., .METRE. ) );
#11 = MECHANICAL_DESIGN_GEOMETRIC_PRESENTATION_REPRESENTATION (  '', ( #97 ), #236 ) ;
#12 = VECTOR ( 'NONE', #188, 1000.000000000000000 ) ;
#13 = DIRECTION ( 'NONE',  ( -1.000000000000000000, 0.000000000000000000, 0.000000000000000000 ) ) ;
#14 = CARTESIAN_POINT ( 'NONE',  ( 0.000000000000000000, 1.000000000000000000, -5.000000000000000000 ) ) ;
#15 = CLOSED_SHELL ( 'NONE', ( #200, #58, #221, #223, #111, #249 ) ) ;
#16 = STYLED_ITEM ( 'NONE', ( #93 ), #223 ) ;
#17 = DIRECTION ( 'NONE',  ( -0.000000000000000000, -1.000000000000000000, -0.000000000000000000 ) ) ;
#18 = SURFACE_STYLE_USAGE ( .BOTH. , #317 ) ;
#19 =( NAMED_UNIT ( * ) PLANE_ANGLE_UNIT ( ) SI_UNIT ( $, .RADIAN. ) );
#20 = ORIENTED_EDGE ( 'NONE', *, *, #153, .T. ) ;
#21 = SURFACE_SIDE_STYLE ('',( #205 ) ) ;
#22 = EDGE_CURVE ( 'NONE', #164, #54, #256, .T. ) ;
#23 = DIRECTION ( 'NONE',  ( -0.000000000000000000, -1.000000000000000000, -0.000000000000000000 ) ) ;
#24 = COLOUR_RGB ( '',0.7921568627450980005, 0.8196078431372548767, 0.9333333333333333481 ) ;
#25 = EDGE_LOOP ( 'NONE', ( #60, #312 ) ) ;
#26 = CARTESIAN_POINT ( 'NONE',  ( 6.123233995736766282E-16, 1.000000000000000000, 5.000000000000000000 ) ) ;
#27 = LINE ( 'NONE', #309, #247 ) ;
#28 = PLANE ( 'NONE',  #84 ) ;
#29 =( NAMED_UNIT ( * ) PLANE_ANGLE_UNIT ( ) SI_UNIT ( $, .RADIAN. ) );
#30 = CARTESIAN_POINT ( 'NONE',  ( 0.000000000000000000, 0.000000000000000000, 0.000000000000000000 ) ) ;
#31 =( NAMED_UNIT ( * ) PLANE_ANGLE_UNIT ( ) SI_UNIT ( $, .RADIAN. ) );
#32 = AXIS2_PLACEMENT_3D ( 'NONE', #44, #219, #361 ) ;
#33 = PRODUCT_DEFINITION_CONTEXT ( 'detailed design', #51, 'design' ) ;
#34 = CARTESIAN_POINT ( 'NONE',  ( 0.000000000000000000, 1.000000000000000000, 0.000000000000000000 ) ) ;
#35 = DIRECTION ( 'NONE',  ( 2.776049417962620302E-16, -1.000000000000000000, 0.000000000000000000 ) ) ;
#36 = ADVANCED_FACE ( 'NONE', ( #286 ), #202, .T. ) ;
#37 =( NAMED_UNIT ( * ) SI_UNIT ( $, .STERADIAN. ) SOLID_ANGLE_UNIT ( ) );
#38 = PRODUCT_CONTEXT ( 'NONE', #210, 'mechanical' ) ;
#39 =( LENGTH_UNIT ( ) NAMED_UNIT ( * ) SI_UNIT ( .MILLI., .METRE. ) );
#40 = COLOUR_RGB ( '',1.000000000000000000, 0.000000000000000000, 0.000000000000000000 ) ;
#41 = UNCERTAINTY_MEASURE_WITH_UNIT (LENGTH_MEASURE( 1.000000000000000082E-05 ), #332, 'distance_accuracy_value', 'NONE');
#42 = DIRECTION ( 'NONE',  ( -0.000000000000000000, -1.000000000000000000, -0.000000000000000000 ) ) ;
#43 = LINE ( 'NONE', #73, #12 ) ;
#44 = CARTESIAN_POINT ( 'NONE',  ( 0.000000000000000000, 15.00000000000000000, 0.000000000000000000 ) ) ;
#45 = ORIENTED_EDGE ( 'NONE', *, *, #48, .F. ) ;
#46 = DIRECTION ( 'NONE',  ( 1.000000000000000000, 2.776049417962620302E-16, 0.000000000000000000 ) ) ;
#47 = CIRCLE ( 'NONE', #173, 4.000000000000000000 ) ;
#48 = EDGE_CURVE ( 'NONE', #167, #195, #27, .T. ) ;
#49 = PRESENTATION_LAYER_ASSIGNMENT (  '', '', ( #77 ) ) ;
#50 = ORIENTED_EDGE ( 'NONE', *, *, #315, .F. ) ;
#51 = APPLICATION_CONTEXT ( 'automotive_design' ) ;
#52 = CIRCLE ( 'NONE', #363, 5.000000000000007994 ) ;
#53 = COLOUR_RGB ( '',0.7921568627450980005, 0.8196078431372548767, 0.9333333333333333481 ) ;
#54 = VERTEX_POINT ( 'NONE', #180 ) ;
#55 = EDGE_CURVE ( 'NONE', #90, #78, #47, .T. ) ;
#56 = SURFACE_SIDE_STYLE ('',( #138 ) ) ;
#57 = DIRECTION ( 'NONE',  ( -1.000000000000000000, 0.000000000000000000, 0.000000000000000000 ) ) ;
#58 = ADVANCED_FACE ( 'NONE', ( #238 ), #83, .T. ) ;
#59 = CARTESIAN_POINT ( 'NONE',  ( 5.000000000000000888, 15.00000000000000178, 6.123233995736771213E-16 ) ) ;
#60 = ORIENTED_EDGE ( 'NONE', *, *, #82, .F. ) ;
#61 = AXIS2_PLACEMENT_3D ( 'NONE', #271, #356, #126 ) ;
#62 = PRESENTATION_LAYER_ASSIGNMENT (  '', '', ( #322 ) ) ;
#63 = CARTESIAN_POINT ( 'NONE',  ( 0.000000000000000000, 0.000000000000000000, 0.000000000000000000 ) ) ;
#64 =( GEOMETRIC_REPRESENTATION_CONTEXT ( 3 ) GLOBAL_UNCERTAINTY_ASSIGNED_CONTEXT ( ( #182 ) ) GLOBAL_UNIT_ASSIGNED_CONTEXT ( ( #187, #129, #354 ) ) REPRESENTATION_CONTEXT ( 'NONE', 'WORKASPACE' ) );
#65 = LINE ( 'NONE', #147, #125 ) ;
#66 = FILL_AREA_STYLE_COLOUR ( '', #369 ) ;
#67 = DIRECTION ( 'NONE',  ( -0.000000000000000000, -1.000000000000000000, -0.000000000000000000 ) ) ;
#68 =( NAMED_UNIT ( * ) SI_UNIT ( $, .STERADIAN. ) SOLID_ANGLE_UNIT ( ) );
#69 = SURFACE_STYLE_USAGE ( .BOTH. , #21 ) ;
#70 = AXIS2_PLACEMENT_3D ( 'NONE', #368, #17, #87 ) ;
#71 = CARTESIAN_POINT ( 'NONE',  ( 5.000000000000000000, 63.00000000000000000, 6.123233995736771213E-16 ) ) ;
#72 = CYLINDRICAL_SURFACE ( 'NONE', #165, 5.000000000000000888 ) ;
#73 = CARTESIAN_POINT ( 'NONE',  ( 4.999999999999992895, 63.00000000000000000, 6.123233995736767268E-16 ) ) ;
#74 = FACE_OUTER_BOUND ( 'NONE', #283, .T. ) ;
#75 = DIRECTION ( 'NONE',  ( -0.000000000000000000, -1.000000000000000000, -0.000000000000000000 ) ) ;
#76 = FILL_AREA_STYLE_COLOUR ( '', #228 ) ;
#77 = STYLED_ITEM ( 'NONE', ( #351 ), #249 ) ;
#78 = VERTEX_POINT ( 'NONE', #350 ) ;
#79 = AXIS2_PLACEMENT_3D ( 'NONE', #293, #35, #46 ) ;
#80 = EDGE_CURVE ( 'NONE', #195, #343, #52, .T. ) ;
#81 =( GEOMETRIC_REPRESENTATION_CONTEXT ( 3 ) GLOBAL_UNCERTAINTY_ASSIGNED_CONTEXT ( ( #319 ) ) GLOBAL_UNIT_ASSIGNED_CONTEXT ( ( #287, #140, #255 ) ) REPRESENTATION_CONTEXT ( 'NONE', 'WORKASPACE' ) );
#82 = EDGE_CURVE ( 'NONE', #167, #204, #242, .T. ) ;
#83 = TOROIDAL_SURFACE ( 'NONE', #194, 4.000000000000000000, 1.000000000000000000 ) ;
#84 = AXIS2_PLACEMENT_3D ( 'NONE', #170, #318, #281 ) ;
#85 = CYLINDRICAL_SURFACE ( 'NONE', #70, 5.000000000000000000 ) ;
#86 = ORIENTED_EDGE ( 'NONE', *, *, #80, .T. ) ;
#87 = DIRECTION ( 'NONE',  ( 0.000000000000000000, 0.000000000000000000, -1.000000000000000000 ) ) ;
#88 = ORIENTED_EDGE ( 'NONE', *, *, #159, .F. ) ;
#89 =( NAMED_UNIT ( * ) SI_UNIT ( $, .STERADIAN. ) SOLID_ANGLE_UNIT ( ) );
#90 = VERTEX_POINT ( 'NONE', #272 ) ;
#91 = FILL_AREA_STYLE ('',( #94 ) ) ;
#92 = DIRECTION ( 'NONE',  ( -0.000000000000000000, -1.000000000000000000, -0.000000000000000000 ) ) ;
#93 = PRESENTATION_STYLE_ASSIGNMENT (( #237 ) ) ;
#94 = FILL_AREA_STYLE_COLOUR ( '', #335 ) ;
#95 = UNCERTAINTY_MEASURE_WITH_UNIT (LENGTH_MEASURE( 1.000000000000000082E-05 ), #39, 'distance_accuracy_value', 'NONE');
#96 = PLANE ( 'NONE',  #79 ) ;
#97 = STYLED_ITEM ( 'NONE', ( #185 ), #58 ) ;
#98 = COLOUR_RGB ( '',1.000000000000000000, 0.000000000000000000, 0.000000000000000000 ) ;
#99 = DIRECTION ( 'NONE',  ( -1.000000000000000000, 0.000000000000000000, 0.000000000000000000 ) ) ;
#100 = DIRECTION ( 'NONE',  ( -1.000000000000000000, -2.776049417962620302E-16, 0.000000000000000000 ) ) ;
#101 = SURFACE_STYLE_USAGE ( .BOTH. , #244 ) ;
#102 = PRODUCT_RELATED_PRODUCT_CATEGORY ( 'part', '', ( #253 ) ) ;
#103 = MECHANICAL_DESIGN_GEOMETRIC_PRESENTATION_REPRESENTATION (  '', ( #243 ), #81 ) ;
#104 = CARTESIAN_POINT ( 'NONE',  ( 0.000000000000000000, 1.000000000000000000, 0.000000000000000000 ) ) ;
#105 = SURFACE_STYLE_USAGE ( .BOTH. , #338 ) ;
#106 = PLANE ( 'NONE',  #206 ) ;
#107 = ORIENTED_EDGE ( 'NONE', *, *, #55, .F. ) ;
#108 = FILL_AREA_STYLE ('',( #203 ) ) ;
#109 = ORIENTED_EDGE ( 'NONE', *, *, #80, .F. ) ;
#110 = EDGE_LOOP ( 'NONE', ( #50, #370, #301, #133 ) ) ;
#111 = ADVANCED_FACE ( 'NONE', ( #9 ), #320, .T. ) ;
#112 = PRODUCT_DEFINITION_SHAPE ( 'NONE', 'NONE',  #362 ) ;
#113 = DIRECTION ( 'NONE',  ( 0.000000000000000000, 0.000000000000000000, -1.000000000000000000 ) ) ;
#114 = ORIENTED_EDGE ( 'NONE', *, *, #22, .F. ) ;
#115 =( NAMED_UNIT ( * ) PLANE_ANGLE_UNIT ( ) SI_UNIT ( $, .RADIAN. ) );
#116 = PRESENTATION_LAYER_ASSIGNMENT (  '', '', ( #141 ) ) ;
#117 = AXIS2_PLACEMENT_3D ( 'NONE', #104, #23, #226 ) ;
#118 = DIRECTION ( 'NONE',  ( -2.776049417962620302E-16, 1.000000000000000000, -0.000000000000000000 ) ) ;
#119 = FILL_AREA_STYLE ('',( #307 ) ) ;
#120 = DIRECTION ( 'NONE',  ( 0.000000000000000000, 0.000000000000000000, -1.000000000000000000 ) ) ;
#121 = PRESENTATION_STYLE_ASSIGNMENT (( #101 ) ) ;
#122 = APPLICATION_PROTOCOL_DEFINITION ( 'draft international standard', 'automotive_design', 1998, #51 ) ;
#123 = AXIS2_PLACEMENT_3D ( 'NONE', #172, #278, #7 ) ;
#124 = AXIS2_PLACEMENT_3D ( 'NONE', #330, #337, #275 ) ;
#125 = VECTOR ( 'NONE', #92, 1000.000000000000000 ) ;
#126 = DIRECTION ( 'NONE',  ( 0.000000000000000000, 0.000000000000000000, -1.000000000000000000 ) ) ;
#127 = DIRECTION ( 'NONE',  ( -2.776049417962620302E-16, 1.000000000000000000, -0.000000000000000000 ) ) ;
#128 = FACE_OUTER_BOUND ( 'NONE', #266, .T. ) ;
#129 =( NAMED_UNIT ( * ) PLANE_ANGLE_UNIT ( ) SI_UNIT ( $, .RADIAN. ) );
#130 = ADVANCED_FACE ( 'NONE', ( #74 ), #72, .T. ) ;
#131 = CIRCLE ( 'NONE', #184, 4.999999999999994671 ) ;
#132 = ADVANCED_FACE ( 'NONE', ( #152 ), #245, .F. ) ;
#133 = ORIENTED_EDGE ( 'NONE', *, *, #291, .F. ) ;
#134 = STYLED_ITEM ( 'NONE', ( #248 ), #161 ) ;
#135 = EDGE_CURVE ( 'NONE', #343, #195, #155, .T. ) ;
#136 = FACE_OUTER_BOUND ( 'NONE', #353, .T. ) ;
#137 = ORIENTED_EDGE ( 'NONE', *, *, #168, .T. ) ;
#138 = SURFACE_STYLE_FILL_AREA ( #227 ) ;
#139 = ORIENTED_EDGE ( 'NONE', *, *, #348, .T. ) ;
#140 =( NAMED_UNIT ( * ) PLANE_ANGLE_UNIT ( ) SI_UNIT ( $, .RADIAN. ) );
#141 = STYLED_ITEM ( 'NONE', ( #121 ), #111 ) ;
#142 = MECHANICAL_DESIGN_GEOMETRIC_PRESENTATION_REPRESENTATION (  '', ( #16 ), #224 ) ;
#143 = ADVANCED_FACE ( 'NONE', ( #128 ), #96, .F. ) ;
#144 =( NAMED_UNIT ( * ) SI_UNIT ( $, .STERADIAN. ) SOLID_ANGLE_UNIT ( ) );
#145 = ORIENTED_EDGE ( 'NONE', *, *, #348, .F. ) ;
#146 = VERTEX_POINT ( 'NONE', #14 ) ;
#147 = CARTESIAN_POINT ( 'NONE',  ( 6.123233995736766282E-16, 0.000000000000000000, 5.000000000000000000 ) ) ;
#148 = ORIENTED_EDGE ( 'NONE', *, *, #135, .T. ) ;
#149 = PRESENTATION_STYLE_ASSIGNMENT (( #69 ) ) ;
#150 = CARTESIAN_POINT ( 'NONE',  ( 5.854691731421723944E-15, 15.00000000000000000, 0.000000000000000000 ) ) ;
#151 = CARTESIAN_POINT ( 'NONE',  ( 0.000000000000000000, 0.000000000000000000, 0.000000000000000000 ) ) ;
#152 = FACE_OUTER_BOUND ( 'NONE', #25, .T. ) ;
#153 = EDGE_CURVE ( 'NONE', #54, #164, #339, .T. ) ;
#154 =( NAMED_UNIT ( * ) PLANE_ANGLE_UNIT ( ) SI_UNIT ( $, .RADIAN. ) );
#155 = CIRCLE ( 'NONE', #273, 5.000000000000007994 ) ;
#156 = MECHANICAL_DESIGN_GEOMETRIC_PRESENTATION_REPRESENTATION (  '', ( #77 ), #192 ) ;
#157 = APPLICATION_PROTOCOL_DEFINITION ( 'draft international standard', 'automotive_design', 1998, #210 ) ;
#158 = CARTESIAN_POINT ( 'NONE',  ( -7.470345474798853504E-15, 63.00000000000000000, 0.000000000000000000 ) ) ;
#159 = EDGE_CURVE ( 'NONE', #250, #90, #282, .T. ) ;
#160 = FILL_AREA_STYLE_COLOUR ( '', #53 ) ;
#161 = MANIFOLD_SOLID_BREP ( 'Revolve - Cutting Edge', #15 ) ;
#162 = SURFACE_STYLE_USAGE ( .BOTH. , #190 ) ;
#163 =( GEOMETRIC_REPRESENTATION_CONTEXT ( 3 ) GLOBAL_UNCERTAINTY_ASSIGNED_CONTEXT ( ( #189 ) ) GLOBAL_UNIT_ASSIGNED_CONTEXT ( ( #349, #232, #89 ) ) REPRESENTATION_CONTEXT ( 'NONE', 'WORKASPACE' ) );
#164 = VERTEX_POINT ( 'NONE', #262 ) ;
#165 = AXIS2_PLACEMENT_3D ( 'NONE', #240, #127, #214 ) ;
#166 = COLOUR_RGB ( '',1.000000000000000000, 0.000000000000000000, 0.000000000000000000 ) ;
#167 = VERTEX_POINT ( 'NONE', #279 ) ;
#168 = EDGE_CURVE ( 'NONE', #146, #250, #258, .T. ) ;
#169 = ORIENTED_EDGE ( 'NONE', *, *, #55, .T. ) ;
#170 = CARTESIAN_POINT ( 'NONE',  ( 0.000000000000000000, 15.00000000000000000, 0.000000000000000000 ) ) ;
#171 = CARTESIAN_POINT ( 'NONE',  ( -5.000000000000015987, 63.00000000000000000, 0.000000000000000000 ) ) ;
#172 = CARTESIAN_POINT ( 'NONE',  ( 0.000000000000000000, 15.00000000000000000, 0.000000000000000000 ) ) ;
#173 = AXIS2_PLACEMENT_3D ( 'NONE', #30, #67, #235 ) ;
#174 = SURFACE_STYLE_USAGE ( .BOTH. , #267 ) ;
#175 = TOROIDAL_SURFACE ( 'NONE', #292, 4.000000000000000000, 1.000000000000000000 ) ;
#176 =( GEOMETRIC_REPRESENTATION_CONTEXT ( 3 ) GLOBAL_UNCERTAINTY_ASSIGNED_CONTEXT ( ( #358 ) ) GLOBAL_UNIT_ASSIGNED_CONTEXT ( ( #303, #19, #144 ) ) REPRESENTATION_CONTEXT ( 'NONE', 'WORKASPACE' ) );
#177 = PRESENTATION_STYLE_ASSIGNMENT (( #105 ) ) ;
#178 = ORIENTED_EDGE ( 'NONE', *, *, #82, .T. ) ;
#179 = CARTESIAN_POINT ( 'NONE',  ( 0.000000000000000000, 1.000000000000000000, 0.000000000000000000 ) ) ;
#180 = CARTESIAN_POINT ( 'NONE',  ( 0.000000000000000000, 15.00000000000000000, -5.000000000000000000 ) ) ;
#181 = SURFACE_STYLE_FILL_AREA ( #119 ) ;
#182 = UNCERTAINTY_MEASURE_WITH_UNIT (LENGTH_MEASURE( 1.000000000000000082E-05 ), #187, 'distance_accuracy_value', 'NONE');
#183 = DIRECTION ( 'NONE',  ( -1.000000000000000000, -3.469446951953618133E-16, 0.000000000000000000 ) ) ;
#184 = AXIS2_PLACEMENT_3D ( 'NONE', #264, #5, #321 ) ;
#185 = PRESENTATION_STYLE_ASSIGNMENT (( #18 ) ) ;
#186 = FILL_AREA_STYLE ('',( #76 ) ) ;
#187 =( LENGTH_UNIT ( ) NAMED_UNIT ( * ) SI_UNIT ( .MILLI., .METRE. ) );
#188 = DIRECTION ( 'NONE',  ( -2.776049417962620302E-16, 1.000000000000000000, -0.000000000000000000 ) ) ;
#189 = UNCERTAINTY_MEASURE_WITH_UNIT (LENGTH_MEASURE( 1.000000000000000082E-05 ), #349, 'distance_accuracy_value', 'NONE');
#190 = SURFACE_SIDE_STYLE ('',( #331 ) ) ;
#191 =( GEOMETRIC_REPRESENTATION_CONTEXT ( 3 ) GLOBAL_UNCERTAINTY_ASSIGNED_CONTEXT ( ( #95 ) ) GLOBAL_UNIT_ASSIGNED_CONTEXT ( ( #39, #357, #68 ) ) REPRESENTATION_CONTEXT ( 'NONE', 'WORKASPACE' ) );
#192 =( GEOMETRIC_REPRESENTATION_CONTEXT ( 3 ) GLOBAL_UNCERTAINTY_ASSIGNED_CONTEXT ( ( #218 ) ) GLOBAL_UNIT_ASSIGNED_CONTEXT ( ( #285, #115, #211 ) ) REPRESENTATION_CONTEXT ( 'NONE', 'WORKASPACE' ) );
#193 = ORIENTED_EDGE ( 'NONE', *, *, #153, .F. ) ;
#194 = AXIS2_PLACEMENT_3D ( 'NONE', #34, #42, #120 ) ;
#195 = VERTEX_POINT ( 'NONE', #171 ) ;
#196 = STYLED_ITEM ( 'NONE', ( #177 ), #200 ) ;
#197 = AXIS2_PLACEMENT_3D ( 'NONE', #269, #246, #220 ) ;
#198 = SURFACE_STYLE_USAGE ( .BOTH. , #56 ) ;
#199 = ORIENTED_EDGE ( 'NONE', *, *, #329, .T. ) ;
#200 = ADVANCED_FACE ( 'NONE', ( #308 ), #85, .T. ) ;
#201 = FILL_AREA_STYLE_COLOUR ( '', #98 ) ;
#202 = CYLINDRICAL_SURFACE ( 'NONE', #251, 5.000000000000000888 ) ;
#203 = FILL_AREA_STYLE_COLOUR ( '', #24 ) ;
#204 = VERTEX_POINT ( 'NONE', #59 ) ;
#205 = SURFACE_STYLE_FILL_AREA ( #108 ) ;
#206 = AXIS2_PLACEMENT_3D ( 'NONE', #63, #230, #113 ) ;
#207 = FACE_OUTER_BOUND ( 'NONE', #305, .T. ) ;
#208 = SURFACE_STYLE_FILL_AREA ( #91 ) ;
#209 = DIRECTION ( 'NONE',  ( -0.000000000000000000, -1.000000000000000000, -0.000000000000000000 ) ) ;
#210 = APPLICATION_CONTEXT ( 'automotive_design' ) ;
#211 =( NAMED_UNIT ( * ) SI_UNIT ( $, .STERADIAN. ) SOLID_ANGLE_UNIT ( ) );
#212 = DIRECTION ( 'NONE',  ( -2.776049417962620302E-16, 1.000000000000000000, -0.000000000000000000 ) ) ;
#213 = PRESENTATION_LAYER_ASSIGNMENT (  '', '', ( #16 ) ) ;
#214 = DIRECTION ( 'NONE',  ( -1.000000000000000000, 0.000000000000000000, 0.000000000000000000 ) ) ;
#215 = CARTESIAN_POINT ( 'NONE',  ( 0.000000000000000000, 0.000000000000000000, -5.000000000000000000 ) ) ;
#216 = DIRECTION ( 'NONE',  ( -1.000000000000000000, 0.000000000000000000, 0.000000000000000000 ) ) ;
#217 = LINE ( 'NONE', #215, #336 ) ;
#218 = UNCERTAINTY_MEASURE_WITH_UNIT (LENGTH_MEASURE( 1.000000000000000082E-05 ), #285, 'distance_accuracy_value', 'NONE');
#219 = DIRECTION ( 'NONE',  ( -0.000000000000000000, -1.000000000000000000, -0.000000000000000000 ) ) ;
#220 = DIRECTION ( 'NONE',  ( 1.000000000000000000, 0.000000000000000000, 0.000000000000000000 ) ) ;
#221 = ADVANCED_FACE ( 'NONE', ( #136 ), #106, .T. ) ;
#222 = FILL_AREA_STYLE ('',( #160 ) ) ;
#223 = ADVANCED_FACE ( 'NONE', ( #207 ), #175, .T. ) ;
#224 =( GEOMETRIC_REPRESENTATION_CONTEXT ( 3 ) GLOBAL_UNCERTAINTY_ASSIGNED_CONTEXT ( ( #8 ) ) GLOBAL_UNIT_ASSIGNED_CONTEXT ( ( #310, #31, #2 ) ) REPRESENTATION_CONTEXT ( 'NONE', 'WORKASPACE' ) );
#225 = AXIS2_PLACEMENT_3D ( 'NONE', #151, #325, #323 ) ;
#226 = DIRECTION ( 'NONE',  ( 0.000000000000000000, 0.000000000000000000, -1.000000000000000000 ) ) ;
#227 = FILL_AREA_STYLE ('',( #201 ) ) ;
#228 = COLOUR_RGB ( '',1.000000000000000000, 0.000000000000000000, 0.000000000000000000 ) ;
#229 = ORIENTED_EDGE ( 'NONE', *, *, #334, .F. ) ;
#230 = DIRECTION ( 'NONE',  ( 0.000000000000000000, -1.000000000000000000, -0.000000000000000000 ) ) ;
#231 = ORIENTED_EDGE ( 'NONE', *, *, #159, .T. ) ;
#232 =( NAMED_UNIT ( * ) PLANE_ANGLE_UNIT ( ) SI_UNIT ( $, .RADIAN. ) );
#233 = ORIENTED_EDGE ( 'NONE', *, *, #315, .T. ) ;
#234 = DIRECTION ( 'NONE',  ( -0.000000000000000000, -1.000000000000000000, -0.000000000000000000 ) ) ;
#235 = DIRECTION ( 'NONE',  ( 0.000000000000000000, 0.000000000000000000, -1.000000000000000000 ) ) ;
#236 =( GEOMETRIC_REPRESENTATION_CONTEXT ( 3 ) GLOBAL_UNCERTAINTY_ASSIGNED_CONTEXT ( ( #239 ) ) GLOBAL_UNIT_ASSIGNED_CONTEXT ( ( #10, #154, #37 ) ) REPRESENTATION_CONTEXT ( 'NONE', 'WORKASPACE' ) );
#237 = SURFACE_STYLE_USAGE ( .BOTH. , #265 ) ;
#238 = FACE_OUTER_BOUND ( 'NONE', #280, .T. ) ;
#239 = UNCERTAINTY_MEASURE_WITH_UNIT (LENGTH_MEASURE( 1.000000000000000082E-05 ), #10, 'distance_accuracy_value', 'NONE');
#240 = CARTESIAN_POINT ( 'NONE',  ( -7.470345474798853504E-15, 63.00000000000000000, 0.000000000000000000 ) ) ;
#241 = DIRECTION ( 'NONE',  ( 0.000000000000000000, 0.000000000000000000, 1.000000000000000000 ) ) ;
#242 = CIRCLE ( 'NONE', #276, 4.999999999999994671 ) ;
#243 = STYLED_ITEM ( 'NONE', ( #149 ), #290 ) ;
#244 = SURFACE_SIDE_STYLE ('',( #324 ) ) ;
#245 = PLANE ( 'NONE',  #6 ) ;
#246 = DIRECTION ( 'NONE',  ( 0.000000000000000000, 0.000000000000000000, 1.000000000000000000 ) ) ;
#247 = VECTOR ( 'NONE', #4, 1000.000000000000000 ) ;
#248 = PRESENTATION_STYLE_ASSIGNMENT (( #162 ) ) ;
#249 = ADVANCED_FACE ( 'NONE', ( #316 ), #28, .T. ) ;
#250 = VERTEX_POINT ( 'NONE', #26 ) ;
#251 = AXIS2_PLACEMENT_3D ( 'NONE', #341, #118, #57 ) ;
#252 = MECHANICAL_DESIGN_GEOMETRIC_PRESENTATION_REPRESENTATION (  '', ( #196 ), #176 ) ;
#253 = PRODUCT ( '59466', '59466', '', ( #38 ) ) ;
#254 = EDGE_LOOP ( 'NONE', ( #20, #233, #306, #229 ) ) ;
#255 =( NAMED_UNIT ( * ) SI_UNIT ( $, .STERADIAN. ) SOLID_ANGLE_UNIT ( ) );
#256 = CIRCLE ( 'NONE', #123, 5.000000000000000000 ) ;
#257 = ORIENTED_EDGE ( 'NONE', *, *, #291, .T. ) ;
#258 = CIRCLE ( 'NONE', #117, 5.000000000000000000 ) ;
#259 = PRESENTATION_STYLE_ASSIGNMENT (( #198 ) ) ;
#260 = ORIENTED_EDGE ( 'NONE', *, *, #355, .F. ) ;
#261 = CARTESIAN_POINT ( 'NONE',  ( 0.000000000000000000, 1.000000000000000000, 0.000000000000000000 ) ) ;
#262 = CARTESIAN_POINT ( 'NONE',  ( 6.123233995736766282E-16, 15.00000000000000000, 5.000000000000000000 ) ) ;
#263 = ORIENTED_EDGE ( 'NONE', *, *, #135, .F. ) ;
#264 = CARTESIAN_POINT ( 'NONE',  ( 5.854691731421723944E-15, 15.00000000000000000, 0.000000000000000000 ) ) ;
#265 = SURFACE_SIDE_STYLE ('',( #352 ) ) ;
#266 = EDGE_LOOP ( 'NONE', ( #86, #148 ) ) ;
#267 = SURFACE_SIDE_STYLE ('',( #181 ) ) ;
#268 = PRODUCT_DEFINITION_FORMATION_WITH_SPECIFIED_SOURCE ( 'ANY', '', #253, .NOT_KNOWN. ) ;
#269 = CARTESIAN_POINT ( 'NONE',  ( 0.000000000000000000, 0.000000000000000000, 0.000000000000000000 ) ) ;
#270 = DIRECTION ( 'NONE',  ( -2.776049417962620302E-16, 1.000000000000000000, -0.000000000000000000 ) ) ;
#271 = CARTESIAN_POINT ( 'NONE',  ( 0.000000000000000000, 0.000000000000000000, 0.000000000000000000 ) ) ;
#272 = CARTESIAN_POINT ( 'NONE',  ( 5.510910596163088569E-16, 0.000000000000000000, 4.000000000000000000 ) ) ;
#273 = AXIS2_PLACEMENT_3D ( 'NONE', #158, #212, #13 ) ;
#274 = ORIENTED_EDGE ( 'NONE', *, *, #344, .T. ) ;
#275 = DIRECTION ( 'NONE',  ( -1.224646799147353454E-16, 0.000000000000000000, -1.000000000000000000 ) ) ;
#276 = AXIS2_PLACEMENT_3D ( 'NONE', #150, #294, #183 ) ;
#277 = PRESENTATION_LAYER_ASSIGNMENT (  '', '', ( #243 ) ) ;
#278 = DIRECTION ( 'NONE',  ( -0.000000000000000000, -1.000000000000000000, -0.000000000000000000 ) ) ;
#279 = CARTESIAN_POINT ( 'NONE',  ( -4.999999999999988454, 14.99999999999999822, 0.000000000000000000 ) ) ;
#280 = EDGE_LOOP ( 'NONE', ( #137, #231, #145, #260 ) ) ;
#281 = DIRECTION ( 'NONE',  ( 0.000000000000000000, -0.000000000000000000, 1.000000000000000000 ) ) ;
#282 = CIRCLE ( 'NONE', #124, 1.000000000000000000 ) ;
#283 = EDGE_LOOP ( 'NONE', ( #289, #199, #1, #263 ) ) ;
#284 = AXIS2_PLACEMENT_3D ( 'NONE', #261, #234, #314 ) ;
#285 =( LENGTH_UNIT ( ) NAMED_UNIT ( * ) SI_UNIT ( .MILLI., .METRE. ) );
#286 = FACE_OUTER_BOUND ( 'NONE', #333, .T. ) ;
#287 =( LENGTH_UNIT ( ) NAMED_UNIT ( * ) SI_UNIT ( .MILLI., .METRE. ) );
#288 = FILL_AREA_STYLE ('',( #66 ) ) ;
#289 = ORIENTED_EDGE ( 'NONE', *, *, #344, .F. ) ;
#290 = MANIFOLD_SOLID_BREP ( 'Revolve - Tool Body (Straight Shanked)', #367 ) ;
#291 = EDGE_CURVE ( 'NONE', #250, #146, #304, .T. ) ;
#292 = AXIS2_PLACEMENT_3D ( 'NONE', #179, #209, #345 ) ;
#293 = CARTESIAN_POINT ( 'NONE',  ( 5.000000000000000000, 63.00000000000000000, 0.000000000000000000 ) ) ;
#294 = DIRECTION ( 'NONE',  ( -2.776049417962620302E-16, 1.000000000000000000, -0.000000000000000000 ) ) ;
#295 = CARTESIAN_POINT ( 'NONE',  ( 0.000000000000000000, 1.000000000000000000, -4.000000000000000000 ) ) ;
#296 = PRESENTATION_LAYER_ASSIGNMENT (  '', '', ( #97 ) ) ;
#297 = PRESENTATION_LAYER_ASSIGNMENT (  '', '', ( #134 ) ) ;
#298 = CARTESIAN_POINT ( 'NONE',  ( 5.854691731421723944E-15, 15.00000000000000000, 0.000000000000000000 ) ) ;
#299 = SHAPE_DEFINITION_REPRESENTATION ( #112, #347 ) ;
#300 = PRESENTATION_LAYER_ASSIGNMENT (  '', '', ( #196 ) ) ;
#301 = ORIENTED_EDGE ( 'NONE', *, *, #334, .T. ) ;
#302 = MECHANICAL_DESIGN_GEOMETRIC_PRESENTATION_REPRESENTATION (  '', ( #141 ), #191 ) ;
#303 =( LENGTH_UNIT ( ) NAMED_UNIT ( * ) SI_UNIT ( .MILLI., .METRE. ) );
#304 = CIRCLE ( 'NONE', #284, 5.000000000000000000 ) ;
#305 = EDGE_LOOP ( 'NONE', ( #88, #257, #366, #107 ) ) ;
#306 = ORIENTED_EDGE ( 'NONE', *, *, #168, .F. ) ;
#307 = FILL_AREA_STYLE_COLOUR ( '', #166 ) ;
#308 = FACE_OUTER_BOUND ( 'NONE', #254, .T. ) ;
#309 = CARTESIAN_POINT ( 'NONE',  ( -5.000000000000008882, 63.00000000000000000, 0.000000000000000000 ) ) ;
#310 =( LENGTH_UNIT ( ) NAMED_UNIT ( * ) SI_UNIT ( .MILLI., .METRE. ) );
#311 = CIRCLE ( 'NONE', #225, 4.000000000000000000 ) ;
#312 = ORIENTED_EDGE ( 'NONE', *, *, #329, .F. ) ;
#313 = CIRCLE ( 'NONE', #328, 1.000000000000000000 ) ;
#314 = DIRECTION ( 'NONE',  ( 0.000000000000000000, 0.000000000000000000, -1.000000000000000000 ) ) ;
#315 = EDGE_CURVE ( 'NONE', #164, #250, #65, .T. ) ;
#316 = FACE_OUTER_BOUND ( 'NONE', #346, .T. ) ;
#317 = SURFACE_SIDE_STYLE ('',( #208 ) ) ;
#318 = DIRECTION ( 'NONE',  ( 0.000000000000000000, 1.000000000000000000, 0.000000000000000000 ) ) ;
#319 = UNCERTAINTY_MEASURE_WITH_UNIT (LENGTH_MEASURE( 1.000000000000000082E-05 ), #287, 'distance_accuracy_value', 'NONE');
#320 = CYLINDRICAL_SURFACE ( 'NONE', #61, 5.000000000000000000 ) ;
#321 = DIRECTION ( 'NONE',  ( -1.000000000000000000, -3.469446951953618133E-16, 0.000000000000000000 ) ) ;
#322 = STYLED_ITEM ( 'NONE', ( #259 ), #221 ) ;
#323 = DIRECTION ( 'NONE',  ( 0.000000000000000000, 0.000000000000000000, -1.000000000000000000 ) ) ;
#324 = SURFACE_STYLE_FILL_AREA ( #186 ) ;
#325 = DIRECTION ( 'NONE',  ( -0.000000000000000000, -1.000000000000000000, -0.000000000000000000 ) ) ;
#326 = CARTESIAN_POINT ( 'NONE',  ( -7.470345474798853504E-15, 63.00000000000000000, 0.000000000000000000 ) ) ;
#327 = MECHANICAL_DESIGN_GEOMETRIC_PRESENTATION_REPRESENTATION (  '', ( #134 ), #360 ) ;
#328 = AXIS2_PLACEMENT_3D ( 'NONE', #295, #99, #241 ) ;
#329 = EDGE_CURVE ( 'NONE', #204, #167, #131, .T. ) ;
#330 = CARTESIAN_POINT ( 'NONE',  ( 4.898587196589412829E-16, 1.000000000000000000, 4.000000000000000000 ) ) ;
#331 = SURFACE_STYLE_FILL_AREA ( #222 ) ;
#332 =( LENGTH_UNIT ( ) NAMED_UNIT ( * ) SI_UNIT ( .MILLI., .METRE. ) );
#333 = EDGE_LOOP ( 'NONE', ( #178, #274, #109, #45 ) ) ;
#334 = EDGE_CURVE ( 'NONE', #54, #146, #217, .T. ) ;
#335 = COLOUR_RGB ( '',1.000000000000000000, 0.000000000000000000, 0.000000000000000000 ) ;
#336 = VECTOR ( 'NONE', #75, 1000.000000000000000 ) ;
#337 = DIRECTION ( 'NONE',  ( 1.000000000000000000, 0.000000000000000000, -1.224646799147353207E-16 ) ) ;
#338 = SURFACE_SIDE_STYLE ('',( #3 ) ) ;
#339 = CIRCLE ( 'NONE', #32, 5.000000000000000000 ) ;
#340 = FILL_AREA_STYLE ('',( #365 ) ) ;
#341 = CARTESIAN_POINT ( 'NONE',  ( -7.470345474798853504E-15, 63.00000000000000000, 0.000000000000000000 ) ) ;
#342 =( NAMED_UNIT ( * ) SI_UNIT ( $, .STERADIAN. ) SOLID_ANGLE_UNIT ( ) );
#343 = VERTEX_POINT ( 'NONE', #71 ) ;
#344 = EDGE_CURVE ( 'NONE', #204, #343, #43, .T. ) ;
#345 = DIRECTION ( 'NONE',  ( 0.000000000000000000, 0.000000000000000000, -1.000000000000000000 ) ) ;
#346 = EDGE_LOOP ( 'NONE', ( #193, #114 ) ) ;
#347 = ADVANCED_BREP_SHAPE_REPRESENTATION ( '59466', ( #161, #290, #197 ), #64 ) ;
#348 = EDGE_CURVE ( 'NONE', #78, #90, #311, .T. ) ;
#349 =( LENGTH_UNIT ( ) NAMED_UNIT ( * ) SI_UNIT ( .MILLI., .METRE. ) );
#350 = CARTESIAN_POINT ( 'NONE',  ( 0.000000000000000000, 0.000000000000000000, -4.000000000000000000 ) ) ;
#351 = PRESENTATION_STYLE_ASSIGNMENT (( #174 ) ) ;
#352 = SURFACE_STYLE_FILL_AREA ( #288 ) ;
#353 = EDGE_LOOP ( 'NONE', ( #139, #169 ) ) ;
#354 =( NAMED_UNIT ( * ) SI_UNIT ( $, .STERADIAN. ) SOLID_ANGLE_UNIT ( ) );
#355 = EDGE_CURVE ( 'NONE', #146, #78, #313, .T. ) ;
#356 = DIRECTION ( 'NONE',  ( -0.000000000000000000, -1.000000000000000000, -0.000000000000000000 ) ) ;
#357 =( NAMED_UNIT ( * ) PLANE_ANGLE_UNIT ( ) SI_UNIT ( $, .RADIAN. ) );
#358 = UNCERTAINTY_MEASURE_WITH_UNIT (LENGTH_MEASURE( 1.000000000000000082E-05 ), #303, 'distance_accuracy_value', 'NONE');
#359 = DIRECTION ( 'NONE',  ( -2.776049417962620302E-16, 1.000000000000000000, 0.000000000000000000 ) ) ;
#360 =( GEOMETRIC_REPRESENTATION_CONTEXT ( 3 ) GLOBAL_UNCERTAINTY_ASSIGNED_CONTEXT ( ( #41 ) ) GLOBAL_UNIT_ASSIGNED_CONTEXT ( ( #332, #29, #342 ) ) REPRESENTATION_CONTEXT ( 'NONE', 'WORKASPACE' ) );
#361 = DIRECTION ( 'NONE',  ( 0.000000000000000000, 0.000000000000000000, -1.000000000000000000 ) ) ;
#362 = PRODUCT_DEFINITION ( 'UNKNOWN', '', #268, #33 ) ;
#363 = AXIS2_PLACEMENT_3D ( 'NONE', #326, #270, #216 ) ;
#364 = MECHANICAL_DESIGN_GEOMETRIC_PRESENTATION_REPRESENTATION (  '', ( #322 ), #163 ) ;
#365 = FILL_AREA_STYLE_COLOUR ( '', #40 ) ;
#366 = ORIENTED_EDGE ( 'NONE', *, *, #355, .T. ) ;
#367 = CLOSED_SHELL ( 'NONE', ( #36, #132, #130, #143 ) ) ;
#368 = CARTESIAN_POINT ( 'NONE',  ( 0.000000000000000000, 0.000000000000000000, 0.000000000000000000 ) ) ;
#369 = COLOUR_RGB ( '',1.000000000000000000, 0.000000000000000000, 0.000000000000000000 ) ;
#370 = ORIENTED_EDGE ( 'NONE', *, *, #22, .T. ) ;
ENDSEC;
END-ISO-10303-21;
