ISO-10303-21;
HEADER;
FILE_DESCRIPTION (( 'STEP AP214' ),
    '1' );
FILE_NAME ('01482.STEP',
    '2023-06-22T14:33:39',
    ( '' ),
    ( '' ),
    'SwSTEP 2.0',
    'SolidWorks 2023',
    '' );
FILE_SCHEMA (( 'AUTOMOTIVE_DESIGN' ));
ENDSEC;

DATA;
#1 = DIRECTION ( 'NONE',  ( 1.000000000000000000, 0.000000000000000000, 0.000000000000000000 ) ) ;
#2 = AXIS2_PLACEMENT_3D ( 'NONE', #13, #115, #183 ) ;
#3 = DIRECTION ( 'NONE',  ( 0.000000000000000000, 0.000000000000000000, 1.000000000000000000 ) ) ;
#4 = PRODUCT_DEFINITION_SHAPE ( 'NONE', 'NONE',  #8 ) ;
#5 = UNCERTAINTY_MEASURE_WITH_UNIT (LENGTH_MEASURE( 1.000000000000000082E-05 ), #119, 'distance_accuracy_value', 'NONE');
#6 =( NAMED_UNIT ( * ) PLANE_ANGLE_UNIT ( ) SI_UNIT ( $, .RADIAN. ) );
#7 = FACE_OUTER_BOUND ( 'NONE', #144, .T. ) ;
#8 = PRODUCT_DEFINITION ( 'UNKNOWN', '', #104, #172 ) ;
#9 = EDGE_CURVE ( 'NONE', #145, #178, #40, .T. ) ;
#10 = EDGE_LOOP ( 'NONE', ( #111, #23, #129, #69 ) ) ;
#11 = STYLED_ITEM ( 'NONE', ( #210 ), #44 ) ;
#12 = FILL_AREA_STYLE ('',( #156 ) ) ;
#13 = CARTESIAN_POINT ( 'NONE',  ( -1.224646799147352714E-16, 4.000000000000000000, 0.000000000000000000 ) ) ;
#14 = DIRECTION ( 'NONE',  ( -0.000000000000000000, -1.000000000000000000, -0.000000000000000000 ) ) ;
#15 = SURFACE_STYLE_FILL_AREA ( #234 ) ;
#16 = ADVANCED_FACE ( 'NONE', ( #255 ), #233, .F. ) ;
#17 = STYLED_ITEM ( 'NONE', ( #186 ), #163 ) ;
#18 = LENGTH_MEASURE_WITH_UNIT ( LENGTH_MEASURE( 0.02539999999999999897 ), #263 );
#19 = FILL_AREA_STYLE ('',( #72 ) ) ;
#20 = DIRECTION ( 'NONE',  ( 0.000000000000000000, 0.000000000000000000, -1.000000000000000000 ) ) ;
#21 = SURFACE_SIDE_STYLE ('',( #95 ) ) ;
#22 = DIRECTION ( 'NONE',  ( 0.000000000000000000, -0.000000000000000000, 1.000000000000000000 ) ) ;
#23 = ORIENTED_EDGE ( 'NONE', *, *, #87, .T. ) ;
#24 = DIRECTION ( 'NONE',  ( -5.156407575357275916E-17, 1.000000000000000000, 0.000000000000000000 ) ) ;
#25 = AXIS2_PLACEMENT_3D ( 'NONE', #68, #166, #20 ) ;
#26 = SURFACE_SIDE_STYLE ('',( #240 ) ) ;
#27 = ORIENTED_EDGE ( 'NONE', *, *, #140, .T. ) ;
#28 =( CONVERSION_BASED_UNIT ( 'INCH', #93 ) LENGTH_UNIT ( ) NAMED_UNIT ( #71 ) );
#29 = AXIS2_PLACEMENT_3D ( 'NONE', #250, #84, #35 ) ;
#30 = VERTEX_POINT ( 'NONE', #215 ) ;
#31 = ADVANCED_FACE ( 'NONE', ( #306 ), #257, .T. ) ;
#32 = AXIS2_PLACEMENT_3D ( 'NONE', #91, #14, #41 ) ;
#33 = PLANE ( 'NONE',  #177 ) ;
#34 = CARTESIAN_POINT ( 'NONE',  ( -1.224646799147352714E-16, 4.000000000000000000, 0.000000000000000000 ) ) ;
#35 = DIRECTION ( 'NONE',  ( -1.000000000000000000, 0.000000000000000000, 0.000000000000000000 ) ) ;
#36 = PRODUCT_RELATED_PRODUCT_CATEGORY ( 'part', '', ( #128 ) ) ;
#37 = CARTESIAN_POINT ( 'NONE',  ( 0.000000000000000000, 0.000000000000000000, 0.000000000000000000 ) ) ;
#38 = CARTESIAN_POINT ( 'NONE',  ( 0.2499999999999999167, 4.000000000000000000, 3.061616997868383634E-17 ) ) ;
#39 = DIRECTION ( 'NONE',  ( -1.000000000000000000, -5.156407575357275916E-17, 0.000000000000000000 ) ) ;
#40 = CIRCLE ( 'NONE', #135, 0.2500000000000000000 ) ;
#41 = DIRECTION ( 'NONE',  ( 0.000000000000000000, 0.000000000000000000, -1.000000000000000000 ) ) ;
#42 = COLOUR_RGB ( '',1.000000000000000000, 0.000000000000000000, 0.000000000000000000 ) ;
#43 = FACE_OUTER_BOUND ( 'NONE', #10, .T. ) ;
#44 = ADVANCED_FACE ( 'NONE', ( #7 ), #198, .T. ) ;
#45 = ORIENTED_EDGE ( 'NONE', *, *, #92, .F. ) ;
#46 =( NAMED_UNIT ( * ) SI_UNIT ( $, .STERADIAN. ) SOLID_ANGLE_UNIT ( ) );
#47 = COLOUR_RGB ( '',1.000000000000000000, 0.000000000000000000, 0.000000000000000000 ) ;
#48 = DIRECTION ( 'NONE',  ( -0.000000000000000000, -1.000000000000000000, -0.000000000000000000 ) ) ;
#49 = APPLICATION_CONTEXT ( 'automotive_design' ) ;
#50 = ORIENTED_EDGE ( 'NONE', *, *, #64, .F. ) ;
#51 = ORIENTED_EDGE ( 'NONE', *, *, #9, .F. ) ;
#52 = MECHANICAL_DESIGN_GEOMETRIC_PRESENTATION_REPRESENTATION (  '', ( #189 ), #222 ) ;
#53 = ORIENTED_EDGE ( 'NONE', *, *, #73, .F. ) ;
#54 = DIRECTION ( 'NONE',  ( 0.000000000000000000, 0.000000000000000000, -1.000000000000000000 ) ) ;
#55 = ORIENTED_EDGE ( 'NONE', *, *, #285, .T. ) ;
#56 = DIRECTION ( 'NONE',  ( -1.000000000000000000, 0.000000000000000000, 0.000000000000000000 ) ) ;
#57 = EDGE_CURVE ( 'NONE', #77, #305, #236, .T. ) ;
#58 = ORIENTED_EDGE ( 'NONE', *, *, #211, .T. ) ;
#59 = PRESENTATION_LAYER_ASSIGNMENT (  '', '', ( #17 ) ) ;
#60 = STYLED_ITEM ( 'NONE', ( #231 ), #228 ) ;
#61 = CYLINDRICAL_SURFACE ( 'NONE', #132, 0.2500000000000000555 ) ;
#62 = SURFACE_SIDE_STYLE ('',( #180 ) ) ;
#63 = APPLICATION_CONTEXT ( 'automotive_design' ) ;
#64 = EDGE_CURVE ( 'NONE', #30, #77, #251, .T. ) ;
#65 =( CONVERSION_BASED_UNIT ( 'INCH', #137 ) LENGTH_UNIT ( ) NAMED_UNIT ( #212 ) );
#66 = COLOUR_RGB ( '',1.000000000000000000, 0.000000000000000000, 0.000000000000000000 ) ;
#67 = AXIS2_PLACEMENT_3D ( 'NONE', #34, #151, #131 ) ;
#68 = CARTESIAN_POINT ( 'NONE',  ( 0.000000000000000000, 0.000000000000000000, 0.000000000000000000 ) ) ;
#69 = ORIENTED_EDGE ( 'NONE', *, *, #193, .F. ) ;
#70 = CARTESIAN_POINT ( 'NONE',  ( 0.000000000000000000, 1.625000000000000000, 0.000000000000000000 ) ) ;
#71 = DIMENSIONAL_EXPONENTS ( 1.000000000000000000, 0.000000000000000000, 0.000000000000000000, 0.000000000000000000, 0.000000000000000000, 0.000000000000000000, 0.000000000000000000 ) ;
#72 = FILL_AREA_STYLE_COLOUR ( '', #85 ) ;
#73 = EDGE_CURVE ( 'NONE', #30, #279, #218, .T. ) ;
#74 = MECHANICAL_DESIGN_GEOMETRIC_PRESENTATION_REPRESENTATION (  '', ( #11 ), #80 ) ;
#75 =( GEOMETRIC_REPRESENTATION_CONTEXT ( 3 ) GLOBAL_UNCERTAINTY_ASSIGNED_CONTEXT ( ( #142 ) ) GLOBAL_UNIT_ASSIGNED_CONTEXT ( ( #101, #6, #168 ) ) REPRESENTATION_CONTEXT ( 'NONE', 'WORKASPACE' ) );
#76 = DIRECTION ( 'NONE',  ( -0.000000000000000000, -1.000000000000000000, -0.000000000000000000 ) ) ;
#77 = VERTEX_POINT ( 'NONE', #113 ) ;
#78 = CARTESIAN_POINT ( 'NONE',  ( 0.2500000000000000555, 4.000000000000000000, 3.061616997868384251E-17 ) ) ;
#79 = ORIENTED_EDGE ( 'NONE', *, *, #57, .F. ) ;
#80 =( GEOMETRIC_REPRESENTATION_CONTEXT ( 3 ) GLOBAL_UNCERTAINTY_ASSIGNED_CONTEXT ( ( #107 ) ) GLOBAL_UNIT_ASSIGNED_CONTEXT ( ( #133, #272, #203 ) ) REPRESENTATION_CONTEXT ( 'NONE', 'WORKASPACE' ) );
#81 = VECTOR ( 'NONE', #304, 39.37007874015748143 ) ;
#82 = DIRECTION ( 'NONE',  ( -5.156407575357275299E-17, 1.000000000000000000, -0.000000000000000000 ) ) ;
#83 = ORIENTED_EDGE ( 'NONE', *, *, #288, .T. ) ;
#84 = DIRECTION ( 'NONE',  ( -5.156407575357275299E-17, 1.000000000000000000, -0.000000000000000000 ) ) ;
#85 = COLOUR_RGB ( '',1.000000000000000000, 0.000000000000000000, 0.000000000000000000 ) ;
#86 = CARTESIAN_POINT ( 'NONE',  ( 0.000000000000000000, 0.000000000000000000, 0.000000000000000000 ) ) ;
#87 = EDGE_CURVE ( 'NONE', #178, #141, #296, .T. ) ;
#88 = DIRECTION ( 'NONE',  ( -5.156407575357275916E-17, 1.000000000000000000, -0.000000000000000000 ) ) ;
#89 =( GEOMETRIC_REPRESENTATION_CONTEXT ( 3 ) GLOBAL_UNCERTAINTY_ASSIGNED_CONTEXT ( ( #5 ) ) GLOBAL_UNIT_ASSIGNED_CONTEXT ( ( #119, #96, #205 ) ) REPRESENTATION_CONTEXT ( 'NONE', 'WORKASPACE' ) );
#90 = AXIS2_PLACEMENT_3D ( 'NONE', #174, #3, #1 ) ;
#91 = CARTESIAN_POINT ( 'NONE',  ( 0.000000000000000000, 0.000000000000000000, 0.000000000000000000 ) ) ;
#92 = EDGE_CURVE ( 'NONE', #305, #77, #226, .T. ) ;
#93 = LENGTH_MEASURE_WITH_UNIT ( LENGTH_MEASURE( 0.02539999999999999897 ), #134 );
#94 = FACE_OUTER_BOUND ( 'NONE', #150, .T. ) ;
#95 = SURFACE_STYLE_FILL_AREA ( #229 ) ;
#96 =( NAMED_UNIT ( * ) PLANE_ANGLE_UNIT ( ) SI_UNIT ( $, .RADIAN. ) );
#97 = LINE ( 'NONE', #213, #81 ) ;
#98 = CIRCLE ( 'NONE', #298, 0.2500000000000000000 ) ;
#99 = DIRECTION ( 'NONE',  ( -0.000000000000000000, -1.000000000000000000, -0.000000000000000000 ) ) ;
#100 = DIMENSIONAL_EXPONENTS ( 1.000000000000000000, 0.000000000000000000, 0.000000000000000000, 0.000000000000000000, 0.000000000000000000, 0.000000000000000000, 0.000000000000000000 ) ;
#101 =( CONVERSION_BASED_UNIT ( 'INCH', #308 ) LENGTH_UNIT ( ) NAMED_UNIT ( #230 ) );
#102 = ORIENTED_EDGE ( 'NONE', *, *, #193, .T. ) ;
#103 = APPLICATION_PROTOCOL_DEFINITION ( 'draft international standard', 'automotive_design', 1998, #49 ) ;
#104 = PRODUCT_DEFINITION_FORMATION_WITH_SPECIFIED_SOURCE ( 'ANY', '', #128, .NOT_KNOWN. ) ;
#105 = ADVANCED_FACE ( 'NONE', ( #278 ), #61, .T. ) ;
#106 = DIRECTION ( 'NONE',  ( -5.156407575357275299E-17, 1.000000000000000000, -0.000000000000000000 ) ) ;
#107 = UNCERTAINTY_MEASURE_WITH_UNIT (LENGTH_MEASURE( 1.000000000000000082E-05 ), #133, 'distance_accuracy_value', 'NONE');
#108 = PRESENTATION_LAYER_ASSIGNMENT (  '', '', ( #235 ) ) ;
#109 =( LENGTH_UNIT ( ) NAMED_UNIT ( * ) SI_UNIT ( $, .METRE. ) );
#110 = CIRCLE ( 'NONE', #25, 0.2500000000000000000 ) ;
#111 = ORIENTED_EDGE ( 'NONE', *, *, #9, .T. ) ;
#112 = FILL_AREA_STYLE_COLOUR ( '', #66 ) ;
#113 = CARTESIAN_POINT ( 'NONE',  ( -0.2500000000000002776, 4.000000000000000000, 0.000000000000000000 ) ) ;
#114 = MECHANICAL_DESIGN_GEOMETRIC_PRESENTATION_REPRESENTATION (  '', ( #17 ), #201 ) ;
#115 = DIRECTION ( 'NONE',  ( -5.156407575357275299E-17, 1.000000000000000000, -0.000000000000000000 ) ) ;
#116 = SURFACE_SIDE_STYLE ('',( #15 ) ) ;
#117 = AXIS2_PLACEMENT_3D ( 'NONE', #126, #76, #124 ) ;
#118 = SURFACE_STYLE_USAGE ( .BOTH. , #21 ) ;
#119 =( CONVERSION_BASED_UNIT ( 'INCH', #18 ) LENGTH_UNIT ( ) NAMED_UNIT ( #100 ) );
#120 = LENGTH_MEASURE_WITH_UNIT ( LENGTH_MEASURE( 0.02539999999999999897 ), #299 );
#121 = AXIS2_PLACEMENT_3D ( 'NONE', #227, #157, #225 ) ;
#122 = CARTESIAN_POINT ( 'NONE',  ( 0.2500000000000000555, 1.625000000000000000, 3.061616997868384251E-17 ) ) ;
#123 = CARTESIAN_POINT ( 'NONE',  ( 3.323567385400236968E-34, 1.625000000000000000, 0.000000000000000000 ) ) ;
#124 = DIRECTION ( 'NONE',  ( 0.000000000000000000, 0.000000000000000000, -1.000000000000000000 ) ) ;
#125 = CARTESIAN_POINT ( 'NONE',  ( 0.000000000000000000, 0.000000000000000000, 0.000000000000000000 ) ) ;
#126 = CARTESIAN_POINT ( 'NONE',  ( 0.000000000000000000, 1.625000000000000000, 0.000000000000000000 ) ) ;
#127 = ORIENTED_EDGE ( 'NONE', *, *, #140, .F. ) ;
#128 = PRODUCT ( '01482', '01482', '', ( #267 ) ) ;
#129 = ORIENTED_EDGE ( 'NONE', *, *, #204, .F. ) ;
#130 = MECHANICAL_DESIGN_GEOMETRIC_PRESENTATION_REPRESENTATION (  '', ( #235 ), #154 ) ;
#131 = DIRECTION ( 'NONE',  ( -1.000000000000000000, 0.000000000000000000, 0.000000000000000000 ) ) ;
#132 = AXIS2_PLACEMENT_3D ( 'NONE', #176, #159, #56 ) ;
#133 =( CONVERSION_BASED_UNIT ( 'INCH', #179 ) LENGTH_UNIT ( ) NAMED_UNIT ( #164 ) );
#134 =( LENGTH_UNIT ( ) NAMED_UNIT ( * ) SI_UNIT ( $, .METRE. ) );
#135 = AXIS2_PLACEMENT_3D ( 'NONE', #70, #165, #309 ) ;
#136 = CYLINDRICAL_SURFACE ( 'NONE', #283, 0.2500000000000000000 ) ;
#137 = LENGTH_MEASURE_WITH_UNIT ( LENGTH_MEASURE( 0.02539999999999999897 ), #207 );
#138 = VECTOR ( 'NONE', #199, 39.37007874015748143 ) ;
#139 = FILL_AREA_STYLE_COLOUR ( '', #192 ) ;
#140 = EDGE_CURVE ( 'NONE', #279, #305, #253, .T. ) ;
#141 = VERTEX_POINT ( 'NONE', #269 ) ;
#142 = UNCERTAINTY_MEASURE_WITH_UNIT (LENGTH_MEASURE( 1.000000000000000082E-05 ), #101, 'distance_accuracy_value', 'NONE');
#143 = MECHANICAL_DESIGN_GEOMETRIC_PRESENTATION_REPRESENTATION (  '', ( #303 ), #89 ) ;
#144 = EDGE_LOOP ( 'NONE', ( #170, #58 ) ) ;
#145 = VERTEX_POINT ( 'NONE', #221 ) ;
#146 = CYLINDRICAL_SURFACE ( 'NONE', #181, 0.2500000000000000555 ) ;
#147 = DIRECTION ( 'NONE',  ( -1.000000000000000000, 0.000000000000000000, 0.000000000000000000 ) ) ;
#148 = CLOSED_SHELL ( 'NONE', ( #228, #163, #31, #44 ) ) ;
#149 = AXIS2_PLACEMENT_3D ( 'NONE', #86, #153, #293 ) ;
#150 = EDGE_LOOP ( 'NONE', ( #171, #162 ) ) ;
#151 = DIRECTION ( 'NONE',  ( -5.156407575357275299E-17, 1.000000000000000000, -0.000000000000000000 ) ) ;
#152 = SURFACE_STYLE_FILL_AREA ( #12 ) ;
#153 = DIRECTION ( 'NONE',  ( 0.000000000000000000, -1.000000000000000000, -0.000000000000000000 ) ) ;
#154 =( GEOMETRIC_REPRESENTATION_CONTEXT ( 3 ) GLOBAL_UNCERTAINTY_ASSIGNED_CONTEXT ( ( #297 ) ) GLOBAL_UNIT_ASSIGNED_CONTEXT ( ( #28, #160, #300 ) ) REPRESENTATION_CONTEXT ( 'NONE', 'WORKASPACE' ) );
#155 = PRESENTATION_LAYER_ASSIGNMENT (  '', '', ( #303 ) ) ;
#156 = FILL_AREA_STYLE_COLOUR ( '', #294 ) ;
#157 = DIRECTION ( 'NONE',  ( 5.156407575357275916E-17, -1.000000000000000000, 0.000000000000000000 ) ) ;
#158 = ORIENTED_EDGE ( 'NONE', *, *, #211, .F. ) ;
#159 = DIRECTION ( 'NONE',  ( -5.156407575357275299E-17, 1.000000000000000000, -0.000000000000000000 ) ) ;
#160 =( NAMED_UNIT ( * ) PLANE_ANGLE_UNIT ( ) SI_UNIT ( $, .RADIAN. ) );
#161 =( NAMED_UNIT ( * ) SI_UNIT ( $, .STERADIAN. ) SOLID_ANGLE_UNIT ( ) );
#162 = ORIENTED_EDGE ( 'NONE', *, *, #92, .T. ) ;
#163 = ADVANCED_FACE ( 'NONE', ( #249 ), #33, .T. ) ;
#164 = DIMENSIONAL_EXPONENTS ( 1.000000000000000000, 0.000000000000000000, 0.000000000000000000, 0.000000000000000000, 0.000000000000000000, 0.000000000000000000, 0.000000000000000000 ) ;
#165 = DIRECTION ( 'NONE',  ( -0.000000000000000000, -1.000000000000000000, -0.000000000000000000 ) ) ;
#166 = DIRECTION ( 'NONE',  ( -0.000000000000000000, -1.000000000000000000, -0.000000000000000000 ) ) ;
#167 = SURFACE_STYLE_FILL_AREA ( #19 ) ;
#168 =( NAMED_UNIT ( * ) SI_UNIT ( $, .STERADIAN. ) SOLID_ANGLE_UNIT ( ) );
#169 = DIRECTION ( 'NONE',  ( -1.000000000000000000, 0.000000000000000000, 0.000000000000000000 ) ) ;
#170 = ORIENTED_EDGE ( 'NONE', *, *, #204, .T. ) ;
#171 = ORIENTED_EDGE ( 'NONE', *, *, #57, .T. ) ;
#172 = PRODUCT_DEFINITION_CONTEXT ( 'detailed design', #63, 'design' ) ;
#173 = AXIS2_PLACEMENT_3D ( 'NONE', #37, #99, #307 ) ;
#174 = CARTESIAN_POINT ( 'NONE',  ( 0.000000000000000000, 0.000000000000000000, 0.000000000000000000 ) ) ;
#175 = FACE_OUTER_BOUND ( 'NONE', #209, .T. ) ;
#176 = CARTESIAN_POINT ( 'NONE',  ( -1.224646799147352714E-16, 4.000000000000000000, 0.000000000000000000 ) ) ;
#177 = AXIS2_PLACEMENT_3D ( 'NONE', #185, #232, #22 ) ;
#178 = VERTEX_POINT ( 'NONE', #258 ) ;
#179 = LENGTH_MEASURE_WITH_UNIT ( LENGTH_MEASURE( 0.02539999999999999897 ), #275 );
#180 = SURFACE_STYLE_FILL_AREA ( #291 ) ;
#181 = AXIS2_PLACEMENT_3D ( 'NONE', #246, #82, #169 ) ;
#182 =( NAMED_UNIT ( * ) PLANE_ANGLE_UNIT ( ) SI_UNIT ( $, .RADIAN. ) );
#183 = DIRECTION ( 'NONE',  ( -1.000000000000000000, 0.000000000000000000, 0.000000000000000000 ) ) ;
#184 = SURFACE_STYLE_USAGE ( .BOTH. , #26 ) ;
#185 = CARTESIAN_POINT ( 'NONE',  ( 0.000000000000000000, 1.625000000000000000, 0.000000000000000000 ) ) ;
#186 = PRESENTATION_STYLE_ASSIGNMENT (( #260 ) ) ;
#187 = DIMENSIONAL_EXPONENTS ( 1.000000000000000000, 0.000000000000000000, 0.000000000000000000, 0.000000000000000000, 0.000000000000000000, 0.000000000000000000, 0.000000000000000000 ) ;
#188 = PRESENTATION_LAYER_ASSIGNMENT (  '', '', ( #11 ) ) ;
#189 = STYLED_ITEM ( 'NONE', ( #254 ), #281 ) ;
#190 = PLANE ( 'NONE',  #121 ) ;
#191 =( NAMED_UNIT ( * ) SI_UNIT ( $, .STERADIAN. ) SOLID_ANGLE_UNIT ( ) );
#192 = COLOUR_RGB ( '',0.7921568627450980005, 0.8196078431372548767, 0.9333333333333333481 ) ;
#193 = EDGE_CURVE ( 'NONE', #145, #219, #97, .T. ) ;
#194 = DIMENSIONAL_EXPONENTS ( 1.000000000000000000, 0.000000000000000000, 0.000000000000000000, 0.000000000000000000, 0.000000000000000000, 0.000000000000000000, 0.000000000000000000 ) ;
#195 = EDGE_LOOP ( 'NONE', ( #127, #55, #242, #45 ) ) ;
#196 = ADVANCED_FACE ( 'NONE', ( #94 ), #190, .F. ) ;
#197 = FILL_AREA_STYLE_COLOUR ( '', #47 ) ;
#198 = PLANE ( 'NONE',  #149 ) ;
#199 = DIRECTION ( 'NONE',  ( -5.156407575357275916E-17, 1.000000000000000000, -0.000000000000000000 ) ) ;
#200 = AXIS2_PLACEMENT_3D ( 'NONE', #123, #24, #39 ) ;
#201 =( GEOMETRIC_REPRESENTATION_CONTEXT ( 3 ) GLOBAL_UNCERTAINTY_ASSIGNED_CONTEXT ( ( #202 ) ) GLOBAL_UNIT_ASSIGNED_CONTEXT ( ( #282, #182, #161 ) ) REPRESENTATION_CONTEXT ( 'NONE', 'WORKASPACE' ) );
#202 = UNCERTAINTY_MEASURE_WITH_UNIT (LENGTH_MEASURE( 1.000000000000000082E-05 ), #282, 'distance_accuracy_value', 'NONE');
#203 =( NAMED_UNIT ( * ) SI_UNIT ( $, .STERADIAN. ) SOLID_ANGLE_UNIT ( ) );
#204 = EDGE_CURVE ( 'NONE', #219, #141, #110, .T. ) ;
#205 =( NAMED_UNIT ( * ) SI_UNIT ( $, .STERADIAN. ) SOLID_ANGLE_UNIT ( ) );
#206 = SURFACE_STYLE_USAGE ( .BOTH. , #116 ) ;
#207 =( LENGTH_UNIT ( ) NAMED_UNIT ( * ) SI_UNIT ( $, .METRE. ) );
#208 = SURFACE_SIDE_STYLE ('',( #167 ) ) ;
#209 = EDGE_LOOP ( 'NONE', ( #261, #27, #79, #50 ) ) ;
#210 = PRESENTATION_STYLE_ASSIGNMENT (( #118 ) ) ;
#211 = EDGE_CURVE ( 'NONE', #141, #219, #292, .T. ) ;
#212 = DIMENSIONAL_EXPONENTS ( 1.000000000000000000, 0.000000000000000000, 0.000000000000000000, 0.000000000000000000, 0.000000000000000000, 0.000000000000000000, 0.000000000000000000 ) ;
#213 = CARTESIAN_POINT ( 'NONE',  ( 0.000000000000000000, 0.000000000000000000, -0.2500000000000000000 ) ) ;
#214 = CARTESIAN_POINT ( 'NONE',  ( 3.032960542342103792E-32, 1.625000000000000000, 0.000000000000000000 ) ) ;
#215 = CARTESIAN_POINT ( 'NONE',  ( -0.2500000000000000000, 1.625000000000000000, 0.000000000000000000 ) ) ;
#216 = SURFACE_STYLE_USAGE ( .BOTH. , #208 ) ;
#217 = EDGE_LOOP ( 'NONE', ( #287, #83, #102, #158 ) ) ;
#218 = CIRCLE ( 'NONE', #29, 0.2500000000000000000 ) ;
#219 = VERTEX_POINT ( 'NONE', #280 ) ;
#220 = VECTOR ( 'NONE', #223, 39.37007874015748143 ) ;
#221 = CARTESIAN_POINT ( 'NONE',  ( 0.000000000000000000, 1.625000000000000000, -0.2500000000000000000 ) ) ;
#222 =( GEOMETRIC_REPRESENTATION_CONTEXT ( 3 ) GLOBAL_UNCERTAINTY_ASSIGNED_CONTEXT ( ( #268 ) ) GLOBAL_UNIT_ASSIGNED_CONTEXT ( ( #65, #290, #191 ) ) REPRESENTATION_CONTEXT ( 'NONE', 'WORKASPACE' ) );
#223 = DIRECTION ( 'NONE',  ( -0.000000000000000000, -1.000000000000000000, -0.000000000000000000 ) ) ;
#224 = CARTESIAN_POINT ( 'NONE',  ( -0.2500000000000002220, 4.000000000000000000, 0.000000000000000000 ) ) ;
#225 = DIRECTION ( 'NONE',  ( 1.000000000000000000, 5.156407575357275916E-17, 0.000000000000000000 ) ) ;
#226 = CIRCLE ( 'NONE', #2, 0.2500000000000001110 ) ;
#227 = CARTESIAN_POINT ( 'NONE',  ( 0.2500000000000000000, 4.000000000000000000, 0.000000000000000000 ) ) ;
#228 = ADVANCED_FACE ( 'NONE', ( #43 ), #136, .T. ) ;
#229 = FILL_AREA_STYLE ('',( #112 ) ) ;
#230 = DIMENSIONAL_EXPONENTS ( 1.000000000000000000, 0.000000000000000000, 0.000000000000000000, 0.000000000000000000, 0.000000000000000000, 0.000000000000000000, 0.000000000000000000 ) ;
#231 = PRESENTATION_STYLE_ASSIGNMENT (( #206 ) ) ;
#232 = DIRECTION ( 'NONE',  ( 0.000000000000000000, 1.000000000000000000, 0.000000000000000000 ) ) ;
#233 = PLANE ( 'NONE',  #200 ) ;
#234 = FILL_AREA_STYLE ('',( #284 ) ) ;
#235 = STYLED_ITEM ( 'NONE', ( #286 ), #31 ) ;
#236 = CIRCLE ( 'NONE', #67, 0.2500000000000001110 ) ;
#237 = ORIENTED_EDGE ( 'NONE', *, *, #285, .F. ) ;
#238 = VECTOR ( 'NONE', #88, 39.37007874015748143 ) ;
#239 = ADVANCED_FACE ( 'NONE', ( #175 ), #146, .T. ) ;
#240 = SURFACE_STYLE_FILL_AREA ( #259 ) ;
#241 = SHAPE_DEFINITION_REPRESENTATION ( #4, #277 ) ;
#242 = ORIENTED_EDGE ( 'NONE', *, *, #64, .T. ) ;
#243 =( GEOMETRIC_REPRESENTATION_CONTEXT ( 3 ) GLOBAL_UNCERTAINTY_ASSIGNED_CONTEXT ( ( #245 ) ) GLOBAL_UNIT_ASSIGNED_CONTEXT ( ( #256, #301, #46 ) ) REPRESENTATION_CONTEXT ( 'NONE', 'WORKASPACE' ) );
#244 = EDGE_LOOP ( 'NONE', ( #53, #237 ) ) ;
#245 = UNCERTAINTY_MEASURE_WITH_UNIT (LENGTH_MEASURE( 1.000000000000000082E-05 ), #256, 'distance_accuracy_value', 'NONE');
#246 = CARTESIAN_POINT ( 'NONE',  ( -1.224646799147352714E-16, 4.000000000000000000, 0.000000000000000000 ) ) ;
#247 = EDGE_LOOP ( 'NONE', ( #51, #265 ) ) ;
#248 = PRESENTATION_LAYER_ASSIGNMENT (  '', '', ( #60 ) ) ;
#249 = FACE_OUTER_BOUND ( 'NONE', #247, .T. ) ;
#250 = CARTESIAN_POINT ( 'NONE',  ( 3.032960542342103792E-32, 1.625000000000000000, 0.000000000000000000 ) ) ;
#251 = LINE ( 'NONE', #224, #238 ) ;
#252 = LENGTH_MEASURE_WITH_UNIT ( LENGTH_MEASURE( 0.02539999999999999897 ), #276 );
#253 = LINE ( 'NONE', #38, #138 ) ;
#254 = PRESENTATION_STYLE_ASSIGNMENT (( #184 ) ) ;
#255 = FACE_OUTER_BOUND ( 'NONE', #244, .T. ) ;
#256 =( CONVERSION_BASED_UNIT ( 'INCH', #120 ) LENGTH_UNIT ( ) NAMED_UNIT ( #194 ) );
#257 = CYLINDRICAL_SURFACE ( 'NONE', #32, 0.2500000000000000000 ) ;
#258 = CARTESIAN_POINT ( 'NONE',  ( 3.061616997868383018E-17, 1.625000000000000000, 0.2500000000000000000 ) ) ;
#259 = FILL_AREA_STYLE ('',( #139 ) ) ;
#260 = SURFACE_STYLE_USAGE ( .BOTH. , #62 ) ;
#261 = ORIENTED_EDGE ( 'NONE', *, *, #73, .T. ) ;
#262 = SURFACE_STYLE_USAGE ( .BOTH. , #295 ) ;
#263 =( LENGTH_UNIT ( ) NAMED_UNIT ( * ) SI_UNIT ( $, .METRE. ) );
#264 = PRESENTATION_LAYER_ASSIGNMENT (  '', '', ( #189 ) ) ;
#265 = ORIENTED_EDGE ( 'NONE', *, *, #288, .F. ) ;
#266 = CIRCLE ( 'NONE', #117, 0.2500000000000000000 ) ;
#267 = PRODUCT_CONTEXT ( 'NONE', #49, 'mechanical' ) ;
#268 = UNCERTAINTY_MEASURE_WITH_UNIT (LENGTH_MEASURE( 1.000000000000000082E-05 ), #65, 'distance_accuracy_value', 'NONE');
#269 = CARTESIAN_POINT ( 'NONE',  ( 3.061616997868383018E-17, 0.000000000000000000, 0.2500000000000000000 ) ) ;
#270 = CLOSED_SHELL ( 'NONE', ( #239, #16, #105, #196 ) ) ;
#271 = MECHANICAL_DESIGN_GEOMETRIC_PRESENTATION_REPRESENTATION (  '', ( #60 ), #243 ) ;
#272 =( NAMED_UNIT ( * ) PLANE_ANGLE_UNIT ( ) SI_UNIT ( $, .RADIAN. ) );
#273 = MANIFOLD_SOLID_BREP ( 'Revolve - Cutting Edge', #148 ) ;
#274 = CARTESIAN_POINT ( 'NONE',  ( 3.061616997868383018E-17, 0.000000000000000000, 0.2500000000000000000 ) ) ;
#275 =( LENGTH_UNIT ( ) NAMED_UNIT ( * ) SI_UNIT ( $, .METRE. ) );
#276 =( LENGTH_UNIT ( ) NAMED_UNIT ( * ) SI_UNIT ( $, .METRE. ) );
#277 = ADVANCED_BREP_SHAPE_REPRESENTATION ( '01482', ( #273, #281, #90 ), #75 ) ;
#278 = FACE_OUTER_BOUND ( 'NONE', #195, .T. ) ;
#279 = VERTEX_POINT ( 'NONE', #122 ) ;
#280 = CARTESIAN_POINT ( 'NONE',  ( 0.000000000000000000, 0.000000000000000000, -0.2500000000000000000 ) ) ;
#281 = MANIFOLD_SOLID_BREP ( 'Revolve - Tool Body (Straight Shanked)', #270 ) ;
#282 =( CONVERSION_BASED_UNIT ( 'INCH', #252 ) LENGTH_UNIT ( ) NAMED_UNIT ( #187 ) );
#283 = AXIS2_PLACEMENT_3D ( 'NONE', #125, #48, #54 ) ;
#284 = FILL_AREA_STYLE_COLOUR ( '', #42 ) ;
#285 = EDGE_CURVE ( 'NONE', #279, #30, #98, .T. ) ;
#286 = PRESENTATION_STYLE_ASSIGNMENT (( #216 ) ) ;
#287 = ORIENTED_EDGE ( 'NONE', *, *, #87, .F. ) ;
#288 = EDGE_CURVE ( 'NONE', #178, #145, #266, .T. ) ;
#289 = APPLICATION_PROTOCOL_DEFINITION ( 'draft international standard', 'automotive_design', 1998, #63 ) ;
#290 =( NAMED_UNIT ( * ) PLANE_ANGLE_UNIT ( ) SI_UNIT ( $, .RADIAN. ) );
#291 = FILL_AREA_STYLE ('',( #197 ) ) ;
#292 = CIRCLE ( 'NONE', #173, 0.2500000000000000000 ) ;
#293 = DIRECTION ( 'NONE',  ( 0.000000000000000000, 0.000000000000000000, -1.000000000000000000 ) ) ;
#294 = COLOUR_RGB ( '',0.7921568627450980005, 0.8196078431372548767, 0.9333333333333333481 ) ;
#295 = SURFACE_SIDE_STYLE ('',( #152 ) ) ;
#296 = LINE ( 'NONE', #274, #220 ) ;
#297 = UNCERTAINTY_MEASURE_WITH_UNIT (LENGTH_MEASURE( 1.000000000000000082E-05 ), #28, 'distance_accuracy_value', 'NONE');
#298 = AXIS2_PLACEMENT_3D ( 'NONE', #214, #106, #147 ) ;
#299 =( LENGTH_UNIT ( ) NAMED_UNIT ( * ) SI_UNIT ( $, .METRE. ) );
#300 =( NAMED_UNIT ( * ) SI_UNIT ( $, .STERADIAN. ) SOLID_ANGLE_UNIT ( ) );
#301 =( NAMED_UNIT ( * ) PLANE_ANGLE_UNIT ( ) SI_UNIT ( $, .RADIAN. ) );
#302 = PRESENTATION_STYLE_ASSIGNMENT (( #262 ) ) ;
#303 = STYLED_ITEM ( 'NONE', ( #302 ), #273 ) ;
#304 = DIRECTION ( 'NONE',  ( -0.000000000000000000, -1.000000000000000000, -0.000000000000000000 ) ) ;
#305 = VERTEX_POINT ( 'NONE', #78 ) ;
#306 = FACE_OUTER_BOUND ( 'NONE', #217, .T. ) ;
#307 = DIRECTION ( 'NONE',  ( 0.000000000000000000, 0.000000000000000000, -1.000000000000000000 ) ) ;
#308 = LENGTH_MEASURE_WITH_UNIT ( LENGTH_MEASURE( 0.02539999999999999897 ), #109 );
#309 = DIRECTION ( 'NONE',  ( 0.000000000000000000, 0.000000000000000000, -1.000000000000000000 ) ) ;
ENDSEC;
END-ISO-10303-21;
