ISO-10303-21;
HEADER;
FILE_DESCRIPTION (( 'STEP AP214' ),
    '1' );
FILE_NAME ('Micro_SFPM-080-30.STEP',
    '2021-09-02T07:35:09',
    ( '' ),
    ( '' ),
    'SwSTEP 2.0',
    'SolidWorks 2020',
    '' );
FILE_SCHEMA (( 'AUTOMOTIVE_DESIGN' ));
ENDSEC;

DATA;
#1 = PRODUCT_DEFINITION_FORMATION_WITH_SPECIFIED_SOURCE ( 'ANY', '', #39, .NOT_KNOWN. ) ;
#2 = EDGE_LOOP ( 'NONE', ( #201, #175, #223, #241 ) ) ;
#3 = FACE_OUTER_BOUND ( 'NONE', #48, .T. ) ;
#4 = ADVANCED_FACE ( 'NONE', ( #159 ), #114, .F. ) ;
#5 = LINE ( 'NONE', #127, #130 ) ;
#6 = AXIS2_PLACEMENT_3D ( 'NONE', #69, #108, #242 ) ;
#7 = DIRECTION ( 'NONE',  ( -1.000000000000000000, 0.0000000000000000000, 0.0000000000000000000 ) ) ;
#8 = AXIS2_PLACEMENT_3D ( 'NONE', #280, #168, #11 ) ;
#9 = ADVANCED_FACE ( 'NONE', ( #139 ), #42, .T. ) ;
#10 = DIRECTION ( 'NONE',  ( 1.224646799147353207E-16, 0.0000000000000000000, 1.000000000000000000 ) ) ;
#11 = DIRECTION ( 'NONE',  ( -1.000000000000000000, 0.0000000000000000000, 1.224646799147353454E-16 ) ) ;
#12 = FILL_AREA_STYLE_COLOUR ( '', #147 ) ;
#13 = VERTEX_POINT ( 'NONE', #138 ) ;
#14 =( LENGTH_UNIT ( ) NAMED_UNIT ( * ) SI_UNIT ( $, .METRE. ) );
#15 = VERTEX_POINT ( 'NONE', #225 ) ;
#16 = CIRCLE ( 'NONE', #17, 0.1574804999999999955 ) ;
#17 = AXIS2_PLACEMENT_3D ( 'NONE', #72, #267, #68 ) ;
#18 = SURFACE_STYLE_USAGE ( .BOTH. , #284 ) ;
#19 = ORIENTED_EDGE ( 'NONE', *, *, #211, .T. ) ;
#20 = PRODUCT_DEFINITION_CONTEXT ( 'detailed design', #100, 'design' ) ;
#21 = ORIENTED_EDGE ( 'NONE', *, *, #214, .F. ) ;
#22 = VECTOR ( 'NONE', #232, 39.37007874015748143 ) ;
#23 = ORIENTED_EDGE ( 'NONE', *, *, #211, .F. ) ;
#24 = DIRECTION ( 'NONE',  ( -1.224646799147353207E-16, -0.0000000000000000000, -1.000000000000000000 ) ) ;
#25 = EDGE_LOOP ( 'NONE', ( #83, #180, #216, #177 ) ) ;
#26 = LINE ( 'NONE', #184, #22 ) ;
#27 = ORIENTED_EDGE ( 'NONE', *, *, #31, .F. ) ;
#28 = DIRECTION ( 'NONE',  ( -0.7071067811865563435, 0.0000000000000000000, -0.7071067811865386910 ) ) ;
#29 = DIMENSIONAL_EXPONENTS ( 1.000000000000000000, 0.0000000000000000000, 0.0000000000000000000, 0.0000000000000000000, 0.0000000000000000000, 0.0000000000000000000, 0.0000000000000000000 ) ;
#30 = ADVANCED_FACE ( 'NONE', ( #244 ), #212, .T. ) ;
#31 = EDGE_CURVE ( 'NONE', #224, #264, #195, .T. ) ;
#32 = CIRCLE ( 'NONE', #288, 0.1574804999999999955 ) ;
#33 = CARTESIAN_POINT ( 'NONE',  ( -0.1574804999999998567, 0.0000000000000000000, 1.181995116296594261 ) ) ;
#34 = DIRECTION ( 'NONE',  ( -1.224646799147353207E-16, -0.0000000000000000000, -1.000000000000000000 ) ) ;
#35 = FILL_AREA_STYLE_COLOUR ( '', #70 ) ;
#36 =( GEOMETRIC_REPRESENTATION_CONTEXT ( 3 ) GLOBAL_UNCERTAINTY_ASSIGNED_CONTEXT ( ( #41 ) ) GLOBAL_UNIT_ASSIGNED_CONTEXT ( ( #120, #252, #236 ) ) REPRESENTATION_CONTEXT ( 'NONE', 'WORKASPACE' ) );
#37 = SURFACE_SIDE_STYLE ('',( #123 ) ) ;
#38 = CIRCLE ( 'NONE', #202, 0.1424804999999998989 ) ;
#39 = PRODUCT ( 'Micro_SFPM-080-30', 'Micro_SFPM-080-30', '', ( #261 ) ) ;
#40 = DIRECTION ( 'NONE',  ( -1.224646799147353207E-16, -0.0000000000000000000, -1.000000000000000000 ) ) ;
#41 = UNCERTAINTY_MEASURE_WITH_UNIT (LENGTH_MEASURE( 1.000000000000000082E-05 ), #120, 'distance_accuracy_value', 'NONE');
#42 = CYLINDRICAL_SURFACE ( 'NONE', #258, 0.1574804999999999955 ) ;
#43 = ADVANCED_FACE ( 'NONE', ( #3 ), #56, .T. ) ;
#44 = ORIENTED_EDGE ( 'NONE', *, *, #276, .T. ) ;
#45 = EDGE_CURVE ( 'NONE', #224, #93, #91, .T. ) ;
#46 = ORIENTED_EDGE ( 'NONE', *, *, #128, .F. ) ;
#47 = LINE ( 'NONE', #206, #250 ) ;
#48 = EDGE_LOOP ( 'NONE', ( #71, #19, #117, #144 ) ) ;
#49 = DIRECTION ( 'NONE',  ( 0.1736481776669313304, 0.0000000000000000000, 0.9848077530122077983 ) ) ;
#50 = EDGE_LOOP ( 'NONE', ( #199, #44 ) ) ;
#51 = CARTESIAN_POINT ( 'NONE',  ( 0.1573230194999999942, 1.926651322628716627E-17, 0.0000000000000000000 ) ) ;
#52 = CARTESIAN_POINT ( 'NONE',  ( 1.447526535780427694E-16, 0.0000000000000000000, 1.181995116296594261 ) ) ;
#53 = AXIS2_PLACEMENT_3D ( 'NONE', #235, #10, #99 ) ;
#54 = LINE ( 'NONE', #278, #275 ) ;
#55 = DIRECTION ( 'NONE',  ( -1.224646799147353207E-16, -0.0000000000000000000, -1.000000000000000000 ) ) ;
#56 = CONICAL_SURFACE ( 'NONE', #221, 0.1424804999999998989, 0.7853981633974608245 ) ;
#57 = AXIS2_PLACEMENT_3D ( 'NONE', #187, #149, #73 ) ;
#58 = PRESENTATION_STYLE_ASSIGNMENT (( #189 ) ) ;
#59 =( CONVERSION_BASED_UNIT ( 'INCH', #105 ) LENGTH_UNIT ( ) NAMED_UNIT ( #118 ) );
#60 = DIRECTION ( 'NONE',  ( 1.000000000000000000, 0.0000000000000000000, 0.0000000000000000000 ) ) ;
#61 = STYLED_ITEM ( 'NONE', ( #58 ), #268 ) ;
#62 = ORIENTED_EDGE ( 'NONE', *, *, #146, .T. ) ;
#63 = CARTESIAN_POINT ( 'NONE',  ( 0.1424804999999998989, 1.836731392595195200E-17, 2.952755999999999936 ) ) ;
#64 = EDGE_LOOP ( 'NONE', ( #62, #172 ) ) ;
#65 = EDGE_LOOP ( 'NONE', ( #106, #109, #207, #260 ) ) ;
#66 = DIRECTION ( 'NONE',  ( -0.0000000000000000000, -0.0000000000000000000, -1.000000000000000000 ) ) ;
#67 = ORIENTED_EDGE ( 'NONE', *, *, #219, .F. ) ;
#68 = DIRECTION ( 'NONE',  ( 1.000000000000000000, 0.0000000000000000000, 0.0000000000000000000 ) ) ;
#69 = CARTESIAN_POINT ( 'NONE',  ( 0.0000000000000000000, 0.0000000000000000000, 0.0000000000000000000 ) ) ;
#70 = COLOUR_RGB ( '',0.7921568627450980005, 0.8196078431372548767, 0.9333333333333333481 ) ;
#71 = ORIENTED_EDGE ( 'NONE', *, *, #276, .F. ) ;
#72 = CARTESIAN_POINT ( 'NONE',  ( 0.0000000000000000000, 0.0000000000000000000, 2.937756000000000256 ) ) ;
#73 = DIRECTION ( 'NONE',  ( 1.000000000000000000, 0.0000000000000000000, 0.0000000000000000000 ) ) ;
#74 = ADVANCED_FACE ( 'NONE', ( #165 ), #185, .T. ) ;
#75 = VECTOR ( 'NONE', #289, 39.37007874015748143 ) ;
#76 = FACE_OUTER_BOUND ( 'NONE', #25, .T. ) ;
#77 = LENGTH_MEASURE_WITH_UNIT ( LENGTH_MEASURE( 0.02539999999999999897 ), #215 );
#78 = EDGE_CURVE ( 'NONE', #15, #270, #16, .T. ) ;
#79 = FACE_OUTER_BOUND ( 'NONE', #243, .T. ) ;
#80 = PRESENTATION_STYLE_ASSIGNMENT (( #18 ) ) ;
#81 = CARTESIAN_POINT ( 'NONE',  ( 0.1574804999999999955, 1.928579902531247412E-17, 2.952755999999999936 ) ) ;
#82 = DIRECTION ( 'NONE',  ( 0.0000000000000000000, 0.0000000000000000000, 1.000000000000000000 ) ) ;
#83 = ORIENTED_EDGE ( 'NONE', *, *, #246, .T. ) ;
#84 =( NAMED_UNIT ( * ) SI_UNIT ( $, .STERADIAN. ) SOLID_ANGLE_UNIT ( ) );
#85 = APPLICATION_CONTEXT ( 'automotive_design' ) ;
#86 = EDGE_LOOP ( 'NONE', ( #157, #112, #142, #67 ) ) ;
#87 = CONICAL_SURFACE ( 'NONE', #53, 0.1573230194999999942, 0.1745329251994338360 ) ;
#88 = CARTESIAN_POINT ( 'NONE',  ( 0.1573230195000001330, 0.0000000000000000000, 1.181102000000000096 ) ) ;
#89 = ORIENTED_EDGE ( 'NONE', *, *, #116, .T. ) ;
#90 = ORIENTED_EDGE ( 'NONE', *, *, #214, .T. ) ;
#91 = LINE ( 'NONE', #88, #272 ) ;
#92 = CIRCLE ( 'NONE', #256, 0.1574804999999999955 ) ;
#93 = VERTEX_POINT ( 'NONE', #271 ) ;
#94 = DIRECTION ( 'NONE',  ( -0.0000000000000000000, -0.0000000000000000000, -1.000000000000000000 ) ) ;
#95 = DIRECTION ( 'NONE',  ( -1.000000000000000000, 0.0000000000000000000, 0.0000000000000000000 ) ) ;
#96 = CARTESIAN_POINT ( 'NONE',  ( 0.1424804999999998989, 1.744882882659143297E-17, 2.952755999999999936 ) ) ;
#97 =( GEOMETRIC_REPRESENTATION_CONTEXT ( 3 ) GLOBAL_UNCERTAINTY_ASSIGNED_CONTEXT ( ( #198 ) ) GLOBAL_UNIT_ASSIGNED_CONTEXT ( ( #59, #131, #220 ) ) REPRESENTATION_CONTEXT ( 'NONE', 'WORKASPACE' ) );
#98 = LINE ( 'NONE', #96, #188 ) ;
#99 = DIRECTION ( 'NONE',  ( 1.000000000000000000, 0.0000000000000000000, 0.0000000000000000000 ) ) ;
#100 = APPLICATION_CONTEXT ( 'automotive_design' ) ;
#101 = CARTESIAN_POINT ( 'NONE',  ( 0.0000000000000000000, 0.0000000000000000000, 2.952755999999999936 ) ) ;
#102 =( LENGTH_UNIT ( ) NAMED_UNIT ( * ) SI_UNIT ( $, .METRE. ) );
#103 = AXIS2_PLACEMENT_3D ( 'NONE', #273, #254, #95 ) ;
#104 = PRESENTATION_LAYER_ASSIGNMENT (  '', '', ( #61 ) ) ;
#105 = LENGTH_MEASURE_WITH_UNIT ( LENGTH_MEASURE( 0.02539999999999999897 ), #102 );
#106 = ORIENTED_EDGE ( 'NONE', *, *, #299, .F. ) ;
#107 = CLOSED_SHELL ( 'NONE', ( #229, #269, #43, #9, #74, #121, #30, #281, #161, #4 ) ) ;
#108 = DIRECTION ( 'NONE',  ( 0.0000000000000000000, 0.0000000000000000000, 1.000000000000000000 ) ) ;
#109 = ORIENTED_EDGE ( 'NONE', *, *, #31, .T. ) ;
#110 = DIRECTION ( 'NONE',  ( 0.0000000000000000000, 0.0000000000000000000, -1.000000000000000000 ) ) ;
#111 =( GEOMETRIC_REPRESENTATION_CONTEXT ( 3 ) GLOBAL_UNCERTAINTY_ASSIGNED_CONTEXT ( ( #156 ) ) GLOBAL_UNIT_ASSIGNED_CONTEXT ( ( #194, #171, #84 ) ) REPRESENTATION_CONTEXT ( 'NONE', 'WORKASPACE' ) );
#112 = ORIENTED_EDGE ( 'NONE', *, *, #290, .T. ) ;
#113 = FACE_OUTER_BOUND ( 'NONE', #65, .T. ) ;
#114 = PLANE ( 'NONE',  #6 ) ;
#115 = CYLINDRICAL_SURFACE ( 'NONE', #191, 0.1573230194999999942 ) ;
#116 = EDGE_CURVE ( 'NONE', #262, #15, #47, .T. ) ;
#117 = ORIENTED_EDGE ( 'NONE', *, *, #78, .F. ) ;
#118 = DIMENSIONAL_EXPONENTS ( 1.000000000000000000, 0.0000000000000000000, 0.0000000000000000000, 0.0000000000000000000, 0.0000000000000000000, 0.0000000000000000000, 0.0000000000000000000 ) ;
#119 = CIRCLE ( 'NONE', #279, 0.1424804999999998989 ) ;
#120 =( CONVERSION_BASED_UNIT ( 'INCH', #77 ) LENGTH_UNIT ( ) NAMED_UNIT ( #150 ) );
#121 = ADVANCED_FACE ( 'NONE', ( #245 ), #140, .T. ) ;
#122 = CARTESIAN_POINT ( 'NONE',  ( 1.446432783766537245E-16, 0.0000000000000000000, 1.181102000000000096 ) ) ;
#123 = SURFACE_STYLE_FILL_AREA ( #255 ) ;
#124 = CIRCLE ( 'NONE', #208, 0.1573230194999999942 ) ;
#125 = DIRECTION ( 'NONE',  ( -0.1736481776669311639, 2.126576849575782392E-17, 0.9848077530122080203 ) ) ;
#126 = PRODUCT_RELATED_PRODUCT_CATEGORY ( 'part', '', ( #39 ) ) ;
#127 = CARTESIAN_POINT ( 'NONE',  ( -0.1574804999999999955, 0.0000000000000000000, 2.952755999999999936 ) ) ;
#128 = EDGE_CURVE ( 'NONE', #270, #15, #32, .T. ) ;
#129 = SURFACE_STYLE_FILL_AREA ( #134 ) ;
#130 = VECTOR ( 'NONE', #94, 39.37007874015748143 ) ;
#131 =( NAMED_UNIT ( * ) PLANE_ANGLE_UNIT ( ) SI_UNIT ( $, .RADIAN. ) );
#132 = PRODUCT_DEFINITION_SHAPE ( 'NONE', 'NONE',  #297 ) ;
#133 = CARTESIAN_POINT ( 'NONE',  ( 0.1573230194999999942, 1.926651322628716627E-17, -1.926651322628716627E-17 ) ) ;
#134 = FILL_AREA_STYLE ('',( #12 ) ) ;
#135 = AXIS2_PLACEMENT_3D ( 'NONE', #274, #66, #145 ) ;
#136 = VERTEX_POINT ( 'NONE', #51 ) ;
#137 = CARTESIAN_POINT ( 'NONE',  ( 0.0000000000000000000, 0.0000000000000000000, 2.952755999999999936 ) ) ;
#138 = CARTESIAN_POINT ( 'NONE',  ( -0.1573230194999999942, 0.0000000000000000000, 3.853302645257433254E-17 ) ) ;
#139 = FACE_OUTER_BOUND ( 'NONE', #86, .T. ) ;
#140 = PLANE ( 'NONE',  #154 ) ;
#141 = AXIS2_PLACEMENT_3D ( 'NONE', #173, #82, #60 ) ;
#142 = ORIENTED_EDGE ( 'NONE', *, *, #182, .F. ) ;
#143 = CARTESIAN_POINT ( 'NONE',  ( 0.0000000000000000000, 0.0000000000000000000, 2.937756000000000256 ) ) ;
#144 = ORIENTED_EDGE ( 'NONE', *, *, #116, .F. ) ;
#145 = DIRECTION ( 'NONE',  ( -1.000000000000000000, 0.0000000000000000000, 0.0000000000000000000 ) ) ;
#146 = EDGE_CURVE ( 'NONE', #13, #136, #163, .T. ) ;
#147 = COLOUR_RGB ( '',0.7921568627450980005, 0.8196078431372548767, 0.9333333333333333481 ) ;
#148 = DIRECTION ( 'NONE',  ( 1.000000000000000000, 0.0000000000000000000, 0.0000000000000000000 ) ) ;
#149 = DIRECTION ( 'NONE',  ( -1.224646799147353207E-16, -0.0000000000000000000, -1.000000000000000000 ) ) ;
#150 = DIMENSIONAL_EXPONENTS ( 1.000000000000000000, 0.0000000000000000000, 0.0000000000000000000, 0.0000000000000000000, 0.0000000000000000000, 0.0000000000000000000, 0.0000000000000000000 ) ;
#151 = VECTOR ( 'NONE', #40, 39.37007874015748143 ) ;
#152 = CARTESIAN_POINT ( 'NONE',  ( 0.1573230195000001330, 0.0000000000000000000, 1.181102000000000096 ) ) ;
#153 = DIRECTION ( 'NONE',  ( 1.000000000000000000, 0.0000000000000000000, 0.0000000000000000000 ) ) ;
#154 = AXIS2_PLACEMENT_3D ( 'NONE', #248, #176, #249 ) ;
#155 = DIRECTION ( 'NONE',  ( 0.0000000000000000000, 0.0000000000000000000, 1.000000000000000000 ) ) ;
#156 = UNCERTAINTY_MEASURE_WITH_UNIT (LENGTH_MEASURE( 1.000000000000000082E-05 ), #194, 'distance_accuracy_value', 'NONE');
#157 = ORIENTED_EDGE ( 'NONE', *, *, #78, .T. ) ;
#158 = AXIS2_PLACEMENT_3D ( 'NONE', #170, #257, #153 ) ;
#159 = FACE_OUTER_BOUND ( 'NONE', #64, .T. ) ;
#160 = DIRECTION ( 'NONE',  ( -0.0000000000000000000, -0.0000000000000000000, -1.000000000000000000 ) ) ;
#161 = ADVANCED_FACE ( 'NONE', ( #113 ), #115, .T. ) ;
#162 = DIRECTION ( 'NONE',  ( -1.000000000000000000, 0.0000000000000000000, 0.0000000000000000000 ) ) ;
#163 = CIRCLE ( 'NONE', #259, 0.1573230194999999942 ) ;
#164 = ORIENTED_EDGE ( 'NONE', *, *, #246, .F. ) ;
#165 = FACE_OUTER_BOUND ( 'NONE', #2, .T. ) ;
#166 = CARTESIAN_POINT ( 'NONE',  ( -0.1573230194999998555, 1.927615612579982019E-17, 1.181102000000000096 ) ) ;
#167 = MECHANICAL_DESIGN_GEOMETRIC_PRESENTATION_REPRESENTATION (  '', ( #61 ), #36 ) ;
#168 = DIRECTION ( 'NONE',  ( -1.224646799147353207E-16, -0.0000000000000000000, -1.000000000000000000 ) ) ;
#169 = DIRECTION ( 'NONE',  ( 1.000000000000000000, 0.0000000000000000000, 0.0000000000000000000 ) ) ;
#170 = CARTESIAN_POINT ( 'NONE',  ( 1.446432783766537245E-16, 0.0000000000000000000, 1.181102000000000096 ) ) ;
#171 =( NAMED_UNIT ( * ) PLANE_ANGLE_UNIT ( ) SI_UNIT ( $, .RADIAN. ) );
#172 = ORIENTED_EDGE ( 'NONE', *, *, #263, .T. ) ;
#173 = CARTESIAN_POINT ( 'NONE',  ( 0.0000000000000000000, 0.0000000000000000000, 0.0000000000000000000 ) ) ;
#174 = ORIENTED_EDGE ( 'NONE', *, *, #253, .T. ) ;
#175 = ORIENTED_EDGE ( 'NONE', *, *, #128, .T. ) ;
#176 = DIRECTION ( 'NONE',  ( 0.0000000000000000000, 0.0000000000000000000, 1.000000000000000000 ) ) ;
#177 = ORIENTED_EDGE ( 'NONE', *, *, #179, .F. ) ;
#178 = CARTESIAN_POINT ( 'NONE',  ( 0.0000000000000000000, 0.0000000000000000000, 2.952755999999999936 ) ) ;
#179 = EDGE_CURVE ( 'NONE', #264, #13, #26, .T. ) ;
#180 = ORIENTED_EDGE ( 'NONE', *, *, #299, .T. ) ;
#181 = DIRECTION ( 'NONE',  ( 0.0000000000000000000, 0.0000000000000000000, -1.000000000000000000 ) ) ;
#182 = EDGE_CURVE ( 'NONE', #286, #93, #92, .T. ) ;
#183 = DIRECTION ( 'NONE',  ( -1.000000000000000000, 0.0000000000000000000, 0.0000000000000000000 ) ) ;
#184 = CARTESIAN_POINT ( 'NONE',  ( -0.1573230194999999942, 0.0000000000000000000, 1.926651322628716627E-17 ) ) ;
#185 = CYLINDRICAL_SURFACE ( 'NONE', #135, 0.1574804999999999955 ) ;
#186 = DIRECTION ( 'NONE',  ( -1.000000000000000000, 0.0000000000000000000, 1.224646799147353454E-16 ) ) ;
#187 = CARTESIAN_POINT ( 'NONE',  ( 1.447526535780427694E-16, 0.0000000000000000000, 1.181995116296594261 ) ) ;
#188 = VECTOR ( 'NONE', #282, 39.37007874015748143 ) ;
#189 = SURFACE_STYLE_USAGE ( .BOTH. , #37 ) ;
#190 = CARTESIAN_POINT ( 'NONE',  ( 0.1574804999999999955, 1.928579902531247412E-17, 2.937756000000000256 ) ) ;
#191 = AXIS2_PLACEMENT_3D ( 'NONE', #204, #265, #228 ) ;
#192 = APPLICATION_PROTOCOL_DEFINITION ( 'draft international standard', 'automotive_design', 1998, #85 ) ;
#193 = DIRECTION ( 'NONE',  ( 1.000000000000000000, 0.0000000000000000000, 0.0000000000000000000 ) ) ;
#194 =( CONVERSION_BASED_UNIT ( 'INCH', #218 ) LENGTH_UNIT ( ) NAMED_UNIT ( #29 ) );
#195 = CIRCLE ( 'NONE', #103, 0.1573230194999999942 ) ;
#196 = LINE ( 'NONE', #133, #151 ) ;
#197 = CIRCLE ( 'NONE', #292, 0.1573230194999999942 ) ;
#198 = UNCERTAINTY_MEASURE_WITH_UNIT (LENGTH_MEASURE( 1.000000000000000082E-05 ), #59, 'distance_accuracy_value', 'NONE');
#199 = ORIENTED_EDGE ( 'NONE', *, *, #295, .T. ) ;
#200 = DIRECTION ( 'NONE',  ( -1.000000000000000000, 0.0000000000000000000, 1.224646799147353454E-16 ) ) ;
#201 = ORIENTED_EDGE ( 'NONE', *, *, #290, .F. ) ;
#202 = AXIS2_PLACEMENT_3D ( 'NONE', #101, #155, #193 ) ;
#203 = EDGE_LOOP ( 'NONE', ( #23, #247, #89, #46 ) ) ;
#204 = CARTESIAN_POINT ( 'NONE',  ( 0.0000000000000000000, 0.0000000000000000000, 0.0000000000000000000 ) ) ;
#205 = CARTESIAN_POINT ( 'NONE',  ( 0.0000000000000000000, 0.0000000000000000000, 2.952755999999999936 ) ) ;
#206 = CARTESIAN_POINT ( 'NONE',  ( -0.1424804999999998989, 0.0000000000000000000, 2.952755999999999936 ) ) ;
#207 = ORIENTED_EDGE ( 'NONE', *, *, #179, .T. ) ;
#208 = AXIS2_PLACEMENT_3D ( 'NONE', #122, #210, #7 ) ;
#209 = DIRECTION ( 'NONE',  ( 0.0000000000000000000, 0.0000000000000000000, 1.000000000000000000 ) ) ;
#210 = DIRECTION ( 'NONE',  ( -1.224646799147353207E-16, -0.0000000000000000000, -1.000000000000000000 ) ) ;
#211 = EDGE_CURVE ( 'NONE', #293, #270, #98, .T. ) ;
#212 = CONICAL_SURFACE ( 'NONE', #287, 0.1424804999999998989, 0.7853981633974608245 ) ;
#213 = FACE_OUTER_BOUND ( 'NONE', #266, .T. ) ;
#214 = EDGE_CURVE ( 'NONE', #264, #286, #54, .T. ) ;
#215 =( LENGTH_UNIT ( ) NAMED_UNIT ( * ) SI_UNIT ( $, .METRE. ) );
#216 = ORIENTED_EDGE ( 'NONE', *, *, #146, .F. ) ;
#217 = CONICAL_SURFACE ( 'NONE', #158, 0.1573230194999999942, 0.1745329251994338360 ) ;
#218 = LENGTH_MEASURE_WITH_UNIT ( LENGTH_MEASURE( 0.02539999999999999897 ), #14 );
#219 = EDGE_CURVE ( 'NONE', #15, #286, #5, .T. ) ;
#220 =( NAMED_UNIT ( * ) SI_UNIT ( $, .STERADIAN. ) SOLID_ANGLE_UNIT ( ) );
#221 = AXIS2_PLACEMENT_3D ( 'NONE', #178, #110, #294 ) ;
#222 = STYLED_ITEM ( 'NONE', ( #80 ), #230 ) ;
#223 = ORIENTED_EDGE ( 'NONE', *, *, #219, .T. ) ;
#224 = VERTEX_POINT ( 'NONE', #152 ) ;
#225 = CARTESIAN_POINT ( 'NONE',  ( -0.1574804999999999955, 0.0000000000000000000, 2.937756000000000256 ) ) ;
#226 = DIRECTION ( 'NONE',  ( 1.000000000000000000, 0.0000000000000000000, 0.0000000000000000000 ) ) ;
#227 = ORIENTED_EDGE ( 'NONE', *, *, #45, .T. ) ;
#228 = DIRECTION ( 'NONE',  ( -1.000000000000000000, 0.0000000000000000000, 1.224646799147353454E-16 ) ) ;
#229 = ADVANCED_FACE ( 'NONE', ( #76 ), #234, .T. ) ;
#230 = ADVANCED_BREP_SHAPE_REPRESENTATION ( 'Micro_SFPM-080-30', ( #268, #141 ), #97 ) ;
#231 = ORIENTED_EDGE ( 'NONE', *, *, #182, .T. ) ;
#232 = DIRECTION ( 'NONE',  ( -1.224646799147353207E-16, -0.0000000000000000000, -1.000000000000000000 ) ) ;
#233 = MECHANICAL_DESIGN_GEOMETRIC_PRESENTATION_REPRESENTATION (  '', ( #222 ), #111 ) ;
#234 = CYLINDRICAL_SURFACE ( 'NONE', #8, 0.1573230194999999942 ) ;
#235 = CARTESIAN_POINT ( 'NONE',  ( 1.446432783766537245E-16, 0.0000000000000000000, 1.181102000000000096 ) ) ;
#236 =( NAMED_UNIT ( * ) SI_UNIT ( $, .STERADIAN. ) SOLID_ANGLE_UNIT ( ) );
#237 = CIRCLE ( 'NONE', #57, 0.1574804999999999955 ) ;
#238 = CARTESIAN_POINT ( 'NONE',  ( 2.359467375330272285E-33, 0.0000000000000000000, 1.926651322628716627E-17 ) ) ;
#239 = APPLICATION_PROTOCOL_DEFINITION ( 'draft international standard', 'automotive_design', 1998, #100 ) ;
#240 = PRESENTATION_LAYER_ASSIGNMENT (  '', '', ( #222 ) ) ;
#241 = ORIENTED_EDGE ( 'NONE', *, *, #253, .F. ) ;
#242 = DIRECTION ( 'NONE',  ( 1.000000000000000000, 0.0000000000000000000, -0.0000000000000000000 ) ) ;
#243 = EDGE_LOOP ( 'NONE', ( #21, #27, #227, #174 ) ) ;
#244 = FACE_OUTER_BOUND ( 'NONE', #203, .T. ) ;
#245 = FACE_OUTER_BOUND ( 'NONE', #50, .T. ) ;
#246 = EDGE_CURVE ( 'NONE', #264, #224, #124, .T. ) ;
#247 = ORIENTED_EDGE ( 'NONE', *, *, #295, .F. ) ;
#248 = CARTESIAN_POINT ( 'NONE',  ( 0.0000000000000000000, 0.0000000000000000000, 2.952755999999999936 ) ) ;
#249 = DIRECTION ( 'NONE',  ( 1.000000000000000000, 0.0000000000000000000, -0.0000000000000000000 ) ) ;
#250 = VECTOR ( 'NONE', #28, 39.37007874015748143 ) ;
#251 = CARTESIAN_POINT ( 'NONE',  ( -0.1424804999999998989, 0.0000000000000000000, 2.952755999999999936 ) ) ;
#252 =( NAMED_UNIT ( * ) PLANE_ANGLE_UNIT ( ) SI_UNIT ( $, .RADIAN. ) );
#253 = EDGE_CURVE ( 'NONE', #93, #286, #237, .T. ) ;
#254 = DIRECTION ( 'NONE',  ( -1.224646799147353207E-16, -0.0000000000000000000, -1.000000000000000000 ) ) ;
#255 = FILL_AREA_STYLE ('',( #35 ) ) ;
#256 = AXIS2_PLACEMENT_3D ( 'NONE', #52, #34, #148 ) ;
#257 = DIRECTION ( 'NONE',  ( 1.224646799147353207E-16, 0.0000000000000000000, 1.000000000000000000 ) ) ;
#258 = AXIS2_PLACEMENT_3D ( 'NONE', #205, #160, #162 ) ;
#259 = AXIS2_PLACEMENT_3D ( 'NONE', #291, #24, #200 ) ;
#260 = ORIENTED_EDGE ( 'NONE', *, *, #263, .F. ) ;
#261 = PRODUCT_CONTEXT ( 'NONE', #85, 'mechanical' ) ;
#262 = VERTEX_POINT ( 'NONE', #251 ) ;
#263 = EDGE_CURVE ( 'NONE', #136, #13, #197, .T. ) ;
#264 = VERTEX_POINT ( 'NONE', #166 ) ;
#265 = DIRECTION ( 'NONE',  ( -1.224646799147353207E-16, -0.0000000000000000000, -1.000000000000000000 ) ) ;
#266 = EDGE_LOOP ( 'NONE', ( #164, #90, #231, #296 ) ) ;
#267 = DIRECTION ( 'NONE',  ( 0.0000000000000000000, 0.0000000000000000000, -1.000000000000000000 ) ) ;
#268 = MANIFOLD_SOLID_BREP ( 'Cut-Revolve1', #107 ) ;
#269 = ADVANCED_FACE ( 'NONE', ( #213 ), #87, .T. ) ;
#270 = VERTEX_POINT ( 'NONE', #190 ) ;
#271 = CARTESIAN_POINT ( 'NONE',  ( 0.1574805000000001343, 1.928579902531249261E-17, 1.181995116296594261 ) ) ;
#272 = VECTOR ( 'NONE', #49, 39.37007874015748143 ) ;
#273 = CARTESIAN_POINT ( 'NONE',  ( 1.446432783766537245E-16, 0.0000000000000000000, 1.181102000000000096 ) ) ;
#274 = CARTESIAN_POINT ( 'NONE',  ( 0.0000000000000000000, 0.0000000000000000000, 2.952755999999999936 ) ) ;
#275 = VECTOR ( 'NONE', #125, 39.37007874015747433 ) ;
#276 = EDGE_CURVE ( 'NONE', #293, #262, #119, .T. ) ;
#277 = LINE ( 'NONE', #81, #75 ) ;
#278 = CARTESIAN_POINT ( 'NONE',  ( -0.1573230194999998555, 1.926651322628716627E-17, 1.181102000000000096 ) ) ;
#279 = AXIS2_PLACEMENT_3D ( 'NONE', #283, #209, #169 ) ;
#280 = CARTESIAN_POINT ( 'NONE',  ( 0.0000000000000000000, 0.0000000000000000000, 0.0000000000000000000 ) ) ;
#281 = ADVANCED_FACE ( 'NONE', ( #79 ), #217, .T. ) ;
#282 = DIRECTION ( 'NONE',  ( 0.7071067811865563435, 8.659560562355041327E-17, -0.7071067811865386910 ) ) ;
#283 = CARTESIAN_POINT ( 'NONE',  ( 0.0000000000000000000, 0.0000000000000000000, 2.952755999999999936 ) ) ;
#284 = SURFACE_SIDE_STYLE ('',( #129 ) ) ;
#285 = SHAPE_DEFINITION_REPRESENTATION ( #132, #230 ) ;
#286 = VERTEX_POINT ( 'NONE', #33 ) ;
#287 = AXIS2_PLACEMENT_3D ( 'NONE', #137, #298, #183 ) ;
#288 = AXIS2_PLACEMENT_3D ( 'NONE', #143, #181, #226 ) ;
#289 = DIRECTION ( 'NONE',  ( -0.0000000000000000000, -0.0000000000000000000, -1.000000000000000000 ) ) ;
#290 = EDGE_CURVE ( 'NONE', #270, #93, #277, .T. ) ;
#291 = CARTESIAN_POINT ( 'NONE',  ( 2.359467375330272285E-33, 0.0000000000000000000, 1.926651322628716627E-17 ) ) ;
#292 = AXIS2_PLACEMENT_3D ( 'NONE', #238, #55, #186 ) ;
#293 = VERTEX_POINT ( 'NONE', #63 ) ;
#294 = DIRECTION ( 'NONE',  ( -1.000000000000000000, 0.0000000000000000000, 0.0000000000000000000 ) ) ;
#295 = EDGE_CURVE ( 'NONE', #262, #293, #38, .T. ) ;
#296 = ORIENTED_EDGE ( 'NONE', *, *, #45, .F. ) ;
#297 = PRODUCT_DEFINITION ( 'UNKNOWN', '', #1, #20 ) ;
#298 = DIRECTION ( 'NONE',  ( 0.0000000000000000000, 0.0000000000000000000, -1.000000000000000000 ) ) ;
#299 = EDGE_CURVE ( 'NONE', #224, #136, #196, .T. ) ;
ENDSEC;
END-ISO-10303-21;
