ISO-10303-21;
HEADER;
FILE_DESCRIPTION (( 'STEP AP214' ),
    '1' );
FILE_NAME ('Micro_CREM-060-150.STEP',
    '2021-09-02T15:21:06',
    ( '' ),
    ( '' ),
    'SwSTEP 2.0',
    'SolidWorks 2020',
    '' );
FILE_SCHEMA (( 'AUTOMOTIVE_DESIGN' ));
ENDSEC;

DATA;
#1 = DIRECTION ( 'NONE',  ( -1.000000000000000000, 0.0000000000000000000, 0.0000000000000000000 ) ) ;
#2 = CARTESIAN_POINT ( 'NONE',  ( 0.1031100000000002709, 1.262733314600839129E-17, 2.244094000000000033 ) ) ;
#3 = CONICAL_SURFACE ( 'NONE', #49, 0.1031100000000002709, 0.7853981633974318477 ) ;
#4 = EDGE_LOOP ( 'NONE', ( #110, #304, #69, #328 ) ) ;
#5 = APPLICATION_PROTOCOL_DEFINITION ( 'draft international standard', 'automotive_design', 1998, #91 ) ;
#6 = CARTESIAN_POINT ( 'NONE',  ( 8.537024980200822558E-18, 0.0000000000000000000, -5.510910596163092637E-18 ) ) ;
#7 = VECTOR ( 'NONE', #322, 39.37007874015748143 ) ;
#8 = DIRECTION ( 'NONE',  ( -1.250499981774462892E-16, -0.0000000000000000000, -1.000000000000000000 ) ) ;
#9 = CARTESIAN_POINT ( 'NONE',  ( 0.0000000000000000000, 0.0000000000000000000, 2.244094000000000033 ) ) ;
#10 = EDGE_CURVE ( 'NONE', #53, #187, #118, .T. ) ;
#11 = DIRECTION ( 'NONE',  ( -1.250499981774462892E-16, -0.0000000000000000000, -1.000000000000000000 ) ) ;
#12 = CARTESIAN_POINT ( 'NONE',  ( -0.08857898323758124637, 0.0000000000000000000, 0.005117998791752713210 ) ) ;
#13 = CARTESIAN_POINT ( 'NONE',  ( -0.08857898323758124637, 0.0000000000000000000, 0.06417299879175271393 ) ) ;
#14 = DIRECTION ( 'NONE',  ( -1.000000000000000000, 0.0000000000000000000, 0.0000000000000000000 ) ) ;
#15 = CARTESIAN_POINT ( 'NONE',  ( 0.0000000000000000000, 0.0000000000000000000, 2.244094000000000033 ) ) ;
#16 = AXIS2_PLACEMENT_3D ( 'NONE', #15, #39, #249 ) ;
#17 = PLANE ( 'NONE',  #168 ) ;
#18 = DIRECTION ( 'NONE',  ( -1.250499981774462892E-16, -0.0000000000000000000, -1.000000000000000000 ) ) ;
#19 = ADVANCED_BREP_SHAPE_REPRESENTATION ( 'Micro_CREM-060-150', ( #289, #172 ), #147 ) ;
#20 = EDGE_CURVE ( 'NONE', #256, #117, #167, .T. ) ;
#21 = FILL_AREA_STYLE ('',( #102 ) ) ;
#22 =( GEOMETRIC_REPRESENTATION_CONTEXT ( 3 ) GLOBAL_UNCERTAINTY_ASSIGNED_CONTEXT ( ( #294 ) ) GLOBAL_UNIT_ASSIGNED_CONTEXT ( ( #70, #151, #178 ) ) REPRESENTATION_CONTEXT ( 'NONE', 'WORKASPACE' ) );
#23 = EDGE_CURVE ( 'NONE', #40, #205, #51, .T. ) ;
#24 = TOROIDAL_SURFACE ( 'NONE', #85, 0.08857898323758124637, 0.05905499999999999639 ) ;
#25 = AXIS2_PLACEMENT_3D ( 'NONE', #183, #209, #26 ) ;
#26 = DIRECTION ( 'NONE',  ( -1.000000000000000000, 0.0000000000000000000, 1.250499981774462892E-16 ) ) ;
#27 = ORIENTED_EDGE ( 'NONE', *, *, #143, .T. ) ;
#28 = AXIS2_PLACEMENT_3D ( 'NONE', #287, #262, #30 ) ;
#29 = AXIS2_PLACEMENT_3D ( 'NONE', #173, #331, #1 ) ;
#30 = DIRECTION ( 'NONE',  ( -1.000000000000000000, 0.0000000000000000000, 1.250499981774462892E-16 ) ) ;
#31 = ADVANCED_FACE ( 'NONE', ( #182 ), #305, .F. ) ;
#32 = CARTESIAN_POINT ( 'NONE',  ( 9.177030719781672087E-18, 0.0000000000000000000, 0.005117998791752700199 ) ) ;
#33 = CARTESIAN_POINT ( 'NONE',  ( 1.656185836215076064E-17, 0.0000000000000000000, 0.06417299879175270005 ) ) ;
#34 = ORIENTED_EDGE ( 'NONE', *, *, #20, .F. ) ;
#35 = DIRECTION ( 'NONE',  ( 1.000000000000000000, 0.0000000000000000000, 0.0000000000000000000 ) ) ;
#36 = VECTOR ( 'NONE', #140, 39.37007874015748143 ) ;
#37 = DIRECTION ( 'NONE',  ( -0.0000000000000000000, -0.0000000000000000000, -1.000000000000000000 ) ) ;
#38 = ADVANCED_FACE ( 'NONE', ( #82 ), #24, .F. ) ;
#39 = DIRECTION ( 'NONE',  ( -0.0000000000000000000, -0.0000000000000000000, -1.000000000000000000 ) ) ;
#40 = VERTEX_POINT ( 'NONE', #58 ) ;
#41 = ORIENTED_EDGE ( 'NONE', *, *, #93, .F. ) ;
#42 = PLANE ( 'NONE',  #52 ) ;
#43 = CONICAL_SURFACE ( 'NONE', #29, 0.1031100000000002709, 0.7853981633974318477 ) ;
#44 = CARTESIAN_POINT ( 'NONE',  ( 0.0000000000000000000, 0.0000000000000000000, 0.06417299879175274169 ) ) ;
#45 = LENGTH_MEASURE_WITH_UNIT ( LENGTH_MEASURE( 0.02539999999999999897 ), #280 );
#46 = EDGE_LOOP ( 'NONE', ( #200, #218, #255, #108 ) ) ;
#47 =( LENGTH_UNIT ( ) NAMED_UNIT ( * ) SI_UNIT ( $, .METRE. ) );
#48 = EDGE_LOOP ( 'NONE', ( #177, #237 ) ) ;
#49 = AXIS2_PLACEMENT_3D ( 'NONE', #135, #181, #235 ) ;
#50 =( NAMED_UNIT ( * ) PLANE_ANGLE_UNIT ( ) SI_UNIT ( $, .RADIAN. ) );
#51 = CIRCLE ( 'NONE', #174, 0.05905499999999999639 ) ;
#52 = AXIS2_PLACEMENT_3D ( 'NONE', #120, #191, #169 ) ;
#53 = VERTEX_POINT ( 'NONE', #154 ) ;
#54 = FACE_OUTER_BOUND ( 'NONE', #149, .T. ) ;
#55 = DIRECTION ( 'NONE',  ( -1.000000000000000000, -1.224646799147353207E-16, 0.0000000000000000000 ) ) ;
#56 = ADVANCED_FACE ( 'NONE', ( #159 ), #320, .T. ) ;
#57 = CIRCLE ( 'NONE', #175, 0.08857898323758124637 ) ;
#58 = CARTESIAN_POINT ( 'NONE',  ( 0.02952398323758127080, 3.615645156998400008E-18, 0.005117998791752697597 ) ) ;
#59 = EDGE_LOOP ( 'NONE', ( #194, #145 ) ) ;
#60 = CARTESIAN_POINT ( 'NONE',  ( 0.0000000000000000000, 0.0000000000000000000, 0.0000000000000000000 ) ) ;
#61 = SURFACE_STYLE_FILL_AREA ( #295 ) ;
#62 = ORIENTED_EDGE ( 'NONE', *, *, #263, .T. ) ;
#63 = AXIS2_PLACEMENT_3D ( 'NONE', #195, #269, #35 ) ;
#64 = DIRECTION ( 'NONE',  ( -0.0000000000000000000, -0.0000000000000000000, -1.000000000000000000 ) ) ;
#65 = CARTESIAN_POINT ( 'NONE',  ( 0.08857898323758124637, 1.084779682936309543E-17, 0.06417299879175268618 ) ) ;
#66 = EDGE_CURVE ( 'NONE', #205, #187, #240, .T. ) ;
#67 = CARTESIAN_POINT ( 'NONE',  ( 0.1181100000000000344, 1.446430334472939084E-17, 2.244094000000000033 ) ) ;
#68 = AXIS2_PLACEMENT_3D ( 'NONE', #192, #37, #14 ) ;
#69 = ORIENTED_EDGE ( 'NONE', *, *, #190, .T. ) ;
#70 =( CONVERSION_BASED_UNIT ( 'INCH', #45 ) LENGTH_UNIT ( ) NAMED_UNIT ( #213 ) );
#71 = ORIENTED_EDGE ( 'NONE', *, *, #312, .F. ) ;
#72 = ADVANCED_FACE ( 'NONE', ( #264, #260 ), #161, .T. ) ;
#73 = AXIS2_PLACEMENT_3D ( 'NONE', #230, #107, #87 ) ;
#74 = ORIENTED_EDGE ( 'NONE', *, *, #81, .F. ) ;
#75 = PRESENTATION_STYLE_ASSIGNMENT (( #229 ) ) ;
#76 = ADVANCED_FACE ( 'NONE', ( #311 ), #3, .T. ) ;
#77 = STYLED_ITEM ( 'NONE', ( #75 ), #19 ) ;
#78 = ORIENTED_EDGE ( 'NONE', *, *, #66, .F. ) ;
#79 = PRODUCT_DEFINITION_FORMATION_WITH_SPECIFIED_SOURCE ( 'ANY', '', #286, .NOT_KNOWN. ) ;
#80 = DIRECTION ( 'NONE',  ( -1.250499981774462892E-16, -0.0000000000000000000, -1.000000000000000000 ) ) ;
#81 = EDGE_CURVE ( 'NONE', #40, #53, #210, .T. ) ;
#82 = FACE_OUTER_BOUND ( 'NONE', #326, .T. ) ;
#83 = SHAPE_DEFINITION_REPRESENTATION ( #265, #19 ) ;
#84 = DIRECTION ( 'NONE',  ( 1.000000000000000000, 0.0000000000000000000, 0.0000000000000000000 ) ) ;
#85 = AXIS2_PLACEMENT_3D ( 'NONE', #316, #291, #292 ) ;
#86 = PRESENTATION_LAYER_ASSIGNMENT (  '', '', ( #77 ) ) ;
#87 = DIRECTION ( 'NONE',  ( -1.000000000000000000, 0.0000000000000000000, 9.637754541958700350E-17 ) ) ;
#88 = CYLINDRICAL_SURFACE ( 'NONE', #134, 0.02952398323758126386 ) ;
#89 = CARTESIAN_POINT ( 'NONE',  ( 0.0000000000000000000, 0.0000000000000000000, 2.229093999999999465 ) ) ;
#90 = FACE_OUTER_BOUND ( 'NONE', #48, .T. ) ;
#91 = APPLICATION_CONTEXT ( 'automotive_design' ) ;
#92 = CARTESIAN_POINT ( 'NONE',  ( -0.1181100000000000344, 0.0000000000000000000, 2.229093999999999465 ) ) ;
#93 = EDGE_CURVE ( 'NONE', #53, #40, #307, .T. ) ;
#94 = DIRECTION ( 'NONE',  ( 0.0000000000000000000, 0.0000000000000000000, -1.000000000000000000 ) ) ;
#95 = VERTEX_POINT ( 'NONE', #285 ) ;
#96 = CARTESIAN_POINT ( 'NONE',  ( 0.02952398323758127080, 3.615645156998400008E-18, -9.202884646213584237E-18 ) ) ;
#97 = EDGE_LOOP ( 'NONE', ( #223, #78 ) ) ;
#98 = CIRCLE ( 'NONE', #259, 0.1181100000000000344 ) ;
#99 = ADVANCED_FACE ( 'NONE', ( #54 ), #88, .T. ) ;
#100 = LENGTH_MEASURE_WITH_UNIT ( LENGTH_MEASURE( 0.02539999999999999897 ), #224 );
#101 = ORIENTED_EDGE ( 'NONE', *, *, #66, .T. ) ;
#102 = FILL_AREA_STYLE_COLOUR ( '', #227 ) ;
#103 = CARTESIAN_POINT ( 'NONE',  ( 0.08857898323758124637, 1.084779682936309389E-17, 0.005117998791752692393 ) ) ;
#104 = AXIS2_PLACEMENT_3D ( 'NONE', #32, #137, #138 ) ;
#105 = DIRECTION ( 'NONE',  ( -1.000000000000000000, 0.0000000000000000000, 9.637754541958700350E-17 ) ) ;
#106 = CARTESIAN_POINT ( 'NONE',  ( 0.0000000000000000000, 0.0000000000000000000, 0.0000000000000000000 ) ) ;
#107 = DIRECTION ( 'NONE',  ( -1.250499981774462892E-16, -0.0000000000000000000, -1.000000000000000000 ) ) ;
#108 = ORIENTED_EDGE ( 'NONE', *, *, #243, .F. ) ;
#109 = UNCERTAINTY_MEASURE_WITH_UNIT (LENGTH_MEASURE( 1.000000000000000082E-05 ), #281, 'distance_accuracy_value', 'NONE');
#110 = ORIENTED_EDGE ( 'NONE', *, *, #93, .T. ) ;
#111 = VECTOR ( 'NONE', #18, 39.37007874015748143 ) ;
#112 = DIRECTION ( 'NONE',  ( -1.224646799147353207E-16, 1.000000000000000000, 1.531420800013919374E-32 ) ) ;
#113 = EDGE_CURVE ( 'NONE', #187, #205, #57, .T. ) ;
#114 = CARTESIAN_POINT ( 'NONE',  ( 0.02952398323758127080, 3.615645156998400008E-18, 0.0000000000000000000 ) ) ;
#115 = VERTEX_POINT ( 'NONE', #186 ) ;
#116 = CARTESIAN_POINT ( 'NONE',  ( 0.0000000000000000000, 0.0000000000000000000, 0.06417299879175274169 ) ) ;
#117 = VERTEX_POINT ( 'NONE', #239 ) ;
#118 = CIRCLE ( 'NONE', #226, 0.05905499999999999639 ) ;
#119 = ADVANCED_FACE ( 'NONE', ( #207 ), #313, .T. ) ;
#120 = CARTESIAN_POINT ( 'NONE',  ( 0.0000000000000000000, 0.0000000000000000000, 2.244094000000000033 ) ) ;
#121 = ORIENTED_EDGE ( 'NONE', *, *, #198, .F. ) ;
#122 = AXIS2_PLACEMENT_3D ( 'NONE', #6, #80, #268 ) ;
#123 = CARTESIAN_POINT ( 'NONE',  ( 0.1031100000000002709, 1.354581824536889030E-17, 2.244094000000000033 ) ) ;
#124 = CARTESIAN_POINT ( 'NONE',  ( -0.1181100000000000344, 0.0000000000000000000, 2.244094000000000033 ) ) ;
#125 = AXIS2_PLACEMENT_3D ( 'NONE', #116, #166, #273 ) ;
#126 = EDGE_CURVE ( 'NONE', #204, #171, #214, .T. ) ;
#127 =( NAMED_UNIT ( * ) PLANE_ANGLE_UNIT ( ) SI_UNIT ( $, .RADIAN. ) );
#128 = LINE ( 'NONE', #2, #139 ) ;
#129 = PRODUCT_DEFINITION ( 'UNKNOWN', '', #79, #290 ) ;
#130 =( NAMED_UNIT ( * ) SI_UNIT ( $, .STERADIAN. ) SOLID_ANGLE_UNIT ( ) );
#131 = DIRECTION ( 'NONE',  ( 0.0000000000000000000, 0.0000000000000000000, -1.000000000000000000 ) ) ;
#132 = ORIENTED_EDGE ( 'NONE', *, *, #263, .F. ) ;
#133 = ADVANCED_FACE ( 'NONE', ( #90 ), #42, .T. ) ;
#134 = AXIS2_PLACEMENT_3D ( 'NONE', #236, #8, #155 ) ;
#135 = CARTESIAN_POINT ( 'NONE',  ( 0.0000000000000000000, 0.0000000000000000000, 2.244094000000000033 ) ) ;
#136 = ORIENTED_EDGE ( 'NONE', *, *, #309, .F. ) ;
#137 = DIRECTION ( 'NONE',  ( -1.250499981774462892E-16, -0.0000000000000000000, -1.000000000000000000 ) ) ;
#138 = DIRECTION ( 'NONE',  ( -1.000000000000000000, 0.0000000000000000000, 1.084333486377355109E-16 ) ) ;
#139 = VECTOR ( 'NONE', #308, 39.37007874015748854 ) ;
#140 = DIRECTION ( 'NONE',  ( -1.250499981774462892E-16, -0.0000000000000000000, -1.000000000000000000 ) ) ;
#141 = EDGE_LOOP ( 'NONE', ( #71, #136, #157, #293 ) ) ;
#142 = SURFACE_STYLE_USAGE ( .BOTH. , #163 ) ;
#143 = EDGE_CURVE ( 'NONE', #115, #247, #298, .T. ) ;
#144 = FACE_OUTER_BOUND ( 'NONE', #59, .T. ) ;
#145 = ORIENTED_EDGE ( 'NONE', *, *, #190, .F. ) ;
#146 = CLOSED_SHELL ( 'NONE', ( #31, #56, #319, #119, #180, #133, #76, #72, #99, #38, #184 ) ) ;
#147 =( GEOMETRIC_REPRESENTATION_CONTEXT ( 3 ) GLOBAL_UNCERTAINTY_ASSIGNED_CONTEXT ( ( #109 ) ) GLOBAL_UNIT_ASSIGNED_CONTEXT ( ( #281, #127, #225 ) ) REPRESENTATION_CONTEXT ( 'NONE', 'WORKASPACE' ) );
#148 = DIRECTION ( 'NONE',  ( -1.250499981774462892E-16, -0.0000000000000000000, -1.000000000000000000 ) ) ;
#149 = EDGE_LOOP ( 'NONE', ( #121, #231, #274, #251 ) ) ;
#150 = DIRECTION ( 'NONE',  ( 0.0000000000000000000, 0.0000000000000000000, 1.000000000000000000 ) ) ;
#151 =( NAMED_UNIT ( * ) PLANE_ANGLE_UNIT ( ) SI_UNIT ( $, .RADIAN. ) );
#152 = COLOUR_RGB ( '',0.7921568627450980005, 0.8196078431372548767, 0.9333333333333333481 ) ;
#153 = PRESENTATION_STYLE_ASSIGNMENT (( #142 ) ) ;
#154 = CARTESIAN_POINT ( 'NONE',  ( -0.02952398323758125345, 0.0000000000000000000, 0.005117998791752703669 ) ) ;
#155 = DIRECTION ( 'NONE',  ( -1.000000000000000000, 0.0000000000000000000, 1.250499981774462892E-16 ) ) ;
#156 = EDGE_CURVE ( 'NONE', #95, #284, #241, .T. ) ;
#157 = ORIENTED_EDGE ( 'NONE', *, *, #176, .T. ) ;
#158 = DIMENSIONAL_EXPONENTS ( 1.000000000000000000, 0.0000000000000000000, 0.0000000000000000000, 0.0000000000000000000, 0.0000000000000000000, 0.0000000000000000000, 0.0000000000000000000 ) ;
#159 = FACE_OUTER_BOUND ( 'NONE', #4, .T. ) ;
#160 = MECHANICAL_DESIGN_GEOMETRIC_PRESENTATION_REPRESENTATION (  '', ( #303 ), #270 ) ;
#161 = PLANE ( 'NONE',  #25 ) ;
#162 = CARTESIAN_POINT ( 'NONE',  ( -0.02952398323758125345, 0.0000000000000000000, -1.818936546112600652E-18 ) ) ;
#163 = SURFACE_SIDE_STYLE ('',( #61 ) ) ;
#164 = DIRECTION ( 'NONE',  ( -0.7071067811865358044, 0.0000000000000000000, -0.7071067811865590080 ) ) ;
#165 = EDGE_LOOP ( 'NONE', ( #62, #27, #202, #170 ) ) ;
#166 = DIRECTION ( 'NONE',  ( -1.250499981774462892E-16, -0.0000000000000000000, -1.000000000000000000 ) ) ;
#167 = CIRCLE ( 'NONE', #296, 0.1031100000000002709 ) ;
#168 = AXIS2_PLACEMENT_3D ( 'NONE', #60, #244, #327 ) ;
#169 = DIRECTION ( 'NONE',  ( 1.000000000000000000, 0.0000000000000000000, -0.0000000000000000000 ) ) ;
#170 = ORIENTED_EDGE ( 'NONE', *, *, #126, .F. ) ;
#171 = VERTEX_POINT ( 'NONE', #271 ) ;
#172 = AXIS2_PLACEMENT_3D ( 'NONE', #106, #234, #314 ) ;
#173 = CARTESIAN_POINT ( 'NONE',  ( 0.0000000000000000000, 0.0000000000000000000, 2.244094000000000033 ) ) ;
#174 = AXIS2_PLACEMENT_3D ( 'NONE', #103, #112, #55 ) ;
#175 = AXIS2_PLACEMENT_3D ( 'NONE', #33, #11, #105 ) ;
#176 = EDGE_CURVE ( 'NONE', #117, #204, #193, .T. ) ;
#177 = ORIENTED_EDGE ( 'NONE', *, *, #309, .T. ) ;
#178 =( NAMED_UNIT ( * ) SI_UNIT ( $, .STERADIAN. ) SOLID_ANGLE_UNIT ( ) );
#179 = ORIENTED_EDGE ( 'NONE', *, *, #23, .T. ) ;
#180 = ADVANCED_FACE ( 'NONE', ( #188 ), #272, .T. ) ;
#181 = DIRECTION ( 'NONE',  ( 0.0000000000000000000, 0.0000000000000000000, -1.000000000000000000 ) ) ;
#182 = FACE_OUTER_BOUND ( 'NONE', #310, .T. ) ;
#183 = CARTESIAN_POINT ( 'NONE',  ( -0.08857898323758124637, 0.0000000000000000000, 0.06417299879175271393 ) ) ;
#184 = ADVANCED_FACE ( 'NONE', ( #144 ), #17, .F. ) ;
#185 = CIRCLE ( 'NONE', #125, 0.1181100000000000344 ) ;
#186 = CARTESIAN_POINT ( 'NONE',  ( 0.1181100000000000344, 1.446430334472939084E-17, 2.229093999999999465 ) ) ;
#187 = VERTEX_POINT ( 'NONE', #13 ) ;
#188 = FACE_OUTER_BOUND ( 'NONE', #46, .T. ) ;
#189 = AXIS2_PLACEMENT_3D ( 'NONE', #217, #221, #324 ) ;
#190 = EDGE_CURVE ( 'NONE', #284, #95, #232, .T. ) ;
#191 = DIRECTION ( 'NONE',  ( 0.0000000000000000000, 0.0000000000000000000, 1.000000000000000000 ) ) ;
#192 = CARTESIAN_POINT ( 'NONE',  ( 0.0000000000000000000, 0.0000000000000000000, 2.244094000000000033 ) ) ;
#193 = LINE ( 'NONE', #246, #266 ) ;
#194 = ORIENTED_EDGE ( 'NONE', *, *, #156, .F. ) ;
#195 = CARTESIAN_POINT ( 'NONE',  ( 0.0000000000000000000, 0.0000000000000000000, 2.229093999999999465 ) ) ;
#196 = EDGE_LOOP ( 'NONE', ( #245, #299 ) ) ;
#197 = DIRECTION ( 'NONE',  ( 0.0000000000000000000, 0.0000000000000000000, 1.000000000000000000 ) ) ;
#198 = EDGE_CURVE ( 'NONE', #40, #284, #300, .T. ) ;
#199 = DIRECTION ( 'NONE',  ( 1.000000000000000000, 0.0000000000000000000, 0.0000000000000000000 ) ) ;
#200 = ORIENTED_EDGE ( 'NONE', *, *, #143, .F. ) ;
#201 = SURFACE_SIDE_STYLE ('',( #278 ) ) ;
#202 = ORIENTED_EDGE ( 'NONE', *, *, #257, .F. ) ;
#203 = PRODUCT_CONTEXT ( 'NONE', #91, 'mechanical' ) ;
#204 = VERTEX_POINT ( 'NONE', #92 ) ;
#205 = VERTEX_POINT ( 'NONE', #65 ) ;
#206 = DIRECTION ( 'NONE',  ( -1.000000000000000000, 0.0000000000000000000, 1.084333486377355109E-16 ) ) ;
#207 = FACE_OUTER_BOUND ( 'NONE', #165, .T. ) ;
#208 = CARTESIAN_POINT ( 'NONE',  ( 9.177030719781672087E-18, 0.0000000000000000000, 0.005117998791752700199 ) ) ;
#209 = DIRECTION ( 'NONE',  ( -1.250499981774462892E-16, 0.0000000000000000000, -1.000000000000000000 ) ) ;
#210 = CIRCLE ( 'NONE', #254, 0.02952398323758126386 ) ;
#211 = ORIENTED_EDGE ( 'NONE', *, *, #10, .F. ) ;
#212 = CARTESIAN_POINT ( 'NONE',  ( 0.0000000000000000000, 0.0000000000000000000, 2.244094000000000033 ) ) ;
#213 = DIMENSIONAL_EXPONENTS ( 1.000000000000000000, 0.0000000000000000000, 0.0000000000000000000, 0.0000000000000000000, 0.0000000000000000000, 0.0000000000000000000, 0.0000000000000000000 ) ;
#214 = LINE ( 'NONE', #124, #7 ) ;
#215 = ORIENTED_EDGE ( 'NONE', *, *, #23, .F. ) ;
#216 = AXIS2_PLACEMENT_3D ( 'NONE', #219, #150, #276 ) ;
#217 = CARTESIAN_POINT ( 'NONE',  ( 8.537024980200822558E-18, 0.0000000000000000000, 0.0000000000000000000 ) ) ;
#218 = ORIENTED_EDGE ( 'NONE', *, *, #282, .T. ) ;
#219 = CARTESIAN_POINT ( 'NONE',  ( 8.537024980200822558E-18, 0.0000000000000000000, 0.0000000000000000000 ) ) ;
#220 = PRODUCT_RELATED_PRODUCT_CATEGORY ( 'part', '', ( #286 ) ) ;
#221 = DIRECTION ( 'NONE',  ( 0.0000000000000000000, 0.0000000000000000000, 1.000000000000000000 ) ) ;
#222 = FACE_OUTER_BOUND ( 'NONE', #277, .T. ) ;
#223 = ORIENTED_EDGE ( 'NONE', *, *, #113, .F. ) ;
#224 =( LENGTH_UNIT ( ) NAMED_UNIT ( * ) SI_UNIT ( $, .METRE. ) );
#225 =( NAMED_UNIT ( * ) SI_UNIT ( $, .STERADIAN. ) SOLID_ANGLE_UNIT ( ) );
#226 = AXIS2_PLACEMENT_3D ( 'NONE', #12, #317, #131 ) ;
#227 = COLOUR_RGB ( '',0.7921568627450980005, 0.8196078431372548767, 0.9333333333333333481 ) ;
#228 = ORIENTED_EDGE ( 'NONE', *, *, #113, .T. ) ;
#229 = SURFACE_STYLE_USAGE ( .BOTH. , #201 ) ;
#230 = CARTESIAN_POINT ( 'NONE',  ( 1.656185836215076064E-17, 0.0000000000000000000, 0.06417299879175270005 ) ) ;
#231 = ORIENTED_EDGE ( 'NONE', *, *, #81, .T. ) ;
#232 = CIRCLE ( 'NONE', #189, 0.02952398323758126386 ) ;
#233 = ORIENTED_EDGE ( 'NONE', *, *, #10, .T. ) ;
#234 = DIRECTION ( 'NONE',  ( 0.0000000000000000000, 0.0000000000000000000, 1.000000000000000000 ) ) ;
#235 = DIRECTION ( 'NONE',  ( -1.000000000000000000, 0.0000000000000000000, 0.0000000000000000000 ) ) ;
#236 = CARTESIAN_POINT ( 'NONE',  ( 8.537024980200822558E-18, 0.0000000000000000000, -5.510910596163092637E-18 ) ) ;
#237 = ORIENTED_EDGE ( 'NONE', *, *, #20, .T. ) ;
#238 = APPLICATION_PROTOCOL_DEFINITION ( 'draft international standard', 'automotive_design', 1998, #315 ) ;
#239 = CARTESIAN_POINT ( 'NONE',  ( -0.1031100000000002709, 0.0000000000000000000, 2.244094000000000033 ) ) ;
#240 = CIRCLE ( 'NONE', #73, 0.08857898323758124637 ) ;
#241 = CIRCLE ( 'NONE', #216, 0.02952398323758126386 ) ;
#242 = CARTESIAN_POINT ( 'NONE',  ( 0.1181100000000000344, 1.446430334472939084E-17, 0.06417299879175272781 ) ) ;
#243 = EDGE_CURVE ( 'NONE', #247, #171, #185, .T. ) ;
#244 = DIRECTION ( 'NONE',  ( 0.0000000000000000000, 0.0000000000000000000, 1.000000000000000000 ) ) ;
#245 = ORIENTED_EDGE ( 'NONE', *, *, #257, .T. ) ;
#246 = CARTESIAN_POINT ( 'NONE',  ( -0.1031100000000002709, 0.0000000000000000000, 2.244094000000000033 ) ) ;
#247 = VERTEX_POINT ( 'NONE', #242 ) ;
#248 = AXIS2_PLACEMENT_3D ( 'NONE', #212, #197, #199 ) ;
#249 = DIRECTION ( 'NONE',  ( -1.000000000000000000, 0.0000000000000000000, 0.0000000000000000000 ) ) ;
#250 = ORIENTED_EDGE ( 'NONE', *, *, #312, .T. ) ;
#251 = ORIENTED_EDGE ( 'NONE', *, *, #156, .T. ) ;
#252 = LINE ( 'NONE', #162, #111 ) ;
#253 = LENGTH_MEASURE_WITH_UNIT ( LENGTH_MEASURE( 0.02539999999999999897 ), #47 );
#254 = AXIS2_PLACEMENT_3D ( 'NONE', #208, #267, #206 ) ;
#255 = ORIENTED_EDGE ( 'NONE', *, *, #126, .T. ) ;
#256 = VERTEX_POINT ( 'NONE', #123 ) ;
#257 = EDGE_CURVE ( 'NONE', #171, #247, #98, .T. ) ;
#258 =( CONVERSION_BASED_UNIT ( 'INCH', #253 ) LENGTH_UNIT ( ) NAMED_UNIT ( #261 ) );
#259 = AXIS2_PLACEMENT_3D ( 'NONE', #44, #148, #325 ) ;
#260 = FACE_OUTER_BOUND ( 'NONE', #196, .T. ) ;
#261 = DIMENSIONAL_EXPONENTS ( 1.000000000000000000, 0.0000000000000000000, 0.0000000000000000000, 0.0000000000000000000, 0.0000000000000000000, 0.0000000000000000000, 0.0000000000000000000 ) ;
#262 = DIRECTION ( 'NONE',  ( -1.250499981774462892E-16, -0.0000000000000000000, -1.000000000000000000 ) ) ;
#263 = EDGE_CURVE ( 'NONE', #204, #115, #318, .T. ) ;
#264 = FACE_BOUND ( 'NONE', #97, .T. ) ;
#265 = PRODUCT_DEFINITION_SHAPE ( 'NONE', 'NONE',  #129 ) ;
#266 = VECTOR ( 'NONE', #164, 39.37007874015748854 ) ;
#267 = DIRECTION ( 'NONE',  ( -1.250499981774462892E-16, -0.0000000000000000000, -1.000000000000000000 ) ) ;
#268 = DIRECTION ( 'NONE',  ( -1.000000000000000000, 0.0000000000000000000, 1.250499981774462892E-16 ) ) ;
#269 = DIRECTION ( 'NONE',  ( 0.0000000000000000000, 0.0000000000000000000, -1.000000000000000000 ) ) ;
#270 =( GEOMETRIC_REPRESENTATION_CONTEXT ( 3 ) GLOBAL_UNCERTAINTY_ASSIGNED_CONTEXT ( ( #329 ) ) GLOBAL_UNIT_ASSIGNED_CONTEXT ( ( #258, #50, #130 ) ) REPRESENTATION_CONTEXT ( 'NONE', 'WORKASPACE' ) );
#271 = CARTESIAN_POINT ( 'NONE',  ( -0.1181100000000000344, 0.0000000000000000000, 0.06417299879175275557 ) ) ;
#272 = CYLINDRICAL_SURFACE ( 'NONE', #16, 0.1181100000000000344 ) ;
#273 = DIRECTION ( 'NONE',  ( -1.000000000000000000, 0.0000000000000000000, 1.445605787858914658E-16 ) ) ;
#274 = ORIENTED_EDGE ( 'NONE', *, *, #279, .T. ) ;
#275 = MECHANICAL_DESIGN_GEOMETRIC_PRESENTATION_REPRESENTATION (  '', ( #77 ), #22 ) ;
#276 = DIRECTION ( 'NONE',  ( 1.000000000000000000, 0.0000000000000000000, 0.0000000000000000000 ) ) ;
#277 = EDGE_LOOP ( 'NONE', ( #34, #250, #132, #302 ) ) ;
#278 = SURFACE_STYLE_FILL_AREA ( #21 ) ;
#279 = EDGE_CURVE ( 'NONE', #53, #95, #252, .T. ) ;
#280 =( LENGTH_UNIT ( ) NAMED_UNIT ( * ) SI_UNIT ( $, .METRE. ) );
#281 =( CONVERSION_BASED_UNIT ( 'INCH', #100 ) LENGTH_UNIT ( ) NAMED_UNIT ( #158 ) );
#282 = EDGE_CURVE ( 'NONE', #115, #204, #297, .T. ) ;
#283 = CIRCLE ( 'NONE', #248, 0.1031100000000002709 ) ;
#284 = VERTEX_POINT ( 'NONE', #114 ) ;
#285 = CARTESIAN_POINT ( 'NONE',  ( -0.02952398323758125345, 0.0000000000000000000, 0.0000000000000000000 ) ) ;
#286 = PRODUCT ( 'Micro_CREM-060-150', 'Micro_CREM-060-150', '', ( #203 ) ) ;
#287 = CARTESIAN_POINT ( 'NONE',  ( 0.0000000000000000000, 0.0000000000000000000, 0.005117998791752702802 ) ) ;
#288 = DIRECTION ( 'NONE',  ( 0.0000000000000000000, 0.0000000000000000000, 1.000000000000000000 ) ) ;
#289 = MANIFOLD_SOLID_BREP ( 'Cut-Revolve1', #146 ) ;
#290 = PRODUCT_DEFINITION_CONTEXT ( 'detailed design', #315, 'design' ) ;
#291 = DIRECTION ( 'NONE',  ( -1.250499981774462892E-16, -0.0000000000000000000, -1.000000000000000000 ) ) ;
#292 = DIRECTION ( 'NONE',  ( -1.000000000000000000, 0.0000000000000000000, 1.250499981774462892E-16 ) ) ;
#293 = ORIENTED_EDGE ( 'NONE', *, *, #282, .F. ) ;
#294 = UNCERTAINTY_MEASURE_WITH_UNIT (LENGTH_MEASURE( 1.000000000000000082E-05 ), #70, 'distance_accuracy_value', 'NONE');
#295 = FILL_AREA_STYLE ('',( #321 ) ) ;
#296 = AXIS2_PLACEMENT_3D ( 'NONE', #9, #288, #84 ) ;
#297 = CIRCLE ( 'NONE', #63, 0.1181100000000000344 ) ;
#298 = LINE ( 'NONE', #67, #330 ) ;
#299 = ORIENTED_EDGE ( 'NONE', *, *, #243, .T. ) ;
#300 = LINE ( 'NONE', #96, #36 ) ;
#301 = DIRECTION ( 'NONE',  ( 1.000000000000000000, 0.0000000000000000000, 0.0000000000000000000 ) ) ;
#302 = ORIENTED_EDGE ( 'NONE', *, *, #176, .F. ) ;
#303 = STYLED_ITEM ( 'NONE', ( #153 ), #289 ) ;
#304 = ORIENTED_EDGE ( 'NONE', *, *, #198, .T. ) ;
#305 = TOROIDAL_SURFACE ( 'NONE', #28, 0.08857898323758124637, 0.05905499999999999639 ) ;
#306 = PRESENTATION_LAYER_ASSIGNMENT (  '', '', ( #303 ) ) ;
#307 = CIRCLE ( 'NONE', #104, 0.02952398323758126386 ) ;
#308 = DIRECTION ( 'NONE',  ( 0.7071067811865358044, 8.659560562354788645E-17, -0.7071067811865590080 ) ) ;
#309 = EDGE_CURVE ( 'NONE', #117, #256, #283, .T. ) ;
#310 = EDGE_LOOP ( 'NONE', ( #74, #179, #101, #211 ) ) ;
#311 = FACE_OUTER_BOUND ( 'NONE', #141, .T. ) ;
#312 = EDGE_CURVE ( 'NONE', #256, #115, #128, .T. ) ;
#313 = CYLINDRICAL_SURFACE ( 'NONE', #68, 0.1181100000000000344 ) ;
#314 = DIRECTION ( 'NONE',  ( 1.000000000000000000, 0.0000000000000000000, 0.0000000000000000000 ) ) ;
#315 = APPLICATION_CONTEXT ( 'automotive_design' ) ;
#316 = CARTESIAN_POINT ( 'NONE',  ( 0.0000000000000000000, 0.0000000000000000000, 0.005117998791752702802 ) ) ;
#317 = DIRECTION ( 'NONE',  ( 0.0000000000000000000, -1.000000000000000000, 0.0000000000000000000 ) ) ;
#318 = CIRCLE ( 'NONE', #323, 0.1181100000000000344 ) ;
#319 = ADVANCED_FACE ( 'NONE', ( #222 ), #43, .T. ) ;
#320 = CYLINDRICAL_SURFACE ( 'NONE', #122, 0.02952398323758126386 ) ;
#321 = FILL_AREA_STYLE_COLOUR ( '', #152 ) ;
#322 = DIRECTION ( 'NONE',  ( -0.0000000000000000000, -0.0000000000000000000, -1.000000000000000000 ) ) ;
#323 = AXIS2_PLACEMENT_3D ( 'NONE', #89, #94, #301 ) ;
#324 = DIRECTION ( 'NONE',  ( 1.000000000000000000, 0.0000000000000000000, 0.0000000000000000000 ) ) ;
#325 = DIRECTION ( 'NONE',  ( -1.000000000000000000, 0.0000000000000000000, 1.445605787858914658E-16 ) ) ;
#326 = EDGE_LOOP ( 'NONE', ( #215, #41, #233, #228 ) ) ;
#327 = DIRECTION ( 'NONE',  ( 1.000000000000000000, 0.0000000000000000000, -0.0000000000000000000 ) ) ;
#328 = ORIENTED_EDGE ( 'NONE', *, *, #279, .F. ) ;
#329 = UNCERTAINTY_MEASURE_WITH_UNIT (LENGTH_MEASURE( 1.000000000000000082E-05 ), #258, 'distance_accuracy_value', 'NONE');
#330 = VECTOR ( 'NONE', #64, 39.37007874015748143 ) ;
#331 = DIRECTION ( 'NONE',  ( 0.0000000000000000000, 0.0000000000000000000, -1.000000000000000000 ) ) ;
ENDSEC;
END-ISO-10303-21;
