ISO-10303-21;
HEADER;
FILE_DESCRIPTION (( 'STEP AP214' ),
    '1' );
FILE_NAME ('83862.STEP',
    '2023-07-05T16:22:38',
    ( '' ),
    ( '' ),
    'SwSTEP 2.0',
    'SolidWorks 2023',
    '' );
FILE_SCHEMA (( 'AUTOMOTIVE_DESIGN' ));
ENDSEC;

DATA;
#1 = LENGTH_MEASURE_WITH_UNIT ( LENGTH_MEASURE( 0.02539999999999999897 ), #200 );
#2 =( NAMED_UNIT ( * ) PLANE_ANGLE_UNIT ( ) SI_UNIT ( $, .RADIAN. ) );
#3 = ADVANCED_FACE ( 'NONE', ( #91 ), #50, .T. ) ;
#4 = SURFACE_STYLE_USAGE ( .BOTH. , #226 ) ;
#5 = DIRECTION ( 'NONE',  ( -1.000000000000000000, 0.000000000000000000, 0.000000000000000000 ) ) ;
#6 =( LENGTH_UNIT ( ) NAMED_UNIT ( * ) SI_UNIT ( $, .METRE. ) );
#7 =( CONVERSION_BASED_UNIT ( 'INCH', #202 ) LENGTH_UNIT ( ) NAMED_UNIT ( #174 ) );
#8 = EDGE_CURVE ( 'NONE', #255, #110, #124, .T. ) ;
#9 = SURFACE_STYLE_FILL_AREA ( #38 ) ;
#10 = ORIENTED_EDGE ( 'NONE', *, *, #114, .F. ) ;
#11 = ADVANCED_FACE ( 'NONE', ( #225 ), #248, .F. ) ;
#12 = EDGE_LOOP ( 'NONE', ( #10, #233 ) ) ;
#13 = DIRECTION ( 'NONE',  ( -1.000000000000000000, -1.451753476719974375E-16, 0.000000000000000000 ) ) ;
#14 = CARTESIAN_POINT ( 'NONE',  ( -0.1875000000000001110, 2.500000000000000000, 0.000000000000000000 ) ) ;
#15 = AXIS2_PLACEMENT_3D ( 'NONE', #42, #115, #84 ) ;
#16 = LENGTH_MEASURE_WITH_UNIT ( LENGTH_MEASURE( 0.02539999999999999897 ), #75 );
#17 =( NAMED_UNIT ( * ) SI_UNIT ( $, .STERADIAN. ) SOLID_ANGLE_UNIT ( ) );
#18 = CARTESIAN_POINT ( 'NONE',  ( 2.859903368367275526E-16, 0.1082531754730542140, 0.000000000000000000 ) ) ;
#19 = AXIS2_PLACEMENT_3D ( 'NONE', #18, #79, #158 ) ;
#20 =( LENGTH_UNIT ( ) NAMED_UNIT ( * ) SI_UNIT ( $, .METRE. ) );
#21 =( CONVERSION_BASED_UNIT ( 'INCH', #1 ) LENGTH_UNIT ( ) NAMED_UNIT ( #150 ) );
#22 =( NAMED_UNIT ( * ) SI_UNIT ( $, .STERADIAN. ) SOLID_ANGLE_UNIT ( ) );
#23 = DIRECTION ( 'NONE',  ( -1.454037125404963195E-17, -1.000000000000000000, -0.000000000000000000 ) ) ;
#24 = DIRECTION ( 'NONE',  ( 0.8660254037844397068, 0.4999999999999979461, 1.060575238724908024E-16 ) ) ;
#25 = APPLICATION_PROTOCOL_DEFINITION ( 'draft international standard', 'automotive_design', 1998, #78 ) ;
#26 = FACE_OUTER_BOUND ( 'NONE', #138, .T. ) ;
#27 = PRESENTATION_LAYER_ASSIGNMENT (  '', '', ( #197 ) ) ;
#28 = ORIENTED_EDGE ( 'NONE', *, *, #114, .T. ) ;
#29 = SHAPE_DEFINITION_REPRESENTATION ( #85, #45 ) ;
#30 =( NAMED_UNIT ( * ) SI_UNIT ( $, .STERADIAN. ) SOLID_ANGLE_UNIT ( ) );
#31 = PRESENTATION_STYLE_ASSIGNMENT (( #149 ) ) ;
#32 = LENGTH_MEASURE_WITH_UNIT ( LENGTH_MEASURE( 0.02539999999999999897 ), #211 );
#33 = ORIENTED_EDGE ( 'NONE', *, *, #213, .T. ) ;
#34 = FILL_AREA_STYLE ('',( #86 ) ) ;
#35 = EDGE_LOOP ( 'NONE', ( #228, #117, #122 ) ) ;
#36 = EDGE_CURVE ( 'NONE', #97, #237, #223, .T. ) ;
#37 = DIRECTION ( 'NONE',  ( 1.000000000000000000, 1.451753476719974375E-16, 0.000000000000000000 ) ) ;
#38 = FILL_AREA_STYLE ('',( #121 ) ) ;
#39 = CIRCLE ( 'NONE', #194, 0.1874999999999996947 ) ;
#40 = CARTESIAN_POINT ( 'NONE',  ( 0.000000000000000000, 0.000000000000000000, 0.000000000000000000 ) ) ;
#41 = APPLICATION_PROTOCOL_DEFINITION ( 'draft international standard', 'automotive_design', 1998, #63 ) ;
#42 = CARTESIAN_POINT ( 'NONE',  ( 0.000000000000000000, 0.000000000000000000, 0.000000000000000000 ) ) ;
#43 = CLOSED_SHELL ( 'NONE', ( #58, #100, #168, #11 ) ) ;
#44 =( GEOMETRIC_REPRESENTATION_CONTEXT ( 3 ) GLOBAL_UNCERTAINTY_ASSIGNED_CONTEXT ( ( #142 ) ) GLOBAL_UNIT_ASSIGNED_CONTEXT ( ( #7, #92, #264 ) ) REPRESENTATION_CONTEXT ( 'NONE', 'WORKASPACE' ) );
#45 = ADVANCED_BREP_SHAPE_REPRESENTATION ( '83862', ( #178, #89, #15 ), #148 ) ;
#46 = EDGE_CURVE ( 'NONE', #255, #257, #232, .T. ) ;
#47 = COLOUR_RGB ( '',0.7921568627450980005, 0.8196078431372548767, 0.9333333333333333481 ) ;
#48 = ORIENTED_EDGE ( 'NONE', *, *, #213, .F. ) ;
#49 = CARTESIAN_POINT ( 'NONE',  ( -6.123233995736764803E-17, 2.500000000000000000, 0.000000000000000000 ) ) ;
#50 = CONICAL_SURFACE ( 'NONE', #61, 68.19097667594041923, 1.047197551196600074 ) ;
#51 = MECHANICAL_DESIGN_GEOMETRIC_PRESENTATION_REPRESENTATION (  '', ( #167 ), #265 ) ;
#52 = CYLINDRICAL_SURFACE ( 'NONE', #161, 0.1874999999999998890 ) ;
#53 = DIRECTION ( 'NONE',  ( -1.451753476719974375E-16, 1.000000000000000000, -0.000000000000000000 ) ) ;
#54 =( CONVERSION_BASED_UNIT ( 'INCH', #241 ) LENGTH_UNIT ( ) NAMED_UNIT ( #219 ) );
#55 = DIRECTION ( 'NONE',  ( -1.000000000000000000, 0.000000000000000000, 0.000000000000000000 ) ) ;
#56 = CARTESIAN_POINT ( 'NONE',  ( 0.000000000000000000, 0.000000000000000000, 0.000000000000000000 ) ) ;
#57 = PRODUCT ( '83862', '83862', '', ( #186 ) ) ;
#58 = ADVANCED_FACE ( 'NONE', ( #26 ), #227, .T. ) ;
#59 = CARTESIAN_POINT ( 'NONE',  ( 0.1874999999999999722, 2.500000000000000000, 2.296212748401286801E-17 ) ) ;
#60 = DIRECTION ( 'NONE',  ( 1.000000000000000000, 0.000000000000000000, 0.000000000000000000 ) ) ;
#61 = AXIS2_PLACEMENT_3D ( 'NONE', #172, #247, #134 ) ;
#62 = STYLED_ITEM ( 'NONE', ( #101 ), #178 ) ;
#63 = APPLICATION_CONTEXT ( 'automotive_design' ) ;
#64 = PLANE ( 'NONE',  #112 ) ;
#65 = MECHANICAL_DESIGN_GEOMETRIC_PRESENTATION_REPRESENTATION (  '', ( #181 ), #129 ) ;
#66 = ORIENTED_EDGE ( 'NONE', *, *, #205, .T. ) ;
#67 = SURFACE_STYLE_FILL_AREA ( #34 ) ;
#68 = DIRECTION ( 'NONE',  ( 1.000000000000000000, 0.000000000000000000, 0.000000000000000000 ) ) ;
#69 = CARTESIAN_POINT ( 'NONE',  ( 2.859903368367275526E-16, 0.1082531754730542140, 0.000000000000000000 ) ) ;
#70 = PRESENTATION_LAYER_ASSIGNMENT (  '', '', ( #167 ) ) ;
#71 = CARTESIAN_POINT ( 'NONE',  ( 1.574041360807988916E-18, 0.1082531754730542556, 0.000000000000000000 ) ) ;
#72 = DIMENSIONAL_EXPONENTS ( 1.000000000000000000, 0.000000000000000000, 0.000000000000000000, 0.000000000000000000, 0.000000000000000000, 0.000000000000000000, 0.000000000000000000 ) ;
#73 = DIRECTION ( 'NONE',  ( -1.000000000000000000, 0.000000000000000000, 0.000000000000000000 ) ) ;
#74 =( LENGTH_UNIT ( ) NAMED_UNIT ( * ) SI_UNIT ( $, .METRE. ) );
#75 =( LENGTH_UNIT ( ) NAMED_UNIT ( * ) SI_UNIT ( $, .METRE. ) );
#76 = SURFACE_STYLE_FILL_AREA ( #192 ) ;
#77 = AXIS2_PLACEMENT_3D ( 'NONE', #258, #170, #68 ) ;
#78 = APPLICATION_CONTEXT ( 'automotive_design' ) ;
#79 = DIRECTION ( 'NONE',  ( -1.451753476719974375E-16, 1.000000000000000000, -0.000000000000000000 ) ) ;
#80 = UNCERTAINTY_MEASURE_WITH_UNIT (LENGTH_MEASURE( 1.000000000000000082E-05 ), #263, 'distance_accuracy_value', 'NONE');
#81 = AXIS2_PLACEMENT_3D ( 'NONE', #163, #165, #254 ) ;
#82 = PRODUCT_DEFINITION_FORMATION_WITH_SPECIFIED_SOURCE ( 'ANY', '', #57, .NOT_KNOWN. ) ;
#83 = CARTESIAN_POINT ( 'NONE',  ( 0.1874999999999998057, 2.500000000000000000, 2.296212748401285877E-17 ) ) ;
#84 = DIRECTION ( 'NONE',  ( 1.000000000000000000, 0.000000000000000000, 0.000000000000000000 ) ) ;
#85 = PRODUCT_DEFINITION_SHAPE ( 'NONE', 'NONE',  #187 ) ;
#86 = FILL_AREA_STYLE_COLOUR ( '', #143 ) ;
#87 = VECTOR ( 'NONE', #185, 39.37007874015748143 ) ;
#88 = CONICAL_SURFACE ( 'NONE', #95, 68.19097667594041923, 1.047197551196600074 ) ;
#89 = MANIFOLD_SOLID_BREP ( 'Revolve - Tool Body (Pointed)', #43 ) ;
#90 = FACE_OUTER_BOUND ( 'NONE', #210, .T. ) ;
#91 = FACE_OUTER_BOUND ( 'NONE', #35, .T. ) ;
#92 =( NAMED_UNIT ( * ) PLANE_ANGLE_UNIT ( ) SI_UNIT ( $, .RADIAN. ) );
#93 =( NAMED_UNIT ( * ) SI_UNIT ( $, .STERADIAN. ) SOLID_ANGLE_UNIT ( ) );
#94 = PRESENTATION_LAYER_ASSIGNMENT (  '', '', ( #240 ) ) ;
#95 = AXIS2_PLACEMENT_3D ( 'NONE', #195, #108, #73 ) ;
#96 = SURFACE_STYLE_USAGE ( .BOTH. , #103 ) ;
#97 = VERTEX_POINT ( 'NONE', #188 ) ;
#98 = SURFACE_STYLE_USAGE ( .BOTH. , #262 ) ;
#99 = LENGTH_MEASURE_WITH_UNIT ( LENGTH_MEASURE( 0.02539999999999999897 ), #20 );
#100 = ADVANCED_FACE ( 'NONE', ( #216 ), #64, .F. ) ;
#101 = PRESENTATION_STYLE_ASSIGNMENT (( #251 ) ) ;
#102 =( NAMED_UNIT ( * ) SI_UNIT ( $, .STERADIAN. ) SOLID_ANGLE_UNIT ( ) );
#103 = SURFACE_SIDE_STYLE ('',( #236 ) ) ;
#104 = EDGE_LOOP ( 'NONE', ( #218, #166 ) ) ;
#105 = VECTOR ( 'NONE', #222, 39.37007874015748854 ) ;
#106 =( NAMED_UNIT ( * ) PLANE_ANGLE_UNIT ( ) SI_UNIT ( $, .RADIAN. ) );
#107 = CARTESIAN_POINT ( 'NONE',  ( 2.859903368367275526E-16, 0.1082531754730542278, 0.000000000000000000 ) ) ;
#108 = DIRECTION ( 'NONE',  ( 1.454037125404963195E-17, 1.000000000000000000, 0.000000000000000000 ) ) ;
#109 = DIMENSIONAL_EXPONENTS ( 1.000000000000000000, 0.000000000000000000, 0.000000000000000000, 0.000000000000000000, 0.000000000000000000, 0.000000000000000000, 0.000000000000000000 ) ;
#110 = VERTEX_POINT ( 'NONE', #126 ) ;
#111 = FILL_AREA_STYLE_COLOUR ( '', #208 ) ;
#112 = AXIS2_PLACEMENT_3D ( 'NONE', #107, #190, #13 ) ;
#113 = SURFACE_SIDE_STYLE ('',( #9 ) ) ;
#114 = EDGE_CURVE ( 'NONE', #110, #255, #39, .T. ) ;
#115 = DIRECTION ( 'NONE',  ( 0.000000000000000000, 0.000000000000000000, 1.000000000000000000 ) ) ;
#116 = AXIS2_PLACEMENT_3D ( 'NONE', #49, #130, #55 ) ;
#117 = ORIENTED_EDGE ( 'NONE', *, *, #36, .T. ) ;
#118 = UNCERTAINTY_MEASURE_WITH_UNIT (LENGTH_MEASURE( 1.000000000000000082E-05 ), #127, 'distance_accuracy_value', 'NONE');
#119 = ORIENTED_EDGE ( 'NONE', *, *, #182, .T. ) ;
#120 = COLOUR_RGB ( '',0.7921568627450980005, 0.8196078431372548767, 0.9333333333333333481 ) ;
#121 = FILL_AREA_STYLE_COLOUR ( '', #120 ) ;
#122 = ORIENTED_EDGE ( 'NONE', *, *, #146, .T. ) ;
#123 = PRODUCT_RELATED_PRODUCT_CATEGORY ( 'part', '', ( #57 ) ) ;
#124 = CIRCLE ( 'NONE', #19, 0.1874999999999996947 ) ;
#125 = PRESENTATION_LAYER_ASSIGNMENT (  '', '', ( #62 ) ) ;
#126 = CARTESIAN_POINT ( 'NONE',  ( -0.1874999999999994449, 0.1082531754730541723, 0.000000000000000000 ) ) ;
#127 =( CONVERSION_BASED_UNIT ( 'INCH', #16 ) LENGTH_UNIT ( ) NAMED_UNIT ( #217 ) );
#128 = ORIENTED_EDGE ( 'NONE', *, *, #36, .F. ) ;
#129 =( GEOMETRIC_REPRESENTATION_CONTEXT ( 3 ) GLOBAL_UNCERTAINTY_ASSIGNED_CONTEXT ( ( #80 ) ) GLOBAL_UNIT_ASSIGNED_CONTEXT ( ( #263, #106, #93 ) ) REPRESENTATION_CONTEXT ( 'NONE', 'WORKASPACE' ) );
#130 = DIRECTION ( 'NONE',  ( -1.451753476719974375E-16, 1.000000000000000000, -0.000000000000000000 ) ) ;
#131 = CARTESIAN_POINT ( 'NONE',  ( 1.574041360807988916E-18, 0.1082531754730542695, 0.000000000000000000 ) ) ;
#132 =( NAMED_UNIT ( * ) PLANE_ANGLE_UNIT ( ) SI_UNIT ( $, .RADIAN. ) );
#133 =( GEOMETRIC_REPRESENTATION_CONTEXT ( 3 ) GLOBAL_UNCERTAINTY_ASSIGNED_CONTEXT ( ( #162 ) ) GLOBAL_UNIT_ASSIGNED_CONTEXT ( ( #21, #243, #102 ) ) REPRESENTATION_CONTEXT ( 'NONE', 'WORKASPACE' ) );
#134 = DIRECTION ( 'NONE',  ( -1.000000000000000000, 0.000000000000000000, 0.000000000000000000 ) ) ;
#135 = CARTESIAN_POINT ( 'NONE',  ( 0.1875000000000000278, 0.1082531754730542695, 2.296212748401287726E-17 ) ) ;
#136 = CARTESIAN_POINT ( 'NONE',  ( 0.1874999999999999722, 2.500000000000000000, 0.000000000000000000 ) ) ;
#137 = DIRECTION ( 'NONE',  ( -1.000000000000000000, 1.454037125404963195E-17, 0.000000000000000000 ) ) ;
#138 = EDGE_LOOP ( 'NONE', ( #28, #215, #145, #212 ) ) ;
#139 = CARTESIAN_POINT ( 'NONE',  ( 0.1874999999999999722, 0.1082531754730542417, 2.296212748401286801E-17 ) ) ;
#140 = VECTOR ( 'NONE', #24, 39.37007874015748854 ) ;
#141 = UNCERTAINTY_MEASURE_WITH_UNIT (LENGTH_MEASURE( 1.000000000000000082E-05 ), #156, 'distance_accuracy_value', 'NONE');
#142 = UNCERTAINTY_MEASURE_WITH_UNIT (LENGTH_MEASURE( 1.000000000000000082E-05 ), #7, 'distance_accuracy_value', 'NONE');
#143 = COLOUR_RGB ( '',1.000000000000000000, 0.000000000000000000, 0.000000000000000000 ) ;
#144 = FILL_AREA_STYLE ('',( #204 ) ) ;
#145 = ORIENTED_EDGE ( 'NONE', *, *, #182, .F. ) ;
#146 = EDGE_CURVE ( 'NONE', #237, #231, #183, .T. ) ;
#147 = SURFACE_SIDE_STYLE ('',( #67 ) ) ;
#148 =( GEOMETRIC_REPRESENTATION_CONTEXT ( 3 ) GLOBAL_UNCERTAINTY_ASSIGNED_CONTEXT ( ( #141 ) ) GLOBAL_UNIT_ASSIGNED_CONTEXT ( ( #156, #2, #22 ) ) REPRESENTATION_CONTEXT ( 'NONE', 'WORKASPACE' ) );
#149 = SURFACE_STYLE_USAGE ( .BOTH. , #147 ) ;
#150 = DIMENSIONAL_EXPONENTS ( 1.000000000000000000, 0.000000000000000000, 0.000000000000000000, 0.000000000000000000, 0.000000000000000000, 0.000000000000000000, 0.000000000000000000 ) ;
#151 = FACE_OUTER_BOUND ( 'NONE', #104, .T. ) ;
#152 = ADVANCED_FACE ( 'NONE', ( #239 ), #88, .T. ) ;
#153 = COLOUR_RGB ( '',1.000000000000000000, 0.000000000000000000, 0.000000000000000000 ) ;
#154 = VECTOR ( 'NONE', #250, 39.37007874015748143 ) ;
#155 = PRESENTATION_STYLE_ASSIGNMENT (( #4 ) ) ;
#156 =( CONVERSION_BASED_UNIT ( 'INCH', #99 ) LENGTH_UNIT ( ) NAMED_UNIT ( #109 ) );
#157 =( GEOMETRIC_REPRESENTATION_CONTEXT ( 3 ) GLOBAL_UNCERTAINTY_ASSIGNED_CONTEXT ( ( #118 ) ) GLOBAL_UNIT_ASSIGNED_CONTEXT ( ( #127, #132, #30 ) ) REPRESENTATION_CONTEXT ( 'NONE', 'WORKASPACE' ) );
#158 = DIRECTION ( 'NONE',  ( -1.000000000000000000, -1.821231995776178437E-16, 0.000000000000000000 ) ) ;
#159 = CARTESIAN_POINT ( 'NONE',  ( -0.1874999999999999445, 2.500000000000000000, 0.000000000000000000 ) ) ;
#160 = CARTESIAN_POINT ( 'NONE',  ( -6.123233995736764803E-17, 2.500000000000000000, 0.000000000000000000 ) ) ;
#161 = AXIS2_PLACEMENT_3D ( 'NONE', #214, #53, #175 ) ;
#162 = UNCERTAINTY_MEASURE_WITH_UNIT (LENGTH_MEASURE( 1.000000000000000082E-05 ), #21, 'distance_accuracy_value', 'NONE');
#163 = CARTESIAN_POINT ( 'NONE',  ( -6.123233995736766036E-17, 2.500000000000000000, 0.000000000000000000 ) ) ;
#164 = VERTEX_POINT ( 'NONE', #14 ) ;
#165 = DIRECTION ( 'NONE',  ( -1.451753476719974375E-16, 1.000000000000000000, -0.000000000000000000 ) ) ;
#166 = ORIENTED_EDGE ( 'NONE', *, *, #146, .F. ) ;
#167 = STYLED_ITEM ( 'NONE', ( #176 ), #201 ) ;
#168 = ADVANCED_FACE ( 'NONE', ( #90 ), #52, .T. ) ;
#169 = DIRECTION ( 'NONE',  ( -1.451753476719974375E-16, 1.000000000000000000, -0.000000000000000000 ) ) ;
#170 = DIRECTION ( 'NONE',  ( -1.454037125404963195E-17, -1.000000000000000000, -0.000000000000000000 ) ) ;
#171 = ORIENTED_EDGE ( 'NONE', *, *, #46, .F. ) ;
#172 = CARTESIAN_POINT ( 'NONE',  ( 5.724555611830564233E-16, 39.37007874015748143, 0.000000000000000000 ) ) ;
#173 = FILL_AREA_STYLE ('',( #111 ) ) ;
#174 = DIMENSIONAL_EXPONENTS ( 1.000000000000000000, 0.000000000000000000, 0.000000000000000000, 0.000000000000000000, 0.000000000000000000, 0.000000000000000000, 0.000000000000000000 ) ;
#175 = DIRECTION ( 'NONE',  ( -1.000000000000000000, 0.000000000000000000, 0.000000000000000000 ) ) ;
#176 = PRESENTATION_STYLE_ASSIGNMENT (( #98 ) ) ;
#177 =( NAMED_UNIT ( * ) PLANE_ANGLE_UNIT ( ) SI_UNIT ( $, .RADIAN. ) );
#178 = MANIFOLD_SOLID_BREP ( 'Revolve - Cutting Edge', #207 ) ;
#179 = MECHANICAL_DESIGN_GEOMETRIC_PRESENTATION_REPRESENTATION (  '', ( #197 ), #133 ) ;
#180 = PRODUCT_DEFINITION_CONTEXT ( 'detailed design', #78, 'design' ) ;
#181 = STYLED_ITEM ( 'NONE', ( #31 ), #152 ) ;
#182 = EDGE_CURVE ( 'NONE', #164, #257, #235, .T. ) ;
#183 = CIRCLE ( 'NONE', #77, 0.1875000000000000278 ) ;
#184 = MECHANICAL_DESIGN_GEOMETRIC_PRESENTATION_REPRESENTATION (  '', ( #62 ), #44 ) ;
#185 = DIRECTION ( 'NONE',  ( -1.451753476719974375E-16, 1.000000000000000000, -0.000000000000000000 ) ) ;
#186 = PRODUCT_CONTEXT ( 'NONE', #63, 'mechanical' ) ;
#187 = PRODUCT_DEFINITION ( 'UNKNOWN', '', #82, #180 ) ;
#188 = CARTESIAN_POINT ( 'NONE',  ( 0.000000000000000000, 0.000000000000000000, 0.000000000000000000 ) ) ;
#189 = AXIS2_PLACEMENT_3D ( 'NONE', #71, #245, #137 ) ;
#190 = DIRECTION ( 'NONE',  ( -1.451753476719974375E-16, 1.000000000000000000, 0.000000000000000000 ) ) ;
#191 = EDGE_LOOP ( 'NONE', ( #128, #209, #253 ) ) ;
#192 = FILL_AREA_STYLE ('',( #260 ) ) ;
#193 = SURFACE_STYLE_FILL_AREA ( #173 ) ;
#194 = AXIS2_PLACEMENT_3D ( 'NONE', #69, #169, #259 ) ;
#195 = CARTESIAN_POINT ( 'NONE',  ( 5.724555611830564233E-16, 39.37007874015748143, 0.000000000000000000 ) ) ;
#196 = CIRCLE ( 'NONE', #224, 0.1875000000000000278 ) ;
#197 = STYLED_ITEM ( 'NONE', ( #155 ), #3 ) ;
#198 = CIRCLE ( 'NONE', #261, 0.1875000000000000555 ) ;
#199 = CARTESIAN_POINT ( 'NONE',  ( -0.1875000000000000278, 0.1082531754730542695, 0.000000000000000000 ) ) ;
#200 =( LENGTH_UNIT ( ) NAMED_UNIT ( * ) SI_UNIT ( $, .METRE. ) );
#201 = ADVANCED_FACE ( 'NONE', ( #151 ), #220, .T. ) ;
#202 = LENGTH_MEASURE_WITH_UNIT ( LENGTH_MEASURE( 0.02539999999999999897 ), #6 );
#203 = AXIS2_PLACEMENT_3D ( 'NONE', #136, #221, #37 ) ;
#204 = FILL_AREA_STYLE_COLOUR ( '', #47 ) ;
#205 = EDGE_CURVE ( 'NONE', #110, #164, #244, .T. ) ;
#206 = ORIENTED_EDGE ( 'NONE', *, *, #8, .T. ) ;
#207 = CLOSED_SHELL ( 'NONE', ( #3, #201, #152 ) ) ;
#208 = COLOUR_RGB ( '',1.000000000000000000, 0.000000000000000000, 0.000000000000000000 ) ;
#209 = ORIENTED_EDGE ( 'NONE', *, *, #242, .T. ) ;
#210 = EDGE_LOOP ( 'NONE', ( #171, #206, #66, #48 ) ) ;
#211 =( LENGTH_UNIT ( ) NAMED_UNIT ( * ) SI_UNIT ( $, .METRE. ) );
#212 = ORIENTED_EDGE ( 'NONE', *, *, #205, .F. ) ;
#213 = EDGE_CURVE ( 'NONE', #257, #164, #198, .T. ) ;
#214 = CARTESIAN_POINT ( 'NONE',  ( -6.123233995736766036E-17, 2.500000000000000000, 0.000000000000000000 ) ) ;
#215 = ORIENTED_EDGE ( 'NONE', *, *, #46, .T. ) ;
#216 = FACE_OUTER_BOUND ( 'NONE', #12, .T. ) ;
#217 = DIMENSIONAL_EXPONENTS ( 1.000000000000000000, 0.000000000000000000, 0.000000000000000000, 0.000000000000000000, 0.000000000000000000, 0.000000000000000000, 0.000000000000000000 ) ;
#218 = ORIENTED_EDGE ( 'NONE', *, *, #230, .F. ) ;
#219 = DIMENSIONAL_EXPONENTS ( 1.000000000000000000, 0.000000000000000000, 0.000000000000000000, 0.000000000000000000, 0.000000000000000000, 0.000000000000000000, 0.000000000000000000 ) ;
#220 = PLANE ( 'NONE',  #189 ) ;
#221 = DIRECTION ( 'NONE',  ( 1.451753476719974375E-16, -1.000000000000000000, 0.000000000000000000 ) ) ;
#222 = DIRECTION ( 'NONE',  ( -0.8660254037844397068, 0.4999999999999979461, 0.000000000000000000 ) ) ;
#223 = LINE ( 'NONE', #40, #140 ) ;
#224 = AXIS2_PLACEMENT_3D ( 'NONE', #131, #23, #60 ) ;
#225 = FACE_OUTER_BOUND ( 'NONE', #238, .T. ) ;
#226 = SURFACE_SIDE_STYLE ('',( #76 ) ) ;
#227 = CYLINDRICAL_SURFACE ( 'NONE', #81, 0.1874999999999998890 ) ;
#228 = ORIENTED_EDGE ( 'NONE', *, *, #242, .F. ) ;
#229 = DIRECTION ( 'NONE',  ( -1.451753476719974375E-16, 1.000000000000000000, -0.000000000000000000 ) ) ;
#230 = EDGE_CURVE ( 'NONE', #231, #237, #196, .T. ) ;
#231 = VERTEX_POINT ( 'NONE', #199 ) ;
#232 = LINE ( 'NONE', #83, #87 ) ;
#233 = ORIENTED_EDGE ( 'NONE', *, *, #8, .F. ) ;
#234 = PRESENTATION_LAYER_ASSIGNMENT (  '', '', ( #181 ) ) ;
#235 = CIRCLE ( 'NONE', #116, 0.1875000000000000555 ) ;
#236 = SURFACE_STYLE_FILL_AREA ( #144 ) ;
#237 = VERTEX_POINT ( 'NONE', #135 ) ;
#238 = EDGE_LOOP ( 'NONE', ( #119, #33 ) ) ;
#239 = FACE_OUTER_BOUND ( 'NONE', #191, .T. ) ;
#240 = STYLED_ITEM ( 'NONE', ( #256 ), #89 ) ;
#241 = LENGTH_MEASURE_WITH_UNIT ( LENGTH_MEASURE( 0.02539999999999999897 ), #74 );
#242 = EDGE_CURVE ( 'NONE', #97, #231, #249, .T. ) ;
#243 =( NAMED_UNIT ( * ) PLANE_ANGLE_UNIT ( ) SI_UNIT ( $, .RADIAN. ) );
#244 = LINE ( 'NONE', #159, #154 ) ;
#245 = DIRECTION ( 'NONE',  ( 1.454037125404963195E-17, 1.000000000000000000, 0.000000000000000000 ) ) ;
#246 = MECHANICAL_DESIGN_GEOMETRIC_PRESENTATION_REPRESENTATION (  '', ( #240 ), #157 ) ;
#247 = DIRECTION ( 'NONE',  ( 1.454037125404963195E-17, 1.000000000000000000, 0.000000000000000000 ) ) ;
#248 = PLANE ( 'NONE',  #203 ) ;
#249 = LINE ( 'NONE', #56, #105 ) ;
#250 = DIRECTION ( 'NONE',  ( -1.451753476719974375E-16, 1.000000000000000000, -0.000000000000000000 ) ) ;
#251 = SURFACE_STYLE_USAGE ( .BOTH. , #113 ) ;
#252 = UNCERTAINTY_MEASURE_WITH_UNIT (LENGTH_MEASURE( 1.000000000000000082E-05 ), #54, 'distance_accuracy_value', 'NONE');
#253 = ORIENTED_EDGE ( 'NONE', *, *, #230, .T. ) ;
#254 = DIRECTION ( 'NONE',  ( -1.000000000000000000, 0.000000000000000000, 0.000000000000000000 ) ) ;
#255 = VERTEX_POINT ( 'NONE', #139 ) ;
#256 = PRESENTATION_STYLE_ASSIGNMENT (( #96 ) ) ;
#257 = VERTEX_POINT ( 'NONE', #59 ) ;
#258 = CARTESIAN_POINT ( 'NONE',  ( 1.574041360807988916E-18, 0.1082531754730542695, 0.000000000000000000 ) ) ;
#259 = DIRECTION ( 'NONE',  ( -1.000000000000000000, -1.821231995776178437E-16, 0.000000000000000000 ) ) ;
#260 = FILL_AREA_STYLE_COLOUR ( '', #153 ) ;
#261 = AXIS2_PLACEMENT_3D ( 'NONE', #160, #229, #5 ) ;
#262 = SURFACE_SIDE_STYLE ('',( #193 ) ) ;
#263 =( CONVERSION_BASED_UNIT ( 'INCH', #32 ) LENGTH_UNIT ( ) NAMED_UNIT ( #72 ) );
#264 =( NAMED_UNIT ( * ) SI_UNIT ( $, .STERADIAN. ) SOLID_ANGLE_UNIT ( ) );
#265 =( GEOMETRIC_REPRESENTATION_CONTEXT ( 3 ) GLOBAL_UNCERTAINTY_ASSIGNED_CONTEXT ( ( #252 ) ) GLOBAL_UNIT_ASSIGNED_CONTEXT ( ( #54, #177, #17 ) ) REPRESENTATION_CONTEXT ( 'NONE', 'WORKASPACE' ) );
ENDSEC;
END-ISO-10303-21;
