ISO-10303-21;
HEADER;
FILE_DESCRIPTION (( 'STEP AP214' ),
    '1' );
FILE_NAME ('Micro_SME-008-2X.STEP',
    '2021-09-02T09:49:12',
    ( '' ),
    ( '' ),
    'SwSTEP 2.0',
    'SolidWorks 2020',
    '' );
FILE_SCHEMA (( 'AUTOMOTIVE_DESIGN' ));
ENDSEC;

DATA;
#1 = VECTOR ( 'NONE', #113, 39.37007874015748143 ) ;
#2 = EDGE_CURVE ( 'NONE', #123, #58, #178, .T. ) ;
#3 = EDGE_LOOP ( 'NONE', ( #105, #10, #110, #237 ) ) ;
#4 = PLANE ( 'NONE',  #61 ) ;
#5 = PRODUCT_CONTEXT ( 'NONE', #296, 'mechanical' ) ;
#6 = CIRCLE ( 'NONE', #238, 0.003996000000000000420 ) ;
#7 = EDGE_LOOP ( 'NONE', ( #164, #223, #191, #39 ) ) ;
#8 = AXIS2_PLACEMENT_3D ( 'NONE', #21, #97, #203 ) ;
#9 = CARTESIAN_POINT ( 'NONE',  ( 4.210245948145342992E-17, 0.0000000000000000000, 0.3437926715749127227 ) ) ;
#10 = ORIENTED_EDGE ( 'NONE', *, *, #224, .T. ) ;
#11 = EDGE_CURVE ( 'NONE', #196, #233, #151, .T. ) ;
#12 = DIRECTION ( 'NONE',  ( -1.000000000000000000, 0.0000000000000000000, 0.0000000000000000000 ) ) ;
#13 = EDGE_LOOP ( 'NONE', ( #235, #211, #63, #146 ) ) ;
#14 = EDGE_CURVE ( 'NONE', #58, #233, #114, .T. ) ;
#15 = SURFACE_STYLE_FILL_AREA ( #199 ) ;
#16 =( CONVERSION_BASED_UNIT ( 'INCH', #222 ) LENGTH_UNIT ( ) NAMED_UNIT ( #147 ) );
#17 = FACE_OUTER_BOUND ( 'NONE', #108, .T. ) ;
#18 = CARTESIAN_POINT ( 'NONE',  ( 0.06250000000000002776, 7.654042494670959086E-18, 1.500000000000000222 ) ) ;
#19 = PRODUCT_DEFINITION_CONTEXT ( 'detailed design', #66, 'design' ) ;
#20 = DIRECTION ( 'NONE',  ( 0.0000000000000000000, 0.0000000000000000000, -1.000000000000000000 ) ) ;
#21 = CARTESIAN_POINT ( 'NONE',  ( 1.469576158976824446E-18, 0.0000000000000000000, 0.01200000000000000025 ) ) ;
#22 = SURFACE_STYLE_USAGE ( .BOTH. , #183 ) ;
#23 = PRESENTATION_LAYER_ASSIGNMENT (  '', '', ( #204 ) ) ;
#24 = DIMENSIONAL_EXPONENTS ( 1.000000000000000000, 0.0000000000000000000, 0.0000000000000000000, 0.0000000000000000000, 0.0000000000000000000, 0.0000000000000000000, 0.0000000000000000000 ) ;
#25 = CARTESIAN_POINT ( 'NONE',  ( 0.003996000000000002154, 0.0000000000000000000, 0.01200000000000000025 ) ) ;
#26 = PRODUCT_RELATED_PRODUCT_CATEGORY ( 'part', '', ( #75 ) ) ;
#27 = DIRECTION ( 'NONE',  ( 0.0000000000000000000, 0.0000000000000000000, -1.000000000000000000 ) ) ;
#28 = AXIS2_PLACEMENT_3D ( 'NONE', #124, #219, #69 ) ;
#29 = PRODUCT_DEFINITION_SHAPE ( 'NONE', 'NONE',  #253 ) ;
#30 = CARTESIAN_POINT ( 'NONE',  ( 0.0000000000000000000, 0.0000000000000000000, 1.500000000000000222 ) ) ;
#31 = ORIENTED_EDGE ( 'NONE', *, *, #50, .F. ) ;
#32 = DIRECTION ( 'NONE',  ( 0.0000000000000000000, 0.0000000000000000000, 1.000000000000000000 ) ) ;
#33 = VERTEX_POINT ( 'NONE', #96 ) ;
#34 = CARTESIAN_POINT ( 'NONE',  ( 0.003995999999999996950, 4.893688609392821262E-19, 0.0000000000000000000 ) ) ;
#35 = SHAPE_DEFINITION_REPRESENTATION ( #29, #277 ) ;
#36 = ORIENTED_EDGE ( 'NONE', *, *, #294, .F. ) ;
#37 = AXIS2_PLACEMENT_3D ( 'NONE', #83, #198, #289 ) ;
#38 = CYLINDRICAL_SURFACE ( 'NONE', #28, 0.003995999999999998685 ) ;
#39 = ORIENTED_EDGE ( 'NONE', *, *, #14, .F. ) ;
#40 = EDGE_CURVE ( 'NONE', #60, #169, #226, .T. ) ;
#41 = EDGE_LOOP ( 'NONE', ( #36, #149, #266, #220 ) ) ;
#42 =( GEOMETRIC_REPRESENTATION_CONTEXT ( 3 ) GLOBAL_UNCERTAINTY_ASSIGNED_CONTEXT ( ( #80 ) ) GLOBAL_UNIT_ASSIGNED_CONTEXT ( ( #16, #156, #227 ) ) REPRESENTATION_CONTEXT ( 'NONE', 'WORKASPACE' ) );
#43 = CARTESIAN_POINT ( 'NONE',  ( 0.0000000000000000000, 0.0000000000000000000, 1.485000000000000764 ) ) ;
#44 = FILL_AREA_STYLE_COLOUR ( '', #200 ) ;
#45 =( NAMED_UNIT ( * ) SI_UNIT ( $, .STERADIAN. ) SOLID_ANGLE_UNIT ( ) );
#46 = DIRECTION ( 'NONE',  ( -1.000000000000000000, 0.0000000000000000000, 0.0000000000000000000 ) ) ;
#47 = EDGE_CURVE ( 'NONE', #196, #86, #6, .T. ) ;
#48 = CARTESIAN_POINT ( 'NONE',  ( 0.06250000000000002776, 7.654042494670959086E-18, 1.485000000000000764 ) ) ;
#49 = FILL_AREA_STYLE_COLOUR ( '', #254 ) ;
#50 = EDGE_CURVE ( 'NONE', #33, #123, #85, .T. ) ;
#51 = VECTOR ( 'NONE', #290, 39.37007874015747433 ) ;
#52 = AXIS2_PLACEMENT_3D ( 'NONE', #30, #79, #282 ) ;
#53 = DIMENSIONAL_EXPONENTS ( 1.000000000000000000, 0.0000000000000000000, 0.0000000000000000000, 0.0000000000000000000, 0.0000000000000000000, 0.0000000000000000000, 0.0000000000000000000 ) ;
#54 = ADVANCED_FACE ( 'NONE', ( #98 ), #251, .T. ) ;
#55 = UNCERTAINTY_MEASURE_WITH_UNIT (LENGTH_MEASURE( 1.000000000000000082E-05 ), #205, 'distance_accuracy_value', 'NONE');
#56 = DIRECTION ( 'NONE',  ( 1.000000000000000000, 0.0000000000000000000, 0.0000000000000000000 ) ) ;
#57 = CARTESIAN_POINT ( 'NONE',  ( -0.04750000000000064587, 0.0000000000000000000, 1.500000000000000222 ) ) ;
#58 = VERTEX_POINT ( 'NONE', #173 ) ;
#59 = EDGE_CURVE ( 'NONE', #86, #169, #92, .T. ) ;
#60 = VERTEX_POINT ( 'NONE', #48 ) ;
#61 = AXIS2_PLACEMENT_3D ( 'NONE', #207, #140, #102 ) ;
#62 = PLANE ( 'NONE',  #52 ) ;
#63 = ORIENTED_EDGE ( 'NONE', *, *, #14, .T. ) ;
#64 = FACE_OUTER_BOUND ( 'NONE', #13, .T. ) ;
#65 = CARTESIAN_POINT ( 'NONE',  ( -0.003995999999999998685, 4.893688609392824151E-19, 0.01200000000000000025 ) ) ;
#66 = APPLICATION_CONTEXT ( 'automotive_design' ) ;
#67 = ORIENTED_EDGE ( 'NONE', *, *, #59, .T. ) ;
#68 = CONICAL_SURFACE ( 'NONE', #77, 0.04750000000000064587, 0.7853981633974466137 ) ;
#69 = DIRECTION ( 'NONE',  ( -1.000000000000000000, 0.0000000000000000000, 1.224646799147353700E-16 ) ) ;
#70 = DIRECTION ( 'NONE',  ( -1.000000000000000000, 0.0000000000000000000, 0.0000000000000000000 ) ) ;
#71 = MANIFOLD_SOLID_BREP ( 'Cut-Revolve1', #134 ) ;
#72 = CARTESIAN_POINT ( 'NONE',  ( -0.06249999999999997918, 0.0000000000000000000, 0.3437926715749127227 ) ) ;
#73 =( LENGTH_UNIT ( ) NAMED_UNIT ( * ) SI_UNIT ( $, .METRE. ) );
#74 = CIRCLE ( 'NONE', #214, 0.003995999999999996950 ) ;
#75 = PRODUCT ( 'Micro_SME-008-2X', 'Micro_SME-008-2X', '', ( #5 ) ) ;
#76 = CARTESIAN_POINT ( 'NONE',  ( -0.003995999999999998685, 4.071705677805121232E-18, 0.01200000000000000025 ) ) ;
#77 = AXIS2_PLACEMENT_3D ( 'NONE', #89, #130, #225 ) ;
#78 = EDGE_LOOP ( 'NONE', ( #129, #283, #67, #162 ) ) ;
#79 = DIRECTION ( 'NONE',  ( 0.0000000000000000000, 0.0000000000000000000, 1.000000000000000000 ) ) ;
#80 = UNCERTAINTY_MEASURE_WITH_UNIT (LENGTH_MEASURE( 1.000000000000000082E-05 ), #16, 'distance_accuracy_value', 'NONE');
#81 = DIRECTION ( 'NONE',  ( -1.000000000000000000, 0.0000000000000000000, 1.224646799147353700E-16 ) ) ;
#82 = EDGE_LOOP ( 'NONE', ( #244, #106 ) ) ;
#83 = CARTESIAN_POINT ( 'NONE',  ( 1.469576158976824446E-18, 0.0000000000000000000, 0.01200000000000000025 ) ) ;
#84 = ADVANCED_FACE ( 'NONE', ( #131 ), #259, .T. ) ;
#85 = CIRCLE ( 'NONE', #276, 0.04750000000000064587 ) ;
#86 = VERTEX_POINT ( 'NONE', #25 ) ;
#87 =( CONVERSION_BASED_UNIT ( 'INCH', #285 ) LENGTH_UNIT ( ) NAMED_UNIT ( #24 ) );
#88 = ORIENTED_EDGE ( 'NONE', *, *, #47, .T. ) ;
#89 = CARTESIAN_POINT ( 'NONE',  ( 0.0000000000000000000, 0.0000000000000000000, 1.500000000000000222 ) ) ;
#90 = DIRECTION ( 'NONE',  ( 1.000000000000000000, 0.0000000000000000000, 0.0000000000000000000 ) ) ;
#91 = FACE_OUTER_BOUND ( 'NONE', #170, .T. ) ;
#92 = LINE ( 'NONE', #180, #1 ) ;
#93 = CIRCLE ( 'NONE', #119, 0.04750000000000064587 ) ;
#94 = CARTESIAN_POINT ( 'NONE',  ( 0.04750000000000064587, 5.817072295950006528E-18, 1.500000000000000222 ) ) ;
#95 = ADVANCED_FACE ( 'NONE', ( #136 ), #144, .T. ) ;
#96 = CARTESIAN_POINT ( 'NONE',  ( 0.04750000000000064587, 6.735557395310483192E-18, 1.500000000000000222 ) ) ;
#97 = DIRECTION ( 'NONE',  ( 1.224646799147353700E-16, 0.0000000000000000000, 1.000000000000000000 ) ) ;
#98 = FACE_OUTER_BOUND ( 'NONE', #41, .T. ) ;
#99 = AXIS2_PLACEMENT_3D ( 'NONE', #234, #160, #56 ) ;
#100 = LENGTH_MEASURE_WITH_UNIT ( LENGTH_MEASURE( 0.02539999999999999897 ), #73 );
#101 = AXIS2_PLACEMENT_3D ( 'NONE', #121, #27, #239 ) ;
#102 = DIRECTION ( 'NONE',  ( 1.000000000000000000, 0.0000000000000000000, -0.0000000000000000000 ) ) ;
#103 = EDGE_LOOP ( 'NONE', ( #269, #256, #281, #242 ) ) ;
#104 = LINE ( 'NONE', #279, #139 ) ;
#105 = ORIENTED_EDGE ( 'NONE', *, *, #270, .F. ) ;
#106 = ORIENTED_EDGE ( 'NONE', *, *, #50, .T. ) ;
#107 = DIRECTION ( 'NONE',  ( 1.000000000000000000, 0.0000000000000000000, 0.0000000000000000000 ) ) ;
#108 = EDGE_LOOP ( 'NONE', ( #88, #193, #216, #258 ) ) ;
#109 =( GEOMETRIC_REPRESENTATION_CONTEXT ( 3 ) GLOBAL_UNCERTAINTY_ASSIGNED_CONTEXT ( ( #209 ) ) GLOBAL_UNIT_ASSIGNED_CONTEXT ( ( #87, #177, #45 ) ) REPRESENTATION_CONTEXT ( 'NONE', 'WORKASPACE' ) );
#110 = ORIENTED_EDGE ( 'NONE', *, *, #182, .T. ) ;
#111 = DIRECTION ( 'NONE',  ( 0.0000000000000000000, 0.0000000000000000000, 1.000000000000000000 ) ) ;
#112 = PRODUCT_DEFINITION_FORMATION_WITH_SPECIFIED_SOURCE ( 'ANY', '', #75, .NOT_KNOWN. ) ;
#113 = DIRECTION ( 'NONE',  ( 0.1736481776669313859, 0.0000000000000000000, 0.9848077530122077983 ) ) ;
#114 = LINE ( 'NONE', #295, #116 ) ;
#115 = CARTESIAN_POINT ( 'NONE',  ( 0.0000000000000000000, 0.0000000000000000000, 0.0000000000000000000 ) ) ;
#116 = VECTOR ( 'NONE', #292, 39.37007874015748143 ) ;
#117 = VECTOR ( 'NONE', #263, 39.37007874015748143 ) ;
#118 = EDGE_CURVE ( 'NONE', #58, #60, #161, .T. ) ;
#119 = AXIS2_PLACEMENT_3D ( 'NONE', #236, #32, #107 ) ;
#120 = FACE_OUTER_BOUND ( 'NONE', #166, .T. ) ;
#121 = CARTESIAN_POINT ( 'NONE',  ( 0.0000000000000000000, 0.0000000000000000000, 1.485000000000000764 ) ) ;
#122 = ORIENTED_EDGE ( 'NONE', *, *, #294, .T. ) ;
#123 = VERTEX_POINT ( 'NONE', #57 ) ;
#124 = CARTESIAN_POINT ( 'NONE',  ( 0.0000000000000000000, 0.0000000000000000000, 0.0000000000000000000 ) ) ;
#125 = DIRECTION ( 'NONE',  ( -1.224646799147353700E-16, -0.0000000000000000000, -1.000000000000000000 ) ) ;
#126 = CYLINDRICAL_SURFACE ( 'NONE', #175, 0.003995999999999998685 ) ;
#127 = SURFACE_SIDE_STYLE ('',( #15 ) ) ;
#128 =( LENGTH_UNIT ( ) NAMED_UNIT ( * ) SI_UNIT ( $, .METRE. ) );
#129 = ORIENTED_EDGE ( 'NONE', *, *, #11, .F. ) ;
#130 = DIRECTION ( 'NONE',  ( 0.0000000000000000000, 0.0000000000000000000, -1.000000000000000000 ) ) ;
#131 = FACE_OUTER_BOUND ( 'NONE', #103, .T. ) ;
#132 = CIRCLE ( 'NONE', #99, 0.06250000000000002776 ) ;
#133 = ADVANCED_FACE ( 'NONE', ( #141 ), #190, .T. ) ;
#134 = CLOSED_SHELL ( 'NONE', ( #274, #84, #255, #133, #249, #212, #54, #95, #240, #155 ) ) ;
#135 = PRESENTATION_STYLE_ASSIGNMENT (( #22 ) ) ;
#136 = FACE_OUTER_BOUND ( 'NONE', #78, .T. ) ;
#137 = EDGE_CURVE ( 'NONE', #169, #233, #132, .T. ) ;
#138 = EDGE_CURVE ( 'NONE', #123, #33, #93, .T. ) ;
#139 = VECTOR ( 'NONE', #208, 39.37007874015748143 ) ;
#140 = DIRECTION ( 'NONE',  ( 0.0000000000000000000, 0.0000000000000000000, 1.000000000000000000 ) ) ;
#141 = FACE_OUTER_BOUND ( 'NONE', #7, .T. ) ;
#142 = APPLICATION_PROTOCOL_DEFINITION ( 'draft international standard', 'automotive_design', 1998, #66 ) ;
#143 = VERTEX_POINT ( 'NONE', #34 ) ;
#144 = CONICAL_SURFACE ( 'NONE', #230, 0.003996000000000000420, 0.1745329251994338915 ) ;
#145 = PRESENTATION_LAYER_ASSIGNMENT (  '', '', ( #188 ) ) ;
#146 = ORIENTED_EDGE ( 'NONE', *, *, #137, .F. ) ;
#147 = DIMENSIONAL_EXPONENTS ( 1.000000000000000000, 0.0000000000000000000, 0.0000000000000000000, 0.0000000000000000000, 0.0000000000000000000, 0.0000000000000000000, 0.0000000000000000000 ) ;
#148 = DIRECTION ( 'NONE',  ( 0.7071067811865462405, 8.659560562354916834E-17, -0.7071067811865486830 ) ) ;
#149 = ORIENTED_EDGE ( 'NONE', *, *, #138, .F. ) ;
#150 = CARTESIAN_POINT ( 'NONE',  ( -0.003995999999999996950, 0.0000000000000000000, 9.787377218785642524E-19 ) ) ;
#151 = LINE ( 'NONE', #65, #51 ) ;
#152 =( LENGTH_UNIT ( ) NAMED_UNIT ( * ) SI_UNIT ( $, .METRE. ) );
#153 = CARTESIAN_POINT ( 'NONE',  ( 0.0000000000000000000, 0.0000000000000000000, 0.0000000000000000000 ) ) ;
#154 = ORIENTED_EDGE ( 'NONE', *, *, #185, .T. ) ;
#155 = ADVANCED_FACE ( 'NONE', ( #120 ), #4, .F. ) ;
#156 =( NAMED_UNIT ( * ) PLANE_ANGLE_UNIT ( ) SI_UNIT ( $, .RADIAN. ) );
#157 = FILL_AREA_STYLE ('',( #49 ) ) ;
#158 = CIRCLE ( 'NONE', #37, 0.003996000000000000420 ) ;
#159 = APPLICATION_PROTOCOL_DEFINITION ( 'draft international standard', 'automotive_design', 1998, #296 ) ;
#160 = DIRECTION ( 'NONE',  ( -1.224646799147353700E-16, -0.0000000000000000000, -1.000000000000000000 ) ) ;
#161 = CIRCLE ( 'NONE', #101, 0.06250000000000002776 ) ;
#162 = ORIENTED_EDGE ( 'NONE', *, *, #137, .T. ) ;
#163 = DIRECTION ( 'NONE',  ( 1.000000000000000000, 0.0000000000000000000, 0.0000000000000000000 ) ) ;
#164 = ORIENTED_EDGE ( 'NONE', *, *, #118, .T. ) ;
#165 = FACE_OUTER_BOUND ( 'NONE', #82, .T. ) ;
#166 = EDGE_LOOP ( 'NONE', ( #189, #154 ) ) ;
#167 = DIRECTION ( 'NONE',  ( 1.000000000000000000, 0.0000000000000000000, 0.0000000000000000000 ) ) ;
#168 = AXIS2_PLACEMENT_3D ( 'NONE', #186, #278, #81 ) ;
#169 = VERTEX_POINT ( 'NONE', #215 ) ;
#170 = EDGE_LOOP ( 'NONE', ( #31, #122, #176, #218 ) ) ;
#171 = EDGE_CURVE ( 'NONE', #233, #169, #271, .T. ) ;
#172 = CARTESIAN_POINT ( 'NONE',  ( 0.003995999999999998685, 4.893688609392822225E-19, -4.893688609392824151E-19 ) ) ;
#173 = CARTESIAN_POINT ( 'NONE',  ( -0.06250000000000002776, 0.0000000000000000000, 1.485000000000000764 ) ) ;
#174 = CYLINDRICAL_SURFACE ( 'NONE', #206, 0.06250000000000002776 ) ;
#175 = AXIS2_PLACEMENT_3D ( 'NONE', #153, #245, #241 ) ;
#176 = ORIENTED_EDGE ( 'NONE', *, *, #118, .F. ) ;
#177 =( NAMED_UNIT ( * ) PLANE_ANGLE_UNIT ( ) SI_UNIT ( $, .RADIAN. ) );
#178 = LINE ( 'NONE', #297, #232 ) ;
#179 = LINE ( 'NONE', #172, #117 ) ;
#180 = CARTESIAN_POINT ( 'NONE',  ( 0.003996000000000002154, 0.0000000000000000000, 0.01200000000000000025 ) ) ;
#181 = CARTESIAN_POINT ( 'NONE',  ( 0.0000000000000000000, 0.0000000000000000000, 1.500000000000000222 ) ) ;
#182 = EDGE_CURVE ( 'NONE', #196, #286, #104, .T. ) ;
#183 = SURFACE_SIDE_STYLE ('',( #250 ) ) ;
#184 = AXIS2_PLACEMENT_3D ( 'NONE', #43, #20, #293 ) ;
#185 = EDGE_CURVE ( 'NONE', #143, #286, #74, .T. ) ;
#186 = CARTESIAN_POINT ( 'NONE',  ( 5.993040091516783558E-35, 0.0000000000000000000, 4.893688609392821262E-19 ) ) ;
#187 = DIRECTION ( 'NONE',  ( -1.000000000000000000, 0.0000000000000000000, 1.224646799147353700E-16 ) ) ;
#188 = STYLED_ITEM ( 'NONE', ( #201 ), #71 ) ;
#189 = ORIENTED_EDGE ( 'NONE', *, *, #195, .T. ) ;
#190 = CYLINDRICAL_SURFACE ( 'NONE', #243, 0.06250000000000002776 ) ;
#191 = ORIENTED_EDGE ( 'NONE', *, *, #171, .F. ) ;
#192 = DIRECTION ( 'NONE',  ( -1.224646799147353700E-16, -0.0000000000000000000, -1.000000000000000000 ) ) ;
#193 = ORIENTED_EDGE ( 'NONE', *, *, #270, .T. ) ;
#194 = VECTOR ( 'NONE', #148, 39.37007874015748854 ) ;
#195 = EDGE_CURVE ( 'NONE', #286, #143, #291, .T. ) ;
#196 = VERTEX_POINT ( 'NONE', #76 ) ;
#197 = CARTESIAN_POINT ( 'NONE',  ( 0.0000000000000000000, 0.0000000000000000000, 1.500000000000000222 ) ) ;
#198 = DIRECTION ( 'NONE',  ( -1.224646799147353700E-16, -0.0000000000000000000, -1.000000000000000000 ) ) ;
#199 = FILL_AREA_STYLE ('',( #44 ) ) ;
#200 = COLOUR_RGB ( '',0.7921568627450980005, 0.8196078431372548767, 0.9333333333333333481 ) ;
#201 = PRESENTATION_STYLE_ASSIGNMENT (( #262 ) ) ;
#202 = DIRECTION ( 'NONE',  ( 0.0000000000000000000, 0.0000000000000000000, -1.000000000000000000 ) ) ;
#203 = DIRECTION ( 'NONE',  ( 1.000000000000000000, 0.0000000000000000000, 0.0000000000000000000 ) ) ;
#204 = STYLED_ITEM ( 'NONE', ( #135 ), #277 ) ;
#205 =( CONVERSION_BASED_UNIT ( 'INCH', #100 ) LENGTH_UNIT ( ) NAMED_UNIT ( #53 ) );
#206 = AXIS2_PLACEMENT_3D ( 'NONE', #261, #267, #46 ) ;
#207 = CARTESIAN_POINT ( 'NONE',  ( 0.0000000000000000000, 0.0000000000000000000, 0.0000000000000000000 ) ) ;
#208 = DIRECTION ( 'NONE',  ( -1.224646799147353700E-16, -0.0000000000000000000, -1.000000000000000000 ) ) ;
#209 = UNCERTAINTY_MEASURE_WITH_UNIT (LENGTH_MEASURE( 1.000000000000000082E-05 ), #87, 'distance_accuracy_value', 'NONE');
#210 = CARTESIAN_POINT ( 'NONE',  ( 0.0000000000000000000, 0.0000000000000000000, 1.500000000000000222 ) ) ;
#211 = ORIENTED_EDGE ( 'NONE', *, *, #264, .T. ) ;
#212 = ADVANCED_FACE ( 'NONE', ( #165 ), #62, .T. ) ;
#213 = VECTOR ( 'NONE', #248, 39.37007874015748143 ) ;
#214 = AXIS2_PLACEMENT_3D ( 'NONE', #231, #192, #187 ) ;
#215 = CARTESIAN_POINT ( 'NONE',  ( 0.06250000000000006939, 7.654042494670963708E-18, 0.3437926715749127227 ) ) ;
#216 = ORIENTED_EDGE ( 'NONE', *, *, #195, .F. ) ;
#217 = DIRECTION ( 'NONE',  ( -0.0000000000000000000, -0.0000000000000000000, -1.000000000000000000 ) ) ;
#218 = ORIENTED_EDGE ( 'NONE', *, *, #2, .F. ) ;
#219 = DIRECTION ( 'NONE',  ( -1.224646799147353700E-16, -0.0000000000000000000, -1.000000000000000000 ) ) ;
#220 = ORIENTED_EDGE ( 'NONE', *, *, #264, .F. ) ;
#221 = CARTESIAN_POINT ( 'NONE',  ( 1.469576158976824446E-18, 0.0000000000000000000, 0.01200000000000000025 ) ) ;
#222 = LENGTH_MEASURE_WITH_UNIT ( LENGTH_MEASURE( 0.02539999999999999897 ), #152 );
#223 = ORIENTED_EDGE ( 'NONE', *, *, #40, .T. ) ;
#224 = EDGE_CURVE ( 'NONE', #86, #196, #158, .T. ) ;
#225 = DIRECTION ( 'NONE',  ( -1.000000000000000000, 0.0000000000000000000, 0.0000000000000000000 ) ) ;
#226 = LINE ( 'NONE', #18, #213 ) ;
#227 =( NAMED_UNIT ( * ) SI_UNIT ( $, .STERADIAN. ) SOLID_ANGLE_UNIT ( ) );
#228 = MECHANICAL_DESIGN_GEOMETRIC_PRESENTATION_REPRESENTATION (  '', ( #204 ), #272 ) ;
#229 = AXIS2_PLACEMENT_3D ( 'NONE', #115, #298, #287 ) ;
#230 = AXIS2_PLACEMENT_3D ( 'NONE', #299, #257, #167 ) ;
#231 = CARTESIAN_POINT ( 'NONE',  ( 5.993040091516783558E-35, 0.0000000000000000000, 4.893688609392821262E-19 ) ) ;
#232 = VECTOR ( 'NONE', #246, 39.37007874015748854 ) ;
#233 = VERTEX_POINT ( 'NONE', #72 ) ;
#234 = CARTESIAN_POINT ( 'NONE',  ( 4.210245948145342992E-17, 0.0000000000000000000, 0.3437926715749127227 ) ) ;
#235 = ORIENTED_EDGE ( 'NONE', *, *, #40, .F. ) ;
#236 = CARTESIAN_POINT ( 'NONE',  ( 0.0000000000000000000, 0.0000000000000000000, 1.500000000000000222 ) ) ;
#237 = ORIENTED_EDGE ( 'NONE', *, *, #185, .F. ) ;
#238 = AXIS2_PLACEMENT_3D ( 'NONE', #221, #125, #288 ) ;
#239 = DIRECTION ( 'NONE',  ( 1.000000000000000000, 0.0000000000000000000, 0.0000000000000000000 ) ) ;
#240 = ADVANCED_FACE ( 'NONE', ( #260 ), #126, .T. ) ;
#241 = DIRECTION ( 'NONE',  ( -1.000000000000000000, 0.0000000000000000000, 1.224646799147353700E-16 ) ) ;
#242 = ORIENTED_EDGE ( 'NONE', *, *, #59, .F. ) ;
#243 = AXIS2_PLACEMENT_3D ( 'NONE', #210, #217, #12 ) ;
#244 = ORIENTED_EDGE ( 'NONE', *, *, #138, .T. ) ;
#245 = DIRECTION ( 'NONE',  ( -1.224646799147353700E-16, -0.0000000000000000000, -1.000000000000000000 ) ) ;
#246 = DIRECTION ( 'NONE',  ( -0.7071067811865462405, 0.0000000000000000000, -0.7071067811865486830 ) ) ;
#247 = MECHANICAL_DESIGN_GEOMETRIC_PRESENTATION_REPRESENTATION (  '', ( #188 ), #42 ) ;
#248 = DIRECTION ( 'NONE',  ( -0.0000000000000000000, -0.0000000000000000000, -1.000000000000000000 ) ) ;
#249 = ADVANCED_FACE ( 'NONE', ( #64 ), #174, .T. ) ;
#250 = SURFACE_STYLE_FILL_AREA ( #157 ) ;
#251 = CONICAL_SURFACE ( 'NONE', #265, 0.04750000000000064587, 0.7853981633974466137 ) ;
#252 =( NAMED_UNIT ( * ) SI_UNIT ( $, .STERADIAN. ) SOLID_ANGLE_UNIT ( ) );
#253 = PRODUCT_DEFINITION ( 'UNKNOWN', '', #112, #19 ) ;
#254 = COLOUR_RGB ( '',0.7921568627450980005, 0.8196078431372548767, 0.9333333333333333481 ) ;
#255 = ADVANCED_FACE ( 'NONE', ( #91 ), #68, .T. ) ;
#256 = ORIENTED_EDGE ( 'NONE', *, *, #11, .T. ) ;
#257 = DIRECTION ( 'NONE',  ( 1.224646799147353700E-16, 0.0000000000000000000, 1.000000000000000000 ) ) ;
#258 = ORIENTED_EDGE ( 'NONE', *, *, #182, .F. ) ;
#259 = CONICAL_SURFACE ( 'NONE', #8, 0.003996000000000000420, 0.1745329251994338915 ) ;
#260 = FACE_OUTER_BOUND ( 'NONE', #3, .T. ) ;
#261 = CARTESIAN_POINT ( 'NONE',  ( 0.0000000000000000000, 0.0000000000000000000, 1.500000000000000222 ) ) ;
#262 = SURFACE_STYLE_USAGE ( .BOTH. , #127 ) ;
#263 = DIRECTION ( 'NONE',  ( -1.224646799147353700E-16, -0.0000000000000000000, -1.000000000000000000 ) ) ;
#264 = EDGE_CURVE ( 'NONE', #60, #58, #284, .T. ) ;
#265 = AXIS2_PLACEMENT_3D ( 'NONE', #181, #202, #70 ) ;
#266 = ORIENTED_EDGE ( 'NONE', *, *, #2, .T. ) ;
#267 = DIRECTION ( 'NONE',  ( -0.0000000000000000000, -0.0000000000000000000, -1.000000000000000000 ) ) ;
#268 = LINE ( 'NONE', #94, #194 ) ;
#269 = ORIENTED_EDGE ( 'NONE', *, *, #47, .F. ) ;
#270 = EDGE_CURVE ( 'NONE', #86, #143, #179, .T. ) ;
#271 = CIRCLE ( 'NONE', #275, 0.06250000000000002776 ) ;
#272 =( GEOMETRIC_REPRESENTATION_CONTEXT ( 3 ) GLOBAL_UNCERTAINTY_ASSIGNED_CONTEXT ( ( #55 ) ) GLOBAL_UNIT_ASSIGNED_CONTEXT ( ( #205, #273, #252 ) ) REPRESENTATION_CONTEXT ( 'NONE', 'WORKASPACE' ) );
#273 =( NAMED_UNIT ( * ) PLANE_ANGLE_UNIT ( ) SI_UNIT ( $, .RADIAN. ) );
#274 = ADVANCED_FACE ( 'NONE', ( #17 ), #38, .T. ) ;
#275 = AXIS2_PLACEMENT_3D ( 'NONE', #9, #280, #163 ) ;
#276 = AXIS2_PLACEMENT_3D ( 'NONE', #197, #111, #90 ) ;
#277 = ADVANCED_BREP_SHAPE_REPRESENTATION ( 'Micro_SME-008-2X', ( #71, #229 ), #109 ) ;
#278 = DIRECTION ( 'NONE',  ( -1.224646799147353700E-16, -0.0000000000000000000, -1.000000000000000000 ) ) ;
#279 = CARTESIAN_POINT ( 'NONE',  ( -0.003995999999999998685, 0.0000000000000000000, 4.893688609392824151E-19 ) ) ;
#280 = DIRECTION ( 'NONE',  ( -1.224646799147353700E-16, -0.0000000000000000000, -1.000000000000000000 ) ) ;
#281 = ORIENTED_EDGE ( 'NONE', *, *, #171, .T. ) ;
#282 = DIRECTION ( 'NONE',  ( 1.000000000000000000, 0.0000000000000000000, -0.0000000000000000000 ) ) ;
#283 = ORIENTED_EDGE ( 'NONE', *, *, #224, .F. ) ;
#284 = CIRCLE ( 'NONE', #184, 0.06250000000000002776 ) ;
#285 = LENGTH_MEASURE_WITH_UNIT ( LENGTH_MEASURE( 0.02539999999999999897 ), #128 );
#286 = VERTEX_POINT ( 'NONE', #150 ) ;
#287 = DIRECTION ( 'NONE',  ( 1.000000000000000000, 0.0000000000000000000, 0.0000000000000000000 ) ) ;
#288 = DIRECTION ( 'NONE',  ( -1.000000000000000000, 0.0000000000000000000, 0.0000000000000000000 ) ) ;
#289 = DIRECTION ( 'NONE',  ( -1.000000000000000000, 0.0000000000000000000, 0.0000000000000000000 ) ) ;
#290 = DIRECTION ( 'NONE',  ( -0.1736481776669311916, 2.126576849575783316E-17, 0.9848077530122080203 ) ) ;
#291 = CIRCLE ( 'NONE', #168, 0.003995999999999996950 ) ;
#292 = DIRECTION ( 'NONE',  ( -0.0000000000000000000, -0.0000000000000000000, -1.000000000000000000 ) ) ;
#293 = DIRECTION ( 'NONE',  ( 1.000000000000000000, 0.0000000000000000000, 0.0000000000000000000 ) ) ;
#294 = EDGE_CURVE ( 'NONE', #33, #60, #268, .T. ) ;
#295 = CARTESIAN_POINT ( 'NONE',  ( -0.06250000000000002776, 0.0000000000000000000, 1.500000000000000222 ) ) ;
#296 = APPLICATION_CONTEXT ( 'automotive_design' ) ;
#297 = CARTESIAN_POINT ( 'NONE',  ( -0.04750000000000064587, 0.0000000000000000000, 1.500000000000000222 ) ) ;
#298 = DIRECTION ( 'NONE',  ( 0.0000000000000000000, 0.0000000000000000000, 1.000000000000000000 ) ) ;
#299 = CARTESIAN_POINT ( 'NONE',  ( 1.469576158976824446E-18, 0.0000000000000000000, 0.01200000000000000025 ) ) ;
ENDSEC;
END-ISO-10303-21;
