ISO-10303-21;
HEADER;
FILE_DESCRIPTION (( 'STEP AP214' ),
    '1' );
FILE_NAME ('49035.STEP',
    '2023-06-30T21:55:36',
    ( '' ),
    ( '' ),
    'SwSTEP 2.0',
    'SolidWorks 2023',
    '' );
FILE_SCHEMA (( 'AUTOMOTIVE_DESIGN' ));
ENDSEC;

DATA;
#1 = COLOUR_RGB ( '',1.000000000000000000, 0.000000000000000000, 0.000000000000000000 ) ;
#2 = CYLINDRICAL_SURFACE ( 'NONE', #50, 0.06249999999999991673 ) ;
#3 = EDGE_CURVE ( 'NONE', #233, #291, #343, .T. ) ;
#4 = CARTESIAN_POINT ( 'NONE',  ( 0.000000000000000000, 0.000000000000000000, 0.000000000000000000 ) ) ;
#5 = EDGE_CURVE ( 'NONE', #121, #260, #305, .T. ) ;
#6 = CARTESIAN_POINT ( 'NONE',  ( 0.000000000000000000, 0.3750000000000000555, 0.000000000000000000 ) ) ;
#7 = AXIS2_PLACEMENT_3D ( 'NONE', #6, #37, #119 ) ;
#8 = ORIENTED_EDGE ( 'NONE', *, *, #341, .F. ) ;
#9 = ORIENTED_EDGE ( 'NONE', *, *, #249, .F. ) ;
#10 = DIMENSIONAL_EXPONENTS ( 1.000000000000000000, 0.000000000000000000, 0.000000000000000000, 0.000000000000000000, 0.000000000000000000, 0.000000000000000000, 0.000000000000000000 ) ;
#11 = CARTESIAN_POINT ( 'NONE',  ( 0.000000000000000000, 0.3750000000000000555, 0.000000000000000000 ) ) ;
#12 = CIRCLE ( 'NONE', #215, 0.06250000000000001388 ) ;
#13 = AXIS2_PLACEMENT_3D ( 'NONE', #183, #97, #321 ) ;
#14 = EDGE_CURVE ( 'NONE', #246, #176, #314, .T. ) ;
#15 = AXIS2_PLACEMENT_3D ( 'NONE', #44, #151, #195 ) ;
#16 = DIRECTION ( 'NONE',  ( 0.000000000000000000, 0.000000000000000000, 1.000000000000000000 ) ) ;
#17 = AXIS2_PLACEMENT_3D ( 'NONE', #148, #86, #251 ) ;
#18 =( GEOMETRIC_REPRESENTATION_CONTEXT ( 3 ) GLOBAL_UNCERTAINTY_ASSIGNED_CONTEXT ( ( #256 ) ) GLOBAL_UNIT_ASSIGNED_CONTEXT ( ( #41, #357, #363 ) ) REPRESENTATION_CONTEXT ( 'NONE', 'WORKASPACE' ) );
#19 = FILL_AREA_STYLE ('',( #177 ) ) ;
#20 = CARTESIAN_POINT ( 'NONE',  ( -0.06249999999999997224, 2.000000000000000000, 0.000000000000000000 ) ) ;
#21 =( CONVERSION_BASED_UNIT ( 'INCH', #106 ) LENGTH_UNIT ( ) NAMED_UNIT ( #237 ) );
#22 = ORIENTED_EDGE ( 'NONE', *, *, #254, .F. ) ;
#23 = EDGE_LOOP ( 'NONE', ( #43, #188, #352, #181, #322 ) ) ;
#24 = DIRECTION ( 'NONE',  ( 0.000000000000000000, 0.000000000000000000, 1.000000000000000000 ) ) ;
#25 = DIRECTION ( 'NONE',  ( 0.000000000000000000, 0.000000000000000000, -1.000000000000000000 ) ) ;
#26 = DIRECTION ( 'NONE',  ( 0.000000000000000000, 0.000000000000000000, -1.000000000000000000 ) ) ;
#27 = UNCERTAINTY_MEASURE_WITH_UNIT (LENGTH_MEASURE( 1.000000000000000082E-05 ), #245, 'distance_accuracy_value', 'NONE');
#28 = MECHANICAL_DESIGN_GEOMETRIC_PRESENTATION_REPRESENTATION (  '', ( #303 ), #161 ) ;
#29 = LINE ( 'NONE', #20, #132 ) ;
#30 = LENGTH_MEASURE_WITH_UNIT ( LENGTH_MEASURE( 0.02539999999999999897 ), #53 );
#31 = APPLICATION_PROTOCOL_DEFINITION ( 'draft international standard', 'automotive_design', 1998, #173 ) ;
#32 = ORIENTED_EDGE ( 'NONE', *, *, #69, .F. ) ;
#33 = FACE_OUTER_BOUND ( 'NONE', #23, .T. ) ;
#34 = AXIS2_PLACEMENT_3D ( 'NONE', #99, #16, #269 ) ;
#35 = ORIENTED_EDGE ( 'NONE', *, *, #3, .F. ) ;
#36 = LENGTH_MEASURE_WITH_UNIT ( LENGTH_MEASURE( 0.02539999999999999897 ), #138 );
#37 = DIRECTION ( 'NONE',  ( -0.000000000000000000, -1.000000000000000000, -0.000000000000000000 ) ) ;
#38 = ORIENTED_EDGE ( 'NONE', *, *, #5, .T. ) ;
#39 = CARTESIAN_POINT ( 'NONE',  ( 0.000000000000000000, 0.06250000000000001388, -0.06249999999999995143 ) ) ;
#40 = EDGE_LOOP ( 'NONE', ( #186, #332, #273, #350 ) ) ;
#41 =( CONVERSION_BASED_UNIT ( 'INCH', #244 ) LENGTH_UNIT ( ) NAMED_UNIT ( #174 ) );
#42 = SURFACE_STYLE_USAGE ( .BOTH. , #367 ) ;
#43 = ORIENTED_EDGE ( 'NONE', *, *, #3, .T. ) ;
#44 = CARTESIAN_POINT ( 'NONE',  ( 0.000000000000000000, 0.06250000000000001388, 0.000000000000000000 ) ) ;
#45 = COLOUR_RGB ( '',0.7921568627450980005, 0.8196078431372548767, 0.9333333333333333481 ) ;
#46 =( NAMED_UNIT ( * ) SI_UNIT ( $, .STERADIAN. ) SOLID_ANGLE_UNIT ( ) );
#47 =( CONVERSION_BASED_UNIT ( 'INCH', #30 ) LENGTH_UNIT ( ) NAMED_UNIT ( #355 ) );
#48 = UNCERTAINTY_MEASURE_WITH_UNIT (LENGTH_MEASURE( 1.000000000000000082E-05 ), #92, 'distance_accuracy_value', 'NONE');
#49 = CARTESIAN_POINT ( 'NONE',  ( 0.06249999999999995837, 2.000000000000000000, 7.654042494670954463E-18 ) ) ;
#50 = AXIS2_PLACEMENT_3D ( 'NONE', #107, #339, #300 ) ;
#51 = PRODUCT ( '49035', '49035', '', ( #116 ) ) ;
#52 = MANIFOLD_SOLID_BREP ( 'Revolve - Tool Body (Straight Shanked)', #65 ) ;
#53 =( LENGTH_UNIT ( ) NAMED_UNIT ( * ) SI_UNIT ( $, .METRE. ) );
#54 = COLOUR_RGB ( '',1.000000000000000000, 0.000000000000000000, 0.000000000000000000 ) ;
#55 = STYLED_ITEM ( 'NONE', ( #280 ), #277 ) ;
#56 = ADVANCED_FACE ( 'NONE', ( #296 ), #196, .F. ) ;
#57 =( NAMED_UNIT ( * ) SI_UNIT ( $, .STERADIAN. ) SOLID_ANGLE_UNIT ( ) );
#58 = FILL_AREA_STYLE_COLOUR ( '', #147 ) ;
#59 = SURFACE_STYLE_FILL_AREA ( #229 ) ;
#60 =( GEOMETRIC_REPRESENTATION_CONTEXT ( 3 ) GLOBAL_UNCERTAINTY_ASSIGNED_CONTEXT ( ( #327 ) ) GLOBAL_UNIT_ASSIGNED_CONTEXT ( ( #140, #162, #285 ) ) REPRESENTATION_CONTEXT ( 'NONE', 'WORKASPACE' ) );
#61 = CIRCLE ( 'NONE', #7, 0.06249999999999995143 ) ;
#62 = CARTESIAN_POINT ( 'NONE',  ( 7.654042494670951382E-18, 0.3750000000000000555, 0.06249999999999995143 ) ) ;
#63 = ORIENTED_EDGE ( 'NONE', *, *, #134, .T. ) ;
#64 = SURFACE_SIDE_STYLE ('',( #164 ) ) ;
#65 = CLOSED_SHELL ( 'NONE', ( #84, #56, #306, #295 ) ) ;
#66 = PRESENTATION_LAYER_ASSIGNMENT (  '', '', ( #255 ) ) ;
#67 =( CONVERSION_BASED_UNIT ( 'INCH', #96 ) LENGTH_UNIT ( ) NAMED_UNIT ( #91 ) );
#68 = STYLED_ITEM ( 'NONE', ( #146 ), #200 ) ;
#69 = EDGE_CURVE ( 'NONE', #98, #75, #144, .T. ) ;
#70 = CARTESIAN_POINT ( 'NONE',  ( -0.06250000000000006939, 2.000000000000000000, 0.000000000000000000 ) ) ;
#71 = PRODUCT_DEFINITION_SHAPE ( 'NONE', 'NONE',  #193 ) ;
#72 = ORIENTED_EDGE ( 'NONE', *, *, #80, .F. ) ;
#73 = PRESENTATION_STYLE_ASSIGNMENT (( #356 ) ) ;
#74 = SURFACE_SIDE_STYLE ('',( #101 ) ) ;
#75 = VERTEX_POINT ( 'NONE', #274 ) ;
#76 = VECTOR ( 'NONE', #79, 39.37007874015748143 ) ;
#77 = DIRECTION ( 'NONE',  ( 1.000000000000000000, 0.000000000000000000, -1.224646799147353454E-16 ) ) ;
#78 = SURFACE_SIDE_STYLE ('',( #150 ) ) ;
#79 = DIRECTION ( 'NONE',  ( -1.224646799147353207E-16, 1.000000000000000000, -0.000000000000000000 ) ) ;
#80 = EDGE_CURVE ( 'NONE', #260, #239, #29, .T. ) ;
#81 = CIRCLE ( 'NONE', #204, 0.06249999999999995143 ) ;
#82 =( LENGTH_UNIT ( ) NAMED_UNIT ( * ) SI_UNIT ( $, .METRE. ) );
#83 = DIRECTION ( 'NONE',  ( 0.000000000000000000, 0.000000000000000000, -1.000000000000000000 ) ) ;
#84 = ADVANCED_FACE ( 'NONE', ( #362 ), #127, .T. ) ;
#85 = DIRECTION ( 'NONE',  ( -0.000000000000000000, -1.000000000000000000, -0.000000000000000000 ) ) ;
#86 = DIRECTION ( 'NONE',  ( -0.000000000000000000, -1.000000000000000000, -0.000000000000000000 ) ) ;
#87 = CARTESIAN_POINT ( 'NONE',  ( 7.654042494670951382E-18, 0.06250000000000001388, 0.06249999999999995143 ) ) ;
#88 = ORIENTED_EDGE ( 'NONE', *, *, #263, .T. ) ;
#89 = ADVANCED_FACE ( 'NONE', ( #33 ), #231, .T. ) ;
#90 = MECHANICAL_DESIGN_GEOMETRIC_PRESENTATION_REPRESENTATION (  '', ( #373 ), #156 ) ;
#91 = DIMENSIONAL_EXPONENTS ( 1.000000000000000000, 0.000000000000000000, 0.000000000000000000, 0.000000000000000000, 0.000000000000000000, 0.000000000000000000, 0.000000000000000000 ) ;
#92 =( CONVERSION_BASED_UNIT ( 'INCH', #169 ) LENGTH_UNIT ( ) NAMED_UNIT ( #210 ) );
#93 = FILL_AREA_STYLE_COLOUR ( '', #216 ) ;
#94 =( LENGTH_UNIT ( ) NAMED_UNIT ( * ) SI_UNIT ( $, .METRE. ) );
#95 = AXIS2_PLACEMENT_3D ( 'NONE', #252, #369, #129 ) ;
#96 = LENGTH_MEASURE_WITH_UNIT ( LENGTH_MEASURE( 0.02539999999999999897 ), #94 );
#97 = DIRECTION ( 'NONE',  ( -0.000000000000000000, -1.000000000000000000, -0.000000000000000000 ) ) ;
#98 = VERTEX_POINT ( 'NONE', #87 ) ;
#99 = CARTESIAN_POINT ( 'NONE',  ( -7.654042494670957545E-18, 0.06250000000000001388, 0.000000000000000000 ) ) ;
#100 = ORIENTED_EDGE ( 'NONE', *, *, #14, .F. ) ;
#101 = SURFACE_STYLE_FILL_AREA ( #213 ) ;
#102 = UNCERTAINTY_MEASURE_WITH_UNIT (LENGTH_MEASURE( 1.000000000000000082E-05 ), #47, 'distance_accuracy_value', 'NONE');
#103 = EDGE_CURVE ( 'NONE', #233, #268, #203, .T. ) ;
#104 = PRESENTATION_LAYER_ASSIGNMENT (  '', '', ( #68 ) ) ;
#105 = ORIENTED_EDGE ( 'NONE', *, *, #103, .T. ) ;
#106 = LENGTH_MEASURE_WITH_UNIT ( LENGTH_MEASURE( 0.02539999999999999897 ), #324 );
#107 = CARTESIAN_POINT ( 'NONE',  ( -6.123233995736772199E-17, 2.000000000000000000, 0.000000000000000000 ) ) ;
#108 = LINE ( 'NONE', #371, #76 ) ;
#109 = DIRECTION ( 'NONE',  ( 1.224646799147353207E-16, -0.000000000000000000, 1.000000000000000000 ) ) ;
#110 = CIRCLE ( 'NONE', #293, 0.06249999999999997918 ) ;
#111 = UNCERTAINTY_MEASURE_WITH_UNIT (LENGTH_MEASURE( 1.000000000000000082E-05 ), #192, 'distance_accuracy_value', 'NONE');
#112 = ADVANCED_FACE ( 'NONE', ( #201 ), #289, .T. ) ;
#113 = DIRECTION ( 'NONE',  ( -1.224646799147353207E-16, 1.000000000000000000, 0.000000000000000000 ) ) ;
#114 = MECHANICAL_DESIGN_GEOMETRIC_PRESENTATION_REPRESENTATION (  '', ( #255 ), #60 ) ;
#115 = DIRECTION ( 'NONE',  ( -0.000000000000000000, -1.000000000000000000, -0.000000000000000000 ) ) ;
#116 = PRODUCT_CONTEXT ( 'NONE', #219, 'mechanical' ) ;
#117 = VERTEX_POINT ( 'NONE', #49 ) ;
#118 = EDGE_LOOP ( 'NONE', ( #211, #145 ) ) ;
#119 = DIRECTION ( 'NONE',  ( 0.000000000000000000, 0.000000000000000000, -1.000000000000000000 ) ) ;
#120 = DIRECTION ( 'NONE',  ( 0.000000000000000000, 0.000000000000000000, -1.000000000000000000 ) ) ;
#121 = VERTEX_POINT ( 'NONE', #180 ) ;
#122 = PRESENTATION_LAYER_ASSIGNMENT (  '', '', ( #288 ) ) ;
#123 = AXIS2_PLACEMENT_3D ( 'NONE', #266, #234, #206 ) ;
#124 = FILL_AREA_STYLE_COLOUR ( '', #1 ) ;
#125 = FILL_AREA_STYLE ('',( #253 ) ) ;
#126 = ORIENTED_EDGE ( 'NONE', *, *, #301, .T. ) ;
#127 = CYLINDRICAL_SURFACE ( 'NONE', #240, 0.06249999999999991673 ) ;
#128 = ORIENTED_EDGE ( 'NONE', *, *, #5, .F. ) ;
#129 = DIRECTION ( 'NONE',  ( -1.000000000000000000, 0.000000000000000000, 0.000000000000000000 ) ) ;
#130 = EDGE_CURVE ( 'NONE', #260, #121, #270, .T. ) ;
#131 =( NAMED_UNIT ( * ) PLANE_ANGLE_UNIT ( ) SI_UNIT ( $, .RADIAN. ) );
#132 = VECTOR ( 'NONE', #243, 39.37007874015748143 ) ;
#133 = AXIS2_PLACEMENT_3D ( 'NONE', #163, #141, #279 ) ;
#134 = EDGE_CURVE ( 'NONE', #121, #117, #108, .T. ) ;
#135 = SHAPE_DEFINITION_REPRESENTATION ( #71, #207 ) ;
#136 = ORIENTED_EDGE ( 'NONE', *, *, #130, .F. ) ;
#137 = PRESENTATION_LAYER_ASSIGNMENT (  '', '', ( #373 ) ) ;
#138 =( LENGTH_UNIT ( ) NAMED_UNIT ( * ) SI_UNIT ( $, .METRE. ) );
#139 = EDGE_CURVE ( 'NONE', #75, #176, #110, .T. ) ;
#140 =( CONVERSION_BASED_UNIT ( 'INCH', #36 ) LENGTH_UNIT ( ) NAMED_UNIT ( #10 ) );
#141 = DIRECTION ( 'NONE',  ( 0.000000000000000000, 0.000000000000000000, 1.000000000000000000 ) ) ;
#142 = EDGE_LOOP ( 'NONE', ( #158, #310, #100, #126 ) ) ;
#143 = PLANE ( 'NONE',  #307 ) ;
#144 = CIRCLE ( 'NONE', #15, 0.06249999999999995143 ) ;
#145 = ORIENTED_EDGE ( 'NONE', *, *, #249, .T. ) ;
#146 = PRESENTATION_STYLE_ASSIGNMENT (( #42 ) ) ;
#147 = COLOUR_RGB ( '',1.000000000000000000, 0.000000000000000000, 0.000000000000000000 ) ;
#148 = CARTESIAN_POINT ( 'NONE',  ( 0.000000000000000000, 0.3750000000000000555, 0.000000000000000000 ) ) ;
#149 =( GEOMETRIC_REPRESENTATION_CONTEXT ( 3 ) GLOBAL_UNCERTAINTY_ASSIGNED_CONTEXT ( ( #48 ) ) GLOBAL_UNIT_ASSIGNED_CONTEXT ( ( #92, #202, #281 ) ) REPRESENTATION_CONTEXT ( 'NONE', 'WORKASPACE' ) );
#150 = SURFACE_STYLE_FILL_AREA ( #257 ) ;
#151 = DIRECTION ( 'NONE',  ( -0.000000000000000000, -1.000000000000000000, -0.000000000000000000 ) ) ;
#152 = DIRECTION ( 'NONE',  ( -1.224646799147353207E-16, 1.000000000000000000, -0.000000000000000000 ) ) ;
#153 = EDGE_LOOP ( 'NONE', ( #282, #63, #165, #72 ) ) ;
#154 = CARTESIAN_POINT ( 'NONE',  ( 1.377727649040771896E-16, 0.3750000000000000555, 0.000000000000000000 ) ) ;
#155 = CARTESIAN_POINT ( 'NONE',  ( -3.827021247335479543E-18, 3.414809992080329023E-17, 0.000000000000000000 ) ) ;
#156 =( GEOMETRIC_REPRESENTATION_CONTEXT ( 3 ) GLOBAL_UNCERTAINTY_ASSIGNED_CONTEXT ( ( #360 ) ) GLOBAL_UNIT_ASSIGNED_CONTEXT ( ( #67, #320, #236 ) ) REPRESENTATION_CONTEXT ( 'NONE', 'WORKASPACE' ) );
#157 = CIRCLE ( 'NONE', #271, 0.06249999999999995143 ) ;
#158 = ORIENTED_EDGE ( 'NONE', *, *, #69, .T. ) ;
#159 = FILL_AREA_STYLE_COLOUR ( '', #45 ) ;
#160 = MANIFOLD_SOLID_BREP ( 'Revolve - Cutting Edge', #227 ) ;
#161 =( GEOMETRIC_REPRESENTATION_CONTEXT ( 3 ) GLOBAL_UNCERTAINTY_ASSIGNED_CONTEXT ( ( #27 ) ) GLOBAL_UNIT_ASSIGNED_CONTEXT ( ( #245, #131, #46 ) ) REPRESENTATION_CONTEXT ( 'NONE', 'WORKASPACE' ) );
#162 =( NAMED_UNIT ( * ) PLANE_ANGLE_UNIT ( ) SI_UNIT ( $, .RADIAN. ) );
#163 = CARTESIAN_POINT ( 'NONE',  ( 0.000000000000000000, 0.000000000000000000, 0.000000000000000000 ) ) ;
#164 = SURFACE_STYLE_FILL_AREA ( #259 ) ;
#165 = ORIENTED_EDGE ( 'NONE', *, *, #172, .F. ) ;
#166 = COLOUR_RGB ( '',1.000000000000000000, 0.000000000000000000, 0.000000000000000000 ) ;
#167 = STYLED_ITEM ( 'NONE', ( #179 ), #209 ) ;
#168 = DIRECTION ( 'NONE',  ( 0.000000000000000000, 0.000000000000000000, -1.000000000000000000 ) ) ;
#169 = LENGTH_MEASURE_WITH_UNIT ( LENGTH_MEASURE( 0.02539999999999999897 ), #309 );
#170 = FACE_OUTER_BOUND ( 'NONE', #118, .T. ) ;
#171 = DIMENSIONAL_EXPONENTS ( 1.000000000000000000, 0.000000000000000000, 0.000000000000000000, 0.000000000000000000, 0.000000000000000000, 0.000000000000000000, 0.000000000000000000 ) ;
#172 = EDGE_CURVE ( 'NONE', #239, #117, #12, .T. ) ;
#173 = APPLICATION_CONTEXT ( 'automotive_design' ) ;
#174 = DIMENSIONAL_EXPONENTS ( 1.000000000000000000, 0.000000000000000000, 0.000000000000000000, 0.000000000000000000, 0.000000000000000000, 0.000000000000000000, 0.000000000000000000 ) ;
#175 = CYLINDRICAL_SURFACE ( 'NONE', #13, 0.06249999999999995143 ) ;
#176 = VERTEX_POINT ( 'NONE', #155 ) ;
#177 = FILL_AREA_STYLE_COLOUR ( '', #351 ) ;
#178 = EDGE_LOOP ( 'NONE', ( #8, #88, #105, #22, #32 ) ) ;
#179 = PRESENTATION_STYLE_ASSIGNMENT (( #359 ) ) ;
#180 = CARTESIAN_POINT ( 'NONE',  ( 0.06249999999999995837, 0.3749999999999999445, 7.654042494670954463E-18 ) ) ;
#181 = ORIENTED_EDGE ( 'NONE', *, *, #346, .F. ) ;
#182 = VECTOR ( 'NONE', #304, 39.37007874015748143 ) ;
#183 = CARTESIAN_POINT ( 'NONE',  ( 0.000000000000000000, 0.000000000000000000, 0.000000000000000000 ) ) ;
#184 = UNCERTAINTY_MEASURE_WITH_UNIT (LENGTH_MEASURE( 1.000000000000000082E-05 ), #21, 'distance_accuracy_value', 'NONE');
#185 = CARTESIAN_POINT ( 'NONE',  ( -7.654042494670957545E-18, 0.06250000000000001388, 0.000000000000000000 ) ) ;
#186 = ORIENTED_EDGE ( 'NONE', *, *, #139, .F. ) ;
#187 = DIMENSIONAL_EXPONENTS ( 1.000000000000000000, 0.000000000000000000, 0.000000000000000000, 0.000000000000000000, 0.000000000000000000, 0.000000000000000000, 0.000000000000000000 ) ;
#188 = ORIENTED_EDGE ( 'NONE', *, *, #341, .T. ) ;
#189 =( NAMED_UNIT ( * ) SI_UNIT ( $, .STERADIAN. ) SOLID_ANGLE_UNIT ( ) );
#190 = LENGTH_MEASURE_WITH_UNIT ( LENGTH_MEASURE( 0.02539999999999999897 ), #361 );
#191 = PRESENTATION_LAYER_ASSIGNMENT (  '', '', ( #303 ) ) ;
#192 =( CONVERSION_BASED_UNIT ( 'INCH', #370 ) LENGTH_UNIT ( ) NAMED_UNIT ( #187 ) );
#193 = PRODUCT_DEFINITION ( 'UNKNOWN', '', #353, #333 ) ;
#194 = FACE_OUTER_BOUND ( 'NONE', #248, .T. ) ;
#195 = DIRECTION ( 'NONE',  ( 0.000000000000000000, 0.000000000000000000, -1.000000000000000000 ) ) ;
#196 = PLANE ( 'NONE',  #336 ) ;
#197 = SURFACE_STYLE_FILL_AREA ( #315 ) ;
#198 = AXIS2_PLACEMENT_3D ( 'NONE', #247, #83, #340 ) ;
#199 = SURFACE_STYLE_USAGE ( .BOTH. , #78 ) ;
#200 = ADVANCED_FACE ( 'NONE', ( #276 ), #241, .T. ) ;
#201 = FACE_OUTER_BOUND ( 'NONE', #40, .T. ) ;
#202 =( NAMED_UNIT ( * ) PLANE_ANGLE_UNIT ( ) SI_UNIT ( $, .RADIAN. ) );
#203 = LINE ( 'NONE', #345, #319 ) ;
#204 = AXIS2_PLACEMENT_3D ( 'NONE', #298, #290, #25 ) ;
#205 = ORIENTED_EDGE ( 'NONE', *, *, #263, .F. ) ;
#206 = DIRECTION ( 'NONE',  ( -1.000000000000000000, 0.000000000000000000, 0.000000000000000000 ) ) ;
#207 = ADVANCED_BREP_SHAPE_REPRESENTATION ( '49035', ( #160, #52, #133 ), #294 ) ;
#208 = AXIS2_PLACEMENT_3D ( 'NONE', #337, #225, #26 ) ;
#209 = ADVANCED_FACE ( 'NONE', ( #275 ), #175, .T. ) ;
#210 = DIMENSIONAL_EXPONENTS ( 1.000000000000000000, 0.000000000000000000, 0.000000000000000000, 0.000000000000000000, 0.000000000000000000, 0.000000000000000000, 0.000000000000000000 ) ;
#211 = ORIENTED_EDGE ( 'NONE', *, *, #172, .T. ) ;
#212 = SURFACE_SIDE_STYLE ('',( #197 ) ) ;
#213 = FILL_AREA_STYLE ('',( #124 ) ) ;
#214 =( NAMED_UNIT ( * ) PLANE_ANGLE_UNIT ( ) SI_UNIT ( $, .RADIAN. ) );
#215 = AXIS2_PLACEMENT_3D ( 'NONE', #335, #152, #297 ) ;
#216 = COLOUR_RGB ( '',1.000000000000000000, 0.000000000000000000, 0.000000000000000000 ) ;
#217 =( NAMED_UNIT ( * ) SI_UNIT ( $, .STERADIAN. ) SOLID_ANGLE_UNIT ( ) );
#218 =( NAMED_UNIT ( * ) PLANE_ANGLE_UNIT ( ) SI_UNIT ( $, .RADIAN. ) );
#219 = APPLICATION_CONTEXT ( 'automotive_design' ) ;
#220 = SURFACE_SIDE_STYLE ('',( #329 ) ) ;
#221 = LINE ( 'NONE', #372, #182 ) ;
#222 = AXIS2_PLACEMENT_3D ( 'NONE', #278, #224, #226 ) ;
#223 = CIRCLE ( 'NONE', #123, 0.06250000000000001388 ) ;
#224 = DIRECTION ( 'NONE',  ( -1.224646799147353207E-16, 1.000000000000000000, -0.000000000000000000 ) ) ;
#225 = DIRECTION ( 'NONE',  ( -0.000000000000000000, -1.000000000000000000, -0.000000000000000000 ) ) ;
#226 = DIRECTION ( 'NONE',  ( -1.000000000000000000, 0.000000000000000000, 0.000000000000000000 ) ) ;
#227 = CLOSED_SHELL ( 'NONE', ( #200, #89, #277, #209, #112 ) ) ;
#228 = AXIS2_PLACEMENT_3D ( 'NONE', #11, #318, #316 ) ;
#229 = FILL_AREA_STYLE ('',( #258 ) ) ;
#230 = DIRECTION ( 'NONE',  ( -0.000000000000000000, -1.000000000000000000, -0.000000000000000000 ) ) ;
#231 = CYLINDRICAL_SURFACE ( 'NONE', #328, 0.06249999999999995143 ) ;
#232 = CARTESIAN_POINT ( 'NONE',  ( -0.06249999999999967387, 0.3749999999999999445, 0.000000000000000000 ) ) ;
#233 = VERTEX_POINT ( 'NONE', #323 ) ;
#234 = DIRECTION ( 'NONE',  ( -1.224646799147353207E-16, 1.000000000000000000, -0.000000000000000000 ) ) ;
#235 = EDGE_LOOP ( 'NONE', ( #136, #128 ) ) ;
#236 =( NAMED_UNIT ( * ) SI_UNIT ( $, .STERADIAN. ) SOLID_ANGLE_UNIT ( ) );
#237 = DIMENSIONAL_EXPONENTS ( 1.000000000000000000, 0.000000000000000000, 0.000000000000000000, 0.000000000000000000, 0.000000000000000000, 0.000000000000000000, 0.000000000000000000 ) ;
#238 = FACE_OUTER_BOUND ( 'NONE', #347, .T. ) ;
#239 = VERTEX_POINT ( 'NONE', #70 ) ;
#240 = AXIS2_PLACEMENT_3D ( 'NONE', #365, #331, #299 ) ;
#241 = SPHERICAL_SURFACE ( 'NONE', #34, 0.06249999999999997918 ) ;
#242 = DIRECTION ( 'NONE',  ( 1.000000000000000000, 0.000000000000000000, 0.000000000000000000 ) ) ;
#243 = DIRECTION ( 'NONE',  ( -1.224646799147353207E-16, 1.000000000000000000, -0.000000000000000000 ) ) ;
#244 = LENGTH_MEASURE_WITH_UNIT ( LENGTH_MEASURE( 0.02539999999999999897 ), #326 );
#245 =( CONVERSION_BASED_UNIT ( 'INCH', #190 ) LENGTH_UNIT ( ) NAMED_UNIT ( #171 ) );
#246 = VERTEX_POINT ( 'NONE', #313 ) ;
#247 = CARTESIAN_POINT ( 'NONE',  ( -7.654042494670957545E-18, 0.06250000000000001388, 0.000000000000000000 ) ) ;
#248 = EDGE_LOOP ( 'NONE', ( #317, #38, #366, #9 ) ) ;
#249 = EDGE_CURVE ( 'NONE', #117, #239, #223, .T. ) ;
#250 =( GEOMETRIC_REPRESENTATION_CONTEXT ( 3 ) GLOBAL_UNCERTAINTY_ASSIGNED_CONTEXT ( ( #102 ) ) GLOBAL_UNIT_ASSIGNED_CONTEXT ( ( #47, #214, #217 ) ) REPRESENTATION_CONTEXT ( 'NONE', 'WORKASPACE' ) );
#251 = DIRECTION ( 'NONE',  ( 0.000000000000000000, 0.000000000000000000, -1.000000000000000000 ) ) ;
#252 = CARTESIAN_POINT ( 'NONE',  ( 1.377727649040771896E-16, 0.3749999999999999445, 0.000000000000000000 ) ) ;
#253 = FILL_AREA_STYLE_COLOUR ( '', #54 ) ;
#254 = EDGE_CURVE ( 'NONE', #75, #268, #157, .T. ) ;
#255 = STYLED_ITEM ( 'NONE', ( #312 ), #89 ) ;
#256 = UNCERTAINTY_MEASURE_WITH_UNIT (LENGTH_MEASURE( 1.000000000000000082E-05 ), #41, 'distance_accuracy_value', 'NONE');
#257 = FILL_AREA_STYLE ('',( #159 ) ) ;
#258 = FILL_AREA_STYLE_COLOUR ( '', #166 ) ;
#259 = FILL_AREA_STYLE ('',( #93 ) ) ;
#260 = VERTEX_POINT ( 'NONE', #232 ) ;
#261 = AXIS2_PLACEMENT_3D ( 'NONE', #267, #24, #242 ) ;
#262 = SURFACE_STYLE_USAGE ( .BOTH. , #348 ) ;
#263 = EDGE_CURVE ( 'NONE', #291, #233, #61, .T. ) ;
#264 = DIRECTION ( 'NONE',  ( 1.224646799147353207E-16, -1.000000000000000000, 0.000000000000000000 ) ) ;
#265 = PRESENTATION_LAYER_ASSIGNMENT (  '', '', ( #55 ) ) ;
#266 = CARTESIAN_POINT ( 'NONE',  ( -6.123233995736772199E-17, 2.000000000000000000, 0.000000000000000000 ) ) ;
#267 = CARTESIAN_POINT ( 'NONE',  ( -7.654042494670957545E-18, 0.06250000000000001388, 0.000000000000000000 ) ) ;
#268 = VERTEX_POINT ( 'NONE', #39 ) ;
#269 = DIRECTION ( 'NONE',  ( 1.000000000000000000, 0.000000000000000000, 0.000000000000000000 ) ) ;
#270 = CIRCLE ( 'NONE', #95, 0.06249999999999981265 ) ;
#271 = AXIS2_PLACEMENT_3D ( 'NONE', #349, #230, #120 ) ;
#272 = MECHANICAL_DESIGN_GEOMETRIC_PRESENTATION_REPRESENTATION (  '', ( #55 ), #149 ) ;
#273 = ORIENTED_EDGE ( 'NONE', *, *, #346, .T. ) ;
#274 = CARTESIAN_POINT ( 'NONE',  ( -0.06249999999999996531, 0.06250000000000001388, 7.654042494670952923E-18 ) ) ;
#275 = FACE_OUTER_BOUND ( 'NONE', #178, .T. ) ;
#276 = FACE_OUTER_BOUND ( 'NONE', #142, .T. ) ;
#277 = ADVANCED_FACE ( 'NONE', ( #238 ), #286, .T. ) ;
#278 = CARTESIAN_POINT ( 'NONE',  ( 1.377727649040771896E-16, 0.3749999999999999445, 0.000000000000000000 ) ) ;
#279 = DIRECTION ( 'NONE',  ( 1.000000000000000000, 0.000000000000000000, 0.000000000000000000 ) ) ;
#280 = PRESENTATION_STYLE_ASSIGNMENT (( #308 ) ) ;
#281 =( NAMED_UNIT ( * ) SI_UNIT ( $, .STERADIAN. ) SOLID_ANGLE_UNIT ( ) );
#282 = ORIENTED_EDGE ( 'NONE', *, *, #130, .T. ) ;
#283 = MECHANICAL_DESIGN_GEOMETRIC_PRESENTATION_REPRESENTATION (  '', ( #288 ), #250 ) ;
#284 = PRESENTATION_LAYER_ASSIGNMENT (  '', '', ( #167 ) ) ;
#285 =( NAMED_UNIT ( * ) SI_UNIT ( $, .STERADIAN. ) SOLID_ANGLE_UNIT ( ) );
#286 = PLANE ( 'NONE',  #228 ) ;
#287 = CARTESIAN_POINT ( 'NONE',  ( 0.06249999999999995143, 2.000000000000000000, 0.000000000000000000 ) ) ;
#288 = STYLED_ITEM ( 'NONE', ( #325 ), #52 ) ;
#289 = SPHERICAL_SURFACE ( 'NONE', #261, 0.06249999999999997918 ) ;
#290 = DIRECTION ( 'NONE',  ( -0.000000000000000000, -1.000000000000000000, -0.000000000000000000 ) ) ;
#291 = VERTEX_POINT ( 'NONE', #62 ) ;
#292 = SURFACE_STYLE_FILL_AREA ( #125 ) ;
#293 = AXIS2_PLACEMENT_3D ( 'NONE', #185, #109, #77 ) ;
#294 =( GEOMETRIC_REPRESENTATION_CONTEXT ( 3 ) GLOBAL_UNCERTAINTY_ASSIGNED_CONTEXT ( ( #111 ) ) GLOBAL_UNIT_ASSIGNED_CONTEXT ( ( #192, #334, #57 ) ) REPRESENTATION_CONTEXT ( 'NONE', 'WORKASPACE' ) );
#295 = ADVANCED_FACE ( 'NONE', ( #170 ), #143, .F. ) ;
#296 = FACE_OUTER_BOUND ( 'NONE', #235, .T. ) ;
#297 = DIRECTION ( 'NONE',  ( -1.000000000000000000, 0.000000000000000000, 0.000000000000000000 ) ) ;
#298 = CARTESIAN_POINT ( 'NONE',  ( 0.000000000000000000, 0.06250000000000001388, 0.000000000000000000 ) ) ;
#299 = DIRECTION ( 'NONE',  ( -1.000000000000000000, 0.000000000000000000, 0.000000000000000000 ) ) ;
#300 = DIRECTION ( 'NONE',  ( -1.000000000000000000, 0.000000000000000000, 0.000000000000000000 ) ) ;
#301 = EDGE_CURVE ( 'NONE', #246, #98, #81, .T. ) ;
#302 = SURFACE_STYLE_USAGE ( .BOTH. , #220 ) ;
#303 = STYLED_ITEM ( 'NONE', ( #364 ), #160 ) ;
#304 = DIRECTION ( 'NONE',  ( -0.000000000000000000, -1.000000000000000000, -0.000000000000000000 ) ) ;
#305 = CIRCLE ( 'NONE', #222, 0.06249999999999981265 ) ;
#306 = ADVANCED_FACE ( 'NONE', ( #194 ), #2, .T. ) ;
#307 = AXIS2_PLACEMENT_3D ( 'NONE', #287, #264, #354 ) ;
#308 = SURFACE_STYLE_USAGE ( .BOTH. , #64 ) ;
#309 =( LENGTH_UNIT ( ) NAMED_UNIT ( * ) SI_UNIT ( $, .METRE. ) );
#310 = ORIENTED_EDGE ( 'NONE', *, *, #139, .T. ) ;
#311 = PRODUCT_RELATED_PRODUCT_CATEGORY ( 'part', '', ( #51 ) ) ;
#312 = PRESENTATION_STYLE_ASSIGNMENT (( #262 ) ) ;
#313 = CARTESIAN_POINT ( 'NONE',  ( 0.06249999999999996531, 0.06250000000000001388, 0.000000000000000000 ) ) ;
#314 = CIRCLE ( 'NONE', #198, 0.06249999999999997918 ) ;
#315 = FILL_AREA_STYLE ('',( #58 ) ) ;
#316 = DIRECTION ( 'NONE',  ( 0.000000000000000000, -0.000000000000000000, 1.000000000000000000 ) ) ;
#317 = ORIENTED_EDGE ( 'NONE', *, *, #134, .F. ) ;
#318 = DIRECTION ( 'NONE',  ( 0.000000000000000000, 1.000000000000000000, 0.000000000000000000 ) ) ;
#319 = VECTOR ( 'NONE', #85, 39.37007874015748143 ) ;
#320 =( NAMED_UNIT ( * ) PLANE_ANGLE_UNIT ( ) SI_UNIT ( $, .RADIAN. ) );
#321 = DIRECTION ( 'NONE',  ( 0.000000000000000000, 0.000000000000000000, -1.000000000000000000 ) ) ;
#322 = ORIENTED_EDGE ( 'NONE', *, *, #103, .F. ) ;
#323 = CARTESIAN_POINT ( 'NONE',  ( 0.000000000000000000, 0.3750000000000000555, -0.06249999999999995143 ) ) ;
#324 =( LENGTH_UNIT ( ) NAMED_UNIT ( * ) SI_UNIT ( $, .METRE. ) );
#325 = PRESENTATION_STYLE_ASSIGNMENT (( #199 ) ) ;
#326 =( LENGTH_UNIT ( ) NAMED_UNIT ( * ) SI_UNIT ( $, .METRE. ) );
#327 = UNCERTAINTY_MEASURE_WITH_UNIT (LENGTH_MEASURE( 1.000000000000000082E-05 ), #140, 'distance_accuracy_value', 'NONE');
#328 = AXIS2_PLACEMENT_3D ( 'NONE', #4, #115, #168 ) ;
#329 = SURFACE_STYLE_FILL_AREA ( #19 ) ;
#330 = MECHANICAL_DESIGN_GEOMETRIC_PRESENTATION_REPRESENTATION (  '', ( #167 ), #18 ) ;
#331 = DIRECTION ( 'NONE',  ( -1.224646799147353207E-16, 1.000000000000000000, -0.000000000000000000 ) ) ;
#332 = ORIENTED_EDGE ( 'NONE', *, *, #254, .T. ) ;
#333 = PRODUCT_DEFINITION_CONTEXT ( 'detailed design', #173, 'design' ) ;
#334 =( NAMED_UNIT ( * ) PLANE_ANGLE_UNIT ( ) SI_UNIT ( $, .RADIAN. ) );
#335 = CARTESIAN_POINT ( 'NONE',  ( -6.123233995736772199E-17, 2.000000000000000000, 0.000000000000000000 ) ) ;
#336 = AXIS2_PLACEMENT_3D ( 'NONE', #154, #113, #342 ) ;
#337 = CARTESIAN_POINT ( 'NONE',  ( 0.000000000000000000, 0.06250000000000001388, 0.000000000000000000 ) ) ;
#338 =( GEOMETRIC_REPRESENTATION_CONTEXT ( 3 ) GLOBAL_UNCERTAINTY_ASSIGNED_CONTEXT ( ( #184 ) ) GLOBAL_UNIT_ASSIGNED_CONTEXT ( ( #21, #218, #189 ) ) REPRESENTATION_CONTEXT ( 'NONE', 'WORKASPACE' ) );
#339 = DIRECTION ( 'NONE',  ( -1.224646799147353207E-16, 1.000000000000000000, -0.000000000000000000 ) ) ;
#340 = DIRECTION ( 'NONE',  ( -1.000000000000000000, 0.000000000000000000, 0.000000000000000000 ) ) ;
#341 = EDGE_CURVE ( 'NONE', #291, #98, #221, .T. ) ;
#342 = DIRECTION ( 'NONE',  ( -1.000000000000000000, -1.224646799147353207E-16, 0.000000000000000000 ) ) ;
#343 = CIRCLE ( 'NONE', #17, 0.06249999999999995143 ) ;
#344 = APPLICATION_PROTOCOL_DEFINITION ( 'draft international standard', 'automotive_design', 1998, #219 ) ;
#345 = CARTESIAN_POINT ( 'NONE',  ( 0.000000000000000000, 0.000000000000000000, -0.06249999999999995143 ) ) ;
#346 = EDGE_CURVE ( 'NONE', #268, #246, #368, .T. ) ;
#347 = EDGE_LOOP ( 'NONE', ( #35, #205 ) ) ;
#348 = SURFACE_SIDE_STYLE ('',( #59 ) ) ;
#349 = CARTESIAN_POINT ( 'NONE',  ( 0.000000000000000000, 0.06250000000000001388, 0.000000000000000000 ) ) ;
#350 = ORIENTED_EDGE ( 'NONE', *, *, #14, .T. ) ;
#351 = COLOUR_RGB ( '',0.7921568627450980005, 0.8196078431372548767, 0.9333333333333333481 ) ;
#352 = ORIENTED_EDGE ( 'NONE', *, *, #301, .F. ) ;
#353 = PRODUCT_DEFINITION_FORMATION_WITH_SPECIFIED_SOURCE ( 'ANY', '', #51, .NOT_KNOWN. ) ;
#354 = DIRECTION ( 'NONE',  ( 1.000000000000000000, 1.224646799147353207E-16, 0.000000000000000000 ) ) ;
#355 = DIMENSIONAL_EXPONENTS ( 1.000000000000000000, 0.000000000000000000, 0.000000000000000000, 0.000000000000000000, 0.000000000000000000, 0.000000000000000000, 0.000000000000000000 ) ;
#356 = SURFACE_STYLE_USAGE ( .BOTH. , #212 ) ;
#357 =( NAMED_UNIT ( * ) PLANE_ANGLE_UNIT ( ) SI_UNIT ( $, .RADIAN. ) );
#358 = MECHANICAL_DESIGN_GEOMETRIC_PRESENTATION_REPRESENTATION (  '', ( #68 ), #338 ) ;
#359 = SURFACE_STYLE_USAGE ( .BOTH. , #74 ) ;
#360 = UNCERTAINTY_MEASURE_WITH_UNIT (LENGTH_MEASURE( 1.000000000000000082E-05 ), #67, 'distance_accuracy_value', 'NONE');
#361 =( LENGTH_UNIT ( ) NAMED_UNIT ( * ) SI_UNIT ( $, .METRE. ) );
#362 = FACE_OUTER_BOUND ( 'NONE', #153, .T. ) ;
#363 =( NAMED_UNIT ( * ) SI_UNIT ( $, .STERADIAN. ) SOLID_ANGLE_UNIT ( ) );
#364 = PRESENTATION_STYLE_ASSIGNMENT (( #302 ) ) ;
#365 = CARTESIAN_POINT ( 'NONE',  ( -6.123233995736772199E-17, 2.000000000000000000, 0.000000000000000000 ) ) ;
#366 = ORIENTED_EDGE ( 'NONE', *, *, #80, .T. ) ;
#367 = SURFACE_SIDE_STYLE ('',( #292 ) ) ;
#368 = CIRCLE ( 'NONE', #208, 0.06249999999999995143 ) ;
#369 = DIRECTION ( 'NONE',  ( -1.224646799147353207E-16, 1.000000000000000000, -0.000000000000000000 ) ) ;
#370 = LENGTH_MEASURE_WITH_UNIT ( LENGTH_MEASURE( 0.02539999999999999897 ), #82 );
#371 = CARTESIAN_POINT ( 'NONE',  ( 0.06249999999999985428, 2.000000000000000000, 7.654042494670946760E-18 ) ) ;
#372 = CARTESIAN_POINT ( 'NONE',  ( 7.654042494670951382E-18, 0.000000000000000000, 0.06249999999999995143 ) ) ;
#373 = STYLED_ITEM ( 'NONE', ( #73 ), #112 ) ;
ENDSEC;
END-ISO-10303-21;
