ISO-10303-21;
HEADER;
FILE_DESCRIPTION (( 'STEP AP214' ),
    '1' );
FILE_NAME ('Micro_DM-625-4120.STEP',
    '2021-09-02T16:09:50',
    ( '' ),
    ( '' ),
    'SwSTEP 2.0',
    'SolidWorks 2020',
    '' );
FILE_SCHEMA (( 'AUTOMOTIVE_DESIGN' ));
ENDSEC;

DATA;
#1 = CIRCLE ( 'NONE', #89, 0.3125000000000000000 ) ;
#2 = AXIS2_PLACEMENT_3D ( 'NONE', #49, #196, #100 ) ;
#3 = ORIENTED_EDGE ( 'NONE', *, *, #250, .T. ) ;
#4 = STYLED_ITEM ( 'NONE', ( #202 ), #321 ) ;
#5 =( CONVERSION_BASED_UNIT ( 'INCH', #304 ) LENGTH_UNIT ( ) NAMED_UNIT ( #222 ) );
#6 = ORIENTED_EDGE ( 'NONE', *, *, #223, .T. ) ;
#7 = UNCERTAINTY_MEASURE_WITH_UNIT (LENGTH_MEASURE( 1.000000000000000082E-05 ), #5, 'distance_accuracy_value', 'NONE');
#8 =( NAMED_UNIT ( * ) PLANE_ANGLE_UNIT ( ) SI_UNIT ( $, .RADIAN. ) );
#9 = CYLINDRICAL_SURFACE ( 'NONE', #278, 0.3124500000000001720 ) ;
#10 = AXIS2_PLACEMENT_3D ( 'NONE', #20, #45, #318 ) ;
#11 = PRODUCT_DEFINITION_CONTEXT ( 'detailed design', #316, 'design' ) ;
#12 = LINE ( 'NONE', #286, #287 ) ;
#13 = DIRECTION ( 'NONE',  ( -0.0000000000000000000, -0.0000000000000000000, -1.000000000000000000 ) ) ;
#14 = DIRECTION ( 'NONE',  ( -0.0000000000000000000, -0.0000000000000000000, -1.000000000000000000 ) ) ;
#15 = FACE_OUTER_BOUND ( 'NONE', #263, .T. ) ;
#16 = CARTESIAN_POINT ( 'NONE',  ( -0.3125000000000000000, 0.0000000000000000000, 1.250000000000000000 ) ) ;
#17 = DIMENSIONAL_EXPONENTS ( 1.000000000000000000, 0.0000000000000000000, 0.0000000000000000000, 0.0000000000000000000, 0.0000000000000000000, 0.0000000000000000000, 0.0000000000000000000 ) ;
#18 = DIRECTION ( 'NONE',  ( 0.7071067811865346942, 8.659560562354773853E-17, -0.7071067811865603403 ) ) ;
#19 = EDGE_CURVE ( 'NONE', #301, #46, #12, .T. ) ;
#20 = CARTESIAN_POINT ( 'NONE',  ( 0.0000000000000000000, 0.0000000000000000000, 1.707404996040164512E-17 ) ) ;
#21 = EDGE_LOOP ( 'NONE', ( #53, #108, #84, #133 ) ) ;
#22 = CIRCLE ( 'NONE', #294, 0.3124500000000001165 ) ;
#23 = DIRECTION ( 'NONE',  ( -0.0000000000000000000, -0.0000000000000000000, -1.000000000000000000 ) ) ;
#24 = VERTEX_POINT ( 'NONE', #236 ) ;
#25 = DIRECTION ( 'NONE',  ( -1.000000000000000000, 0.0000000000000000000, 0.0000000000000000000 ) ) ;
#26 = VERTEX_POINT ( 'NONE', #138 ) ;
#27 = CARTESIAN_POINT ( 'NONE',  ( 0.0000000000000000000, 0.0000000000000000000, 3.500000000000000000 ) ) ;
#28 = ORIENTED_EDGE ( 'NONE', *, *, #176, .T. ) ;
#29 = DIRECTION ( 'NONE',  ( -1.000000000000000000, 0.0000000000000000000, 0.0000000000000000000 ) ) ;
#30 = ORIENTED_EDGE ( 'NONE', *, *, #188, .F. ) ;
#31 = SHAPE_DEFINITION_REPRESENTATION ( #77, #321 ) ;
#32 = ORIENTED_EDGE ( 'NONE', *, *, #167, .T. ) ;
#33 =( NAMED_UNIT ( * ) SI_UNIT ( $, .STERADIAN. ) SOLID_ANGLE_UNIT ( ) );
#34 = ORIENTED_EDGE ( 'NONE', *, *, #323, .T. ) ;
#35 = ORIENTED_EDGE ( 'NONE', *, *, #275, .T. ) ;
#36 =( CONVERSION_BASED_UNIT ( 'INCH', #259 ) LENGTH_UNIT ( ) NAMED_UNIT ( #17 ) );
#37 = LINE ( 'NONE', #115, #111 ) ;
#38 = DIRECTION ( 'NONE',  ( -0.0000000000000000000, -0.0000000000000000000, -1.000000000000000000 ) ) ;
#39 = CARTESIAN_POINT ( 'NONE',  ( 0.007499999999999999722, 0.0000000000000000000, 1.707404996040164512E-17 ) ) ;
#40 = CARTESIAN_POINT ( 'NONE',  ( 0.3124500000000002276, 3.826408923935907901E-17, 1.250000000000000000 ) ) ;
#41 = AXIS2_PLACEMENT_3D ( 'NONE', #119, #121, #187 ) ;
#42 = AXIS2_PLACEMENT_3D ( 'NONE', #27, #233, #134 ) ;
#43 = LINE ( 'NONE', #67, #139 ) ;
#44 = EDGE_CURVE ( 'NONE', #206, #132, #97, .T. ) ;
#45 = DIRECTION ( 'NONE',  ( 0.0000000000000000000, 0.0000000000000000000, 1.000000000000000000 ) ) ;
#46 = VERTEX_POINT ( 'NONE', #143 ) ;
#47 = LINE ( 'NONE', #39, #271 ) ;
#48 = DIRECTION ( 'NONE',  ( -0.0000000000000000000, -0.0000000000000000000, -1.000000000000000000 ) ) ;
#49 = CARTESIAN_POINT ( 'NONE',  ( 0.0000000000000000000, 0.0000000000000000000, 0.1760629645893753426 ) ) ;
#50 = ORIENTED_EDGE ( 'NONE', *, *, #153, .T. ) ;
#51 = CARTESIAN_POINT ( 'NONE',  ( 0.0000000000000000000, 0.0000000000000000000, 3.500000000000000000 ) ) ;
#52 =( CONVERSION_BASED_UNIT ( 'INCH', #273 ) LENGTH_UNIT ( ) NAMED_UNIT ( #99 ) );
#53 = ORIENTED_EDGE ( 'NONE', *, *, #153, .F. ) ;
#54 = EDGE_LOOP ( 'NONE', ( #32, #50 ) ) ;
#55 = DIRECTION ( 'NONE',  ( 0.0000000000000000000, 0.0000000000000000000, 1.000000000000000000 ) ) ;
#56 = EDGE_LOOP ( 'NONE', ( #177, #203, #76, #34 ) ) ;
#57 = ORIENTED_EDGE ( 'NONE', *, *, #44, .T. ) ;
#58 = EDGE_CURVE ( 'NONE', #197, #327, #260, .T. ) ;
#59 = DIRECTION ( 'NONE',  ( -0.0000000000000000000, -0.0000000000000000000, -1.000000000000000000 ) ) ;
#60 = DIRECTION ( 'NONE',  ( -0.8660254037844400399, 1.060575238724908640E-16, 0.4999999999999976685 ) ) ;
#61 = VECTOR ( 'NONE', #95, 39.37007874015748143 ) ;
#62 = CARTESIAN_POINT ( 'NONE',  ( 0.0000000000000000000, 0.0000000000000000000, 3.484999999999999432 ) ) ;
#63 = DIRECTION ( 'NONE',  ( -1.000000000000000000, 0.0000000000000000000, 0.0000000000000000000 ) ) ;
#64 = DIRECTION ( 'NONE',  ( -0.7071067811865346942, 0.0000000000000000000, -0.7071067811865603403 ) ) ;
#65 = MECHANICAL_DESIGN_GEOMETRIC_PRESENTATION_REPRESENTATION (  '', ( #325 ), #116 ) ;
#66 = AXIS2_PLACEMENT_3D ( 'NONE', #320, #75, #101 ) ;
#67 = CARTESIAN_POINT ( 'NONE',  ( 0.2975000000000003197, 3.643324227463378817E-17, 3.500000000000000000 ) ) ;
#68 = PLANE ( 'NONE',  #251 ) ;
#69 = ORIENTED_EDGE ( 'NONE', *, *, #79, .F. ) ;
#70 = APPLICATION_CONTEXT ( 'automotive_design' ) ;
#71 = CARTESIAN_POINT ( 'NONE',  ( 0.3125000000000000000, 3.827021247335478926E-17, 1.250000000000000000 ) ) ;
#72 = ORIENTED_EDGE ( 'NONE', *, *, #243, .T. ) ;
#73 = CIRCLE ( 'NONE', #298, 0.3125000000000000000 ) ;
#74 = PRODUCT_DEFINITION_FORMATION_WITH_SPECIFIED_SOURCE ( 'ANY', '', #178, .NOT_KNOWN. ) ;
#75 = DIRECTION ( 'NONE',  ( -0.0000000000000000000, -0.0000000000000000000, -1.000000000000000000 ) ) ;
#76 = ORIENTED_EDGE ( 'NONE', *, *, #142, .T. ) ;
#77 = PRODUCT_DEFINITION_SHAPE ( 'NONE', 'NONE',  #148 ) ;
#78 = ORIENTED_EDGE ( 'NONE', *, *, #300, .F. ) ;
#79 = EDGE_CURVE ( 'NONE', #135, #327, #37, .T. ) ;
#80 = ORIENTED_EDGE ( 'NONE', *, *, #204, .T. ) ;
#81 = AXIS2_PLACEMENT_3D ( 'NONE', #88, #59, #165 ) ;
#82 =( LENGTH_UNIT ( ) NAMED_UNIT ( * ) SI_UNIT ( $, .METRE. ) );
#83 = FILL_AREA_STYLE_COLOUR ( '', #326 ) ;
#84 = ORIENTED_EDGE ( 'NONE', *, *, #176, .F. ) ;
#85 = PRESENTATION_STYLE_ASSIGNMENT (( #214 ) ) ;
#86 = CIRCLE ( 'NONE', #81, 0.3124500000000002276 ) ;
#87 = PRODUCT_RELATED_PRODUCT_CATEGORY ( 'part', '', ( #178 ) ) ;
#88 = CARTESIAN_POINT ( 'NONE',  ( 0.0000000000000000000, 0.0000000000000000000, 1.250000000000000000 ) ) ;
#89 = AXIS2_PLACEMENT_3D ( 'NONE', #127, #172, #225 ) ;
#90 =( GEOMETRIC_REPRESENTATION_CONTEXT ( 3 ) GLOBAL_UNCERTAINTY_ASSIGNED_CONTEXT ( ( #179 ) ) GLOBAL_UNIT_ASSIGNED_CONTEXT ( ( #52, #247, #205 ) ) REPRESENTATION_CONTEXT ( 'NONE', 'WORKASPACE' ) );
#91 = FACE_BOUND ( 'NONE', #280, .T. ) ;
#92 = ADVANCED_FACE ( 'NONE', ( #212 ), #117, .T. ) ;
#93 = LINE ( 'NONE', #292, #163 ) ;
#94 = DIRECTION ( 'NONE',  ( 0.0000000000000000000, 0.0000000000000000000, 1.000000000000000000 ) ) ;
#95 = DIRECTION ( 'NONE',  ( -0.0000000000000000000, -0.0000000000000000000, -1.000000000000000000 ) ) ;
#96 = DIRECTION ( 'NONE',  ( -0.0000000000000000000, -0.0000000000000000000, -1.000000000000000000 ) ) ;
#97 = CIRCLE ( 'NONE', #277, 0.3125000000000000000 ) ;
#98 = PRESENTATION_LAYER_ASSIGNMENT (  '', '', ( #325 ) ) ;
#99 = DIMENSIONAL_EXPONENTS ( 1.000000000000000000, 0.0000000000000000000, 0.0000000000000000000, 0.0000000000000000000, 0.0000000000000000000, 0.0000000000000000000, 0.0000000000000000000 ) ;
#100 = DIRECTION ( 'NONE',  ( -1.000000000000000000, 0.0000000000000000000, 0.0000000000000000000 ) ) ;
#101 = DIRECTION ( 'NONE',  ( -1.000000000000000000, 0.0000000000000000000, 0.0000000000000000000 ) ) ;
#102 = FACE_OUTER_BOUND ( 'NONE', #21, .T. ) ;
#103 = AXIS2_PLACEMENT_3D ( 'NONE', #200, #96, #322 ) ;
#104 = FILL_AREA_STYLE ('',( #83 ) ) ;
#105 = ORIENTED_EDGE ( 'NONE', *, *, #223, .F. ) ;
#106 = ADVANCED_FACE ( 'NONE', ( #290 ), #9, .T. ) ;
#107 =( LENGTH_UNIT ( ) NAMED_UNIT ( * ) SI_UNIT ( $, .METRE. ) );
#108 = ORIENTED_EDGE ( 'NONE', *, *, #188, .T. ) ;
#109 = FACE_OUTER_BOUND ( 'NONE', #156, .T. ) ;
#110 = ORIENTED_EDGE ( 'NONE', *, *, #79, .T. ) ;
#111 = VECTOR ( 'NONE', #13, 39.37007874015748143 ) ;
#112 = AXIS2_PLACEMENT_3D ( 'NONE', #126, #48, #240 ) ;
#113 = ADVANCED_FACE ( 'NONE', ( #166 ), #208, .T. ) ;
#114 = ORIENTED_EDGE ( 'NONE', *, *, #250, .F. ) ;
#115 = CARTESIAN_POINT ( 'NONE',  ( -0.3124500000000001720, 0.0000000000000000000, 0.0000000000000000000 ) ) ;
#116 =( GEOMETRIC_REPRESENTATION_CONTEXT ( 3 ) GLOBAL_UNCERTAINTY_ASSIGNED_CONTEXT ( ( #258 ) ) GLOBAL_UNIT_ASSIGNED_CONTEXT ( ( #36, #8, #283 ) ) REPRESENTATION_CONTEXT ( 'NONE', 'WORKASPACE' ) );
#117 = CYLINDRICAL_SURFACE ( 'NONE', #324, 0.3125000000000000000 ) ;
#118 = MANIFOLD_SOLID_BREP ( 'Cut-Revolve4', #207 ) ;
#119 = CARTESIAN_POINT ( 'NONE',  ( 0.0000000000000000000, 0.0000000000000000000, 1.707404996040164512E-17 ) ) ;
#120 = DIRECTION ( 'NONE',  ( -1.000000000000000000, 0.0000000000000000000, 0.0000000000000000000 ) ) ;
#121 = DIRECTION ( 'NONE',  ( 0.0000000000000000000, 0.0000000000000000000, 1.000000000000000000 ) ) ;
#122 = PRESENTATION_LAYER_ASSIGNMENT (  '', '', ( #4 ) ) ;
#123 = DIRECTION ( 'NONE',  ( 0.0000000000000000000, 0.0000000000000000000, 1.000000000000000000 ) ) ;
#124 = FACE_OUTER_BOUND ( 'NONE', #160, .T. ) ;
#125 = LINE ( 'NONE', #217, #61 ) ;
#126 = CARTESIAN_POINT ( 'NONE',  ( 0.0000000000000000000, 0.0000000000000000000, 0.0000000000000000000 ) ) ;
#127 = CARTESIAN_POINT ( 'NONE',  ( 0.0000000000000000000, 0.0000000000000000000, 1.250000000000000000 ) ) ;
#128 = FACE_OUTER_BOUND ( 'NONE', #162, .T. ) ;
#129 = EDGE_CURVE ( 'NONE', #135, #301, #86, .T. ) ;
#130 = ORIENTED_EDGE ( 'NONE', *, *, #323, .F. ) ;
#131 = PRODUCT_CONTEXT ( 'NONE', #70, 'mechanical' ) ;
#132 = VERTEX_POINT ( 'NONE', #312 ) ;
#133 = ORIENTED_EDGE ( 'NONE', *, *, #185, .F. ) ;
#134 = DIRECTION ( 'NONE',  ( -1.000000000000000000, 0.0000000000000000000, 0.0000000000000000000 ) ) ;
#135 = VERTEX_POINT ( 'NONE', #169 ) ;
#136 = VECTOR ( 'NONE', #299, 39.37007874015748143 ) ;
#137 = ORIENTED_EDGE ( 'NONE', *, *, #167, .F. ) ;
#138 = CARTESIAN_POINT ( 'NONE',  ( 0.2975000000000003197, 3.735172737399428256E-17, 3.500000000000000000 ) ) ;
#139 = VECTOR ( 'NONE', #18, 39.37007874015748143 ) ;
#140 = CARTESIAN_POINT ( 'NONE',  ( 0.0000000000000000000, 0.0000000000000000000, 3.500000000000000000 ) ) ;
#141 = FILL_AREA_STYLE ('',( #262 ) ) ;
#142 = EDGE_CURVE ( 'NONE', #24, #46, #47, .T. ) ;
#143 = CARTESIAN_POINT ( 'NONE',  ( 0.3124500000000001720, 0.0000000000000000000, 0.1760629645893753426 ) ) ;
#144 = DIRECTION ( 'NONE',  ( 0.0000000000000000000, 0.0000000000000000000, -1.000000000000000000 ) ) ;
#145 = CARTESIAN_POINT ( 'NONE',  ( 0.3125000000000000000, 3.827021247335478926E-17, 3.500000000000000000 ) ) ;
#146 = AXIS2_PLACEMENT_3D ( 'NONE', #193, #291, #63 ) ;
#147 = CARTESIAN_POINT ( 'NONE',  ( -0.007499999999999999722, 1.959128716935978978E-17, 1.707404996040164512E-17 ) ) ;
#148 = PRODUCT_DEFINITION ( 'UNKNOWN', '', #74, #11 ) ;
#149 = DIRECTION ( 'NONE',  ( 0.0000000000000000000, 0.0000000000000000000, 1.000000000000000000 ) ) ;
#150 = CARTESIAN_POINT ( 'NONE',  ( 0.0000000000000000000, 0.0000000000000000000, 1.707404996040164512E-17 ) ) ;
#151 = AXIS2_PLACEMENT_3D ( 'NONE', #150, #152, #244 ) ;
#152 = DIRECTION ( 'NONE',  ( -0.0000000000000000000, -0.0000000000000000000, -1.000000000000000000 ) ) ;
#153 = EDGE_CURVE ( 'NONE', #26, #154, #201, .T. ) ;
#154 = VERTEX_POINT ( 'NONE', #265 ) ;
#155 = CARTESIAN_POINT ( 'NONE',  ( 0.0000000000000000000, 0.0000000000000000000, 0.0000000000000000000 ) ) ;
#156 = EDGE_LOOP ( 'NONE', ( #30, #137, #267, #183 ) ) ;
#157 = AXIS2_PLACEMENT_3D ( 'NONE', #220, #297, #246 ) ;
#158 = AXIS2_PLACEMENT_3D ( 'NONE', #155, #55, #249 ) ;
#159 = APPLICATION_PROTOCOL_DEFINITION ( 'draft international standard', 'automotive_design', 1998, #70 ) ;
#160 = EDGE_LOOP ( 'NONE', ( #80, #72 ) ) ;
#161 = ORIENTED_EDGE ( 'NONE', *, *, #129, .F. ) ;
#162 = EDGE_LOOP ( 'NONE', ( #226, #230, #3, #234 ) ) ;
#163 = VECTOR ( 'NONE', #64, 39.37007874015748143 ) ;
#164 = ADVANCED_FACE ( 'NONE', ( #91, #15 ), #238, .T. ) ;
#165 = DIRECTION ( 'NONE',  ( -1.000000000000000000, 0.0000000000000000000, 0.0000000000000000000 ) ) ;
#166 = FACE_OUTER_BOUND ( 'NONE', #56, .T. ) ;
#167 = EDGE_CURVE ( 'NONE', #154, #26, #186, .T. ) ;
#168 = CARTESIAN_POINT ( 'NONE',  ( 0.0000000000000000000, 0.0000000000000000000, 3.484999999999999432 ) ) ;
#169 = CARTESIAN_POINT ( 'NONE',  ( -0.3124500000000002276, 0.0000000000000000000, 1.250000000000000000 ) ) ;
#170 = CARTESIAN_POINT ( 'NONE',  ( 0.0000000000000000000, 0.0000000000000000000, 3.500000000000000000 ) ) ;
#171 = DIRECTION ( 'NONE',  ( 1.000000000000000000, 0.0000000000000000000, -0.0000000000000000000 ) ) ;
#172 = DIRECTION ( 'NONE',  ( -0.0000000000000000000, -0.0000000000000000000, -1.000000000000000000 ) ) ;
#173 = ORIENTED_EDGE ( 'NONE', *, *, #129, .T. ) ;
#174 = CARTESIAN_POINT ( 'NONE',  ( 0.3125000000000000000, 3.827021247335478926E-17, 3.484999999999999432 ) ) ;
#175 = CONICAL_SURFACE ( 'NONE', #10, 0.007499999999999999722, 1.047197551196600518 ) ;
#176 = EDGE_CURVE ( 'NONE', #132, #206, #73, .T. ) ;
#177 = ORIENTED_EDGE ( 'NONE', *, *, #58, .F. ) ;
#178 = PRODUCT ( 'Micro_DM-625-4120', 'Micro_DM-625-4120', '', ( #131 ) ) ;
#179 = UNCERTAINTY_MEASURE_WITH_UNIT (LENGTH_MEASURE( 1.000000000000000082E-05 ), #52, 'distance_accuracy_value', 'NONE');
#180 = ORIENTED_EDGE ( 'NONE', *, *, #284, .T. ) ;
#181 = CARTESIAN_POINT ( 'NONE',  ( -0.3124500000000001720, 3.826408923935907901E-17, 0.1760629645893753426 ) ) ;
#182 = SURFACE_STYLE_FILL_AREA ( #104 ) ;
#183 = ORIENTED_EDGE ( 'NONE', *, *, #44, .F. ) ;
#184 = DIRECTION ( 'NONE',  ( 1.000000000000000000, 0.0000000000000000000, 0.0000000000000000000 ) ) ;
#185 = EDGE_CURVE ( 'NONE', #154, #132, #93, .T. ) ;
#186 = CIRCLE ( 'NONE', #190, 0.2975000000000003197 ) ;
#187 = DIRECTION ( 'NONE',  ( 1.000000000000000000, 0.0000000000000000000, 0.0000000000000000000 ) ) ;
#188 = EDGE_CURVE ( 'NONE', #26, #206, #43, .T. ) ;
#189 = AXIS2_PLACEMENT_3D ( 'NONE', #293, #23, #25 ) ;
#190 = AXIS2_PLACEMENT_3D ( 'NONE', #317, #123, #194 ) ;
#191 = MECHANICAL_DESIGN_GEOMETRIC_PRESENTATION_REPRESENTATION (  '', ( #4 ), #90 ) ;
#192 =( LENGTH_UNIT ( ) NAMED_UNIT ( * ) SI_UNIT ( $, .METRE. ) );
#193 = CARTESIAN_POINT ( 'NONE',  ( 0.3124500000000002276, 0.0000000000000000000, 1.250000000000000000 ) ) ;
#194 = DIRECTION ( 'NONE',  ( 1.000000000000000000, 0.0000000000000000000, 0.0000000000000000000 ) ) ;
#195 = DIRECTION ( 'NONE',  ( 1.000000000000000000, 0.0000000000000000000, -0.0000000000000000000 ) ) ;
#196 = DIRECTION ( 'NONE',  ( -0.0000000000000000000, -0.0000000000000000000, -1.000000000000000000 ) ) ;
#197 = VERTEX_POINT ( 'NONE', #147 ) ;
#198 = EDGE_CURVE ( 'NONE', #132, #302, #125, .T. ) ;
#199 = ORIENTED_EDGE ( 'NONE', *, *, #19, .T. ) ;
#200 = CARTESIAN_POINT ( 'NONE',  ( 0.0000000000000000000, 0.0000000000000000000, 1.250000000000000000 ) ) ;
#201 = CIRCLE ( 'NONE', #288, 0.2975000000000003197 ) ;
#202 = PRESENTATION_STYLE_ASSIGNMENT (( #279 ) ) ;
#203 = ORIENTED_EDGE ( 'NONE', *, *, #204, .F. ) ;
#204 = EDGE_CURVE ( 'NONE', #24, #197, #308, .T. ) ;
#205 =( NAMED_UNIT ( * ) SI_UNIT ( $, .STERADIAN. ) SOLID_ANGLE_UNIT ( ) );
#206 = VERTEX_POINT ( 'NONE', #174 ) ;
#207 = CLOSED_SHELL ( 'NONE', ( #106, #256, #270, #232, #92, #228, #328, #164, #113, #239, #310 ) ) ;
#208 = CONICAL_SURFACE ( 'NONE', #41, 0.007499999999999999722, 1.047197551196600518 ) ;
#209 = CONICAL_SURFACE ( 'NONE', #42, 0.2975000000000003197, 0.7853981633974300713 ) ;
#210 = ORIENTED_EDGE ( 'NONE', *, *, #300, .T. ) ;
#211 = EDGE_LOOP ( 'NONE', ( #28, #180, #78, #276 ) ) ;
#212 = FACE_OUTER_BOUND ( 'NONE', #252, .T. ) ;
#213 = SURFACE_STYLE_FILL_AREA ( #141 ) ;
#214 = SURFACE_STYLE_USAGE ( .BOTH. , #311 ) ;
#215 = CARTESIAN_POINT ( 'NONE',  ( 0.0000000000000000000, 0.0000000000000000000, 3.500000000000000000 ) ) ;
#216 = PLANE ( 'NONE',  #289 ) ;
#217 = CARTESIAN_POINT ( 'NONE',  ( -0.3125000000000000000, 0.0000000000000000000, 3.500000000000000000 ) ) ;
#218 = CYLINDRICAL_SURFACE ( 'NONE', #112, 0.3124500000000001720 ) ;
#219 = VECTOR ( 'NONE', #60, 39.37007874015748143 ) ;
#220 = CARTESIAN_POINT ( 'NONE',  ( 0.0000000000000000000, 0.0000000000000000000, 3.500000000000000000 ) ) ;
#221 = COLOUR_RGB ( '',0.7921568627450980005, 0.8196078431372548767, 0.9333333333333333481 ) ;
#222 = DIMENSIONAL_EXPONENTS ( 1.000000000000000000, 0.0000000000000000000, 0.0000000000000000000, 0.0000000000000000000, 0.0000000000000000000, 0.0000000000000000000, 0.0000000000000000000 ) ;
#223 = EDGE_CURVE ( 'NONE', #301, #135, #261, .T. ) ;
#224 = LINE ( 'NONE', #145, #136 ) ;
#225 = DIRECTION ( 'NONE',  ( -1.000000000000000000, 0.0000000000000000000, 0.0000000000000000000 ) ) ;
#226 = ORIENTED_EDGE ( 'NONE', *, *, #243, .F. ) ;
#227 = APPLICATION_PROTOCOL_DEFINITION ( 'draft international standard', 'automotive_design', 1998, #316 ) ;
#228 = ADVANCED_FACE ( 'NONE', ( #295 ), #68, .T. ) ;
#229 =( NAMED_UNIT ( * ) PLANE_ANGLE_UNIT ( ) SI_UNIT ( $, .RADIAN. ) );
#230 = ORIENTED_EDGE ( 'NONE', *, *, #58, .T. ) ;
#231 = CONICAL_SURFACE ( 'NONE', #157, 0.2975000000000003197, 0.7853981633974300713 ) ;
#232 = ADVANCED_FACE ( 'NONE', ( #242 ), #266, .T. ) ;
#233 = DIRECTION ( 'NONE',  ( 0.0000000000000000000, 0.0000000000000000000, -1.000000000000000000 ) ) ;
#234 = ORIENTED_EDGE ( 'NONE', *, *, #142, .F. ) ;
#235 = DIRECTION ( 'NONE',  ( 0.0000000000000000000, 0.0000000000000000000, -1.000000000000000000 ) ) ;
#236 = CARTESIAN_POINT ( 'NONE',  ( 0.007499999999999999722, 0.0000000000000000000, 1.707404996040164512E-17 ) ) ;
#237 = DIRECTION ( 'NONE',  ( -1.000000000000000000, 0.0000000000000000000, 0.0000000000000000000 ) ) ;
#238 = PLANE ( 'NONE',  #146 ) ;
#239 = ADVANCED_FACE ( 'NONE', ( #241 ), #218, .T. ) ;
#240 = DIRECTION ( 'NONE',  ( -1.000000000000000000, 0.0000000000000000000, 0.0000000000000000000 ) ) ;
#241 = FACE_OUTER_BOUND ( 'NONE', #296, .T. ) ;
#242 = FACE_OUTER_BOUND ( 'NONE', #211, .T. ) ;
#243 = EDGE_CURVE ( 'NONE', #197, #24, #245, .T. ) ;
#244 = DIRECTION ( 'NONE',  ( -1.000000000000000000, 0.0000000000000000000, 0.0000000000000000000 ) ) ;
#245 = CIRCLE ( 'NONE', #151, 0.007499999999999999722 ) ;
#246 = DIRECTION ( 'NONE',  ( -1.000000000000000000, 0.0000000000000000000, 0.0000000000000000000 ) ) ;
#247 =( NAMED_UNIT ( * ) PLANE_ANGLE_UNIT ( ) SI_UNIT ( $, .RADIAN. ) );
#248 = ORIENTED_EDGE ( 'NONE', *, *, #275, .F. ) ;
#249 = DIRECTION ( 'NONE',  ( 1.000000000000000000, 0.0000000000000000000, 0.0000000000000000000 ) ) ;
#250 = EDGE_CURVE ( 'NONE', #327, #46, #282, .T. ) ;
#251 = AXIS2_PLACEMENT_3D ( 'NONE', #170, #272, #171 ) ;
#252 = EDGE_LOOP ( 'NONE', ( #329, #57, #254, #248 ) ) ;
#253 = SURFACE_SIDE_STYLE ('',( #182 ) ) ;
#254 = ORIENTED_EDGE ( 'NONE', *, *, #198, .T. ) ;
#255 = CARTESIAN_POINT ( 'NONE',  ( 0.0000000000000000000, 0.0000000000000000000, 0.1760629645893753426 ) ) ;
#256 = ADVANCED_FACE ( 'NONE', ( #128 ), #175, .T. ) ;
#257 = EDGE_LOOP ( 'NONE', ( #173, #199, #114, #69 ) ) ;
#258 = UNCERTAINTY_MEASURE_WITH_UNIT (LENGTH_MEASURE( 1.000000000000000082E-05 ), #36, 'distance_accuracy_value', 'NONE');
#259 = LENGTH_MEASURE_WITH_UNIT ( LENGTH_MEASURE( 0.02539999999999999897 ), #192 );
#260 = LINE ( 'NONE', #285, #219 ) ;
#261 = CIRCLE ( 'NONE', #103, 0.3124500000000002276 ) ;
#262 = FILL_AREA_STYLE_COLOUR ( '', #221 ) ;
#263 = EDGE_LOOP ( 'NONE', ( #210, #35 ) ) ;
#264 = DIRECTION ( 'NONE',  ( 1.000000000000000000, 0.0000000000000000000, 0.0000000000000000000 ) ) ;
#265 = CARTESIAN_POINT ( 'NONE',  ( -0.2975000000000003197, 0.0000000000000000000, 3.500000000000000000 ) ) ;
#266 = CYLINDRICAL_SURFACE ( 'NONE', #303, 0.3125000000000000000 ) ;
#267 = ORIENTED_EDGE ( 'NONE', *, *, #185, .T. ) ;
#268 = DIRECTION ( 'NONE',  ( 0.8660254037844400399, 0.0000000000000000000, 0.4999999999999976685 ) ) ;
#269 = DIRECTION ( 'NONE',  ( -0.0000000000000000000, -0.0000000000000000000, -1.000000000000000000 ) ) ;
#270 = ADVANCED_FACE ( 'NONE', ( #102 ), #231, .T. ) ;
#271 = VECTOR ( 'NONE', #268, 39.37007874015748143 ) ;
#272 = DIRECTION ( 'NONE',  ( 0.0000000000000000000, 0.0000000000000000000, 1.000000000000000000 ) ) ;
#273 = LENGTH_MEASURE_WITH_UNIT ( LENGTH_MEASURE( 0.02539999999999999897 ), #107 );
#274 = VERTEX_POINT ( 'NONE', #71 ) ;
#275 = EDGE_CURVE ( 'NONE', #274, #302, #1, .T. ) ;
#276 = ORIENTED_EDGE ( 'NONE', *, *, #198, .F. ) ;
#277 = AXIS2_PLACEMENT_3D ( 'NONE', #62, #235, #184 ) ;
#278 = AXIS2_PLACEMENT_3D ( 'NONE', #281, #14, #120 ) ;
#279 = SURFACE_STYLE_USAGE ( .BOTH. , #253 ) ;
#280 = EDGE_LOOP ( 'NONE', ( #161, #105 ) ) ;
#281 = CARTESIAN_POINT ( 'NONE',  ( 0.0000000000000000000, 0.0000000000000000000, 0.0000000000000000000 ) ) ;
#282 = CIRCLE ( 'NONE', #2, 0.3124500000000001165 ) ;
#283 =( NAMED_UNIT ( * ) SI_UNIT ( $, .STERADIAN. ) SOLID_ANGLE_UNIT ( ) );
#284 = EDGE_CURVE ( 'NONE', #206, #274, #224, .T. ) ;
#285 = CARTESIAN_POINT ( 'NONE',  ( -0.007499999999999999722, 9.184850993605147975E-19, 1.707404996040164512E-17 ) ) ;
#286 = CARTESIAN_POINT ( 'NONE',  ( 0.3124500000000001720, 3.826408923935906669E-17, 0.0000000000000000000 ) ) ;
#287 = VECTOR ( 'NONE', #38, 39.37007874015748143 ) ;
#288 = AXIS2_PLACEMENT_3D ( 'NONE', #215, #149, #264 ) ;
#289 = AXIS2_PLACEMENT_3D ( 'NONE', #315, #94, #195 ) ;
#290 = FACE_OUTER_BOUND ( 'NONE', #257, .T. ) ;
#291 = DIRECTION ( 'NONE',  ( -0.0000000000000000000, 0.0000000000000000000, -1.000000000000000000 ) ) ;
#292 = CARTESIAN_POINT ( 'NONE',  ( -0.2975000000000003197, 0.0000000000000000000, 3.500000000000000000 ) ) ;
#293 = CARTESIAN_POINT ( 'NONE',  ( 0.0000000000000000000, 0.0000000000000000000, 1.707404996040164512E-17 ) ) ;
#294 = AXIS2_PLACEMENT_3D ( 'NONE', #255, #306, #29 ) ;
#295 = FACE_OUTER_BOUND ( 'NONE', #54, .T. ) ;
#296 = EDGE_LOOP ( 'NONE', ( #305, #6, #110, #130 ) ) ;
#297 = DIRECTION ( 'NONE',  ( 0.0000000000000000000, 0.0000000000000000000, -1.000000000000000000 ) ) ;
#298 = AXIS2_PLACEMENT_3D ( 'NONE', #168, #144, #314 ) ;
#299 = DIRECTION ( 'NONE',  ( -0.0000000000000000000, -0.0000000000000000000, -1.000000000000000000 ) ) ;
#300 = EDGE_CURVE ( 'NONE', #302, #274, #313, .T. ) ;
#301 = VERTEX_POINT ( 'NONE', #40 ) ;
#302 = VERTEX_POINT ( 'NONE', #16 ) ;
#303 = AXIS2_PLACEMENT_3D ( 'NONE', #51, #269, #319 ) ;
#304 = LENGTH_MEASURE_WITH_UNIT ( LENGTH_MEASURE( 0.02539999999999999897 ), #82 );
#305 = ORIENTED_EDGE ( 'NONE', *, *, #19, .F. ) ;
#306 = DIRECTION ( 'NONE',  ( -0.0000000000000000000, -0.0000000000000000000, -1.000000000000000000 ) ) ;
#307 = DIRECTION ( 'NONE',  ( -0.0000000000000000000, -0.0000000000000000000, -1.000000000000000000 ) ) ;
#308 = CIRCLE ( 'NONE', #189, 0.007499999999999999722 ) ;
#309 =( GEOMETRIC_REPRESENTATION_CONTEXT ( 3 ) GLOBAL_UNCERTAINTY_ASSIGNED_CONTEXT ( ( #7 ) ) GLOBAL_UNIT_ASSIGNED_CONTEXT ( ( #5, #229, #33 ) ) REPRESENTATION_CONTEXT ( 'NONE', 'WORKASPACE' ) );
#310 = ADVANCED_FACE ( 'NONE', ( #124 ), #216, .F. ) ;
#311 = SURFACE_SIDE_STYLE ('',( #213 ) ) ;
#312 = CARTESIAN_POINT ( 'NONE',  ( -0.3125000000000000000, 0.0000000000000000000, 3.484999999999999432 ) ) ;
#313 = CIRCLE ( 'NONE', #66, 0.3125000000000000000 ) ;
#314 = DIRECTION ( 'NONE',  ( 1.000000000000000000, 0.0000000000000000000, 0.0000000000000000000 ) ) ;
#315 = CARTESIAN_POINT ( 'NONE',  ( 0.0000000000000000000, 0.0000000000000000000, 0.0000000000000000000 ) ) ;
#316 = APPLICATION_CONTEXT ( 'automotive_design' ) ;
#317 = CARTESIAN_POINT ( 'NONE',  ( 0.0000000000000000000, 0.0000000000000000000, 3.500000000000000000 ) ) ;
#318 = DIRECTION ( 'NONE',  ( 1.000000000000000000, 0.0000000000000000000, 0.0000000000000000000 ) ) ;
#319 = DIRECTION ( 'NONE',  ( -1.000000000000000000, 0.0000000000000000000, 0.0000000000000000000 ) ) ;
#320 = CARTESIAN_POINT ( 'NONE',  ( 0.0000000000000000000, 0.0000000000000000000, 1.250000000000000000 ) ) ;
#321 = ADVANCED_BREP_SHAPE_REPRESENTATION ( 'Micro_DM-625-4120', ( #118, #158 ), #309 ) ;
#322 = DIRECTION ( 'NONE',  ( -1.000000000000000000, 0.0000000000000000000, 0.0000000000000000000 ) ) ;
#323 = EDGE_CURVE ( 'NONE', #46, #327, #22, .T. ) ;
#324 = AXIS2_PLACEMENT_3D ( 'NONE', #140, #307, #237 ) ;
#325 = STYLED_ITEM ( 'NONE', ( #85 ), #118 ) ;
#326 = COLOUR_RGB ( '',0.7921568627450980005, 0.8196078431372548767, 0.9333333333333333481 ) ;
#327 = VERTEX_POINT ( 'NONE', #181 ) ;
#328 = ADVANCED_FACE ( 'NONE', ( #109 ), #209, .T. ) ;
#329 = ORIENTED_EDGE ( 'NONE', *, *, #284, .F. ) ;
ENDSEC;
END-ISO-10303-21;
