ISO-10303-21;
HEADER;
FILE_DESCRIPTION (( 'STEP AP214' ),
    '1' );
FILE_NAME ('59854W.STEP',
    '2023-06-22T23:44:59',
    ( '' ),
    ( '' ),
    'SwSTEP 2.0',
    'SolidWorks 2023',
    '' );
FILE_SCHEMA (( 'AUTOMOTIVE_DESIGN' ));
ENDSEC;

DATA;
#1 = AXIS2_PLACEMENT_3D ( 'NONE', #168, #78, #55 ) ;
#2 = CYLINDRICAL_SURFACE ( 'NONE', #1, 0.3750000000000000555 ) ;
#3 = DIRECTION ( 'NONE',  ( -4.453261087808557677E-17, 1.000000000000000000, 0.000000000000000000 ) ) ;
#4 =( LENGTH_UNIT ( ) NAMED_UNIT ( * ) SI_UNIT ( $, .METRE. ) );
#5 = DIRECTION ( 'NONE',  ( 0.000000000000000000, -1.000000000000000000, -0.000000000000000000 ) ) ;
#6 = FILL_AREA_STYLE ('',( #105 ) ) ;
#7 = ORIENTED_EDGE ( 'NONE', *, *, #148, .T. ) ;
#8 = DIRECTION ( 'NONE',  ( -4.453261087808557677E-17, 1.000000000000000000, -0.000000000000000000 ) ) ;
#9 = LENGTH_MEASURE_WITH_UNIT ( LENGTH_MEASURE( 0.02539999999999999897 ), #153 );
#10 = VERTEX_POINT ( 'NONE', #206 ) ;
#11 = STYLED_ITEM ( 'NONE', ( #109 ), #121 ) ;
#12 = CYLINDRICAL_SURFACE ( 'NONE', #177, 0.3750000000000001110 ) ;
#13 = ORIENTED_EDGE ( 'NONE', *, *, #239, .T. ) ;
#14 = EDGE_CURVE ( 'NONE', #191, #309, #94, .T. ) ;
#15 = DIRECTION ( 'NONE',  ( -0.000000000000000000, -1.000000000000000000, -0.000000000000000000 ) ) ;
#16 = VERTEX_POINT ( 'NONE', #123 ) ;
#17 = CLOSED_SHELL ( 'NONE', ( #175, #303, #282, #39 ) ) ;
#18 = PRESENTATION_LAYER_ASSIGNMENT (  '', '', ( #234 ) ) ;
#19 = ORIENTED_EDGE ( 'NONE', *, *, #193, .T. ) ;
#20 = PRESENTATION_STYLE_ASSIGNMENT (( #240 ) ) ;
#21 = CLOSED_SHELL ( 'NONE', ( #127, #269, #285, #121 ) ) ;
#22 = PRODUCT_DEFINITION ( 'UNKNOWN', '', #210, #276 ) ;
#23 = APPLICATION_PROTOCOL_DEFINITION ( 'draft international standard', 'automotive_design', 1998, #171 ) ;
#24 = COLOUR_RGB ( '',1.000000000000000000, 0.000000000000000000, 0.000000000000000000 ) ;
#25 = SURFACE_SIDE_STYLE ('',( #198 ) ) ;
#26 = PRODUCT_RELATED_PRODUCT_CATEGORY ( 'part', '', ( #236 ) ) ;
#27 = EDGE_LOOP ( 'NONE', ( #305, #144 ) ) ;
#28 = DIMENSIONAL_EXPONENTS ( 1.000000000000000000, 0.000000000000000000, 0.000000000000000000, 0.000000000000000000, 0.000000000000000000, 0.000000000000000000, 0.000000000000000000 ) ;
#29 = APPLICATION_CONTEXT ( 'automotive_design' ) ;
#30 =( NAMED_UNIT ( * ) SI_UNIT ( $, .STERADIAN. ) SOLID_ANGLE_UNIT ( ) );
#31 = CARTESIAN_POINT ( 'NONE',  ( -0.3750000000000002776, 5.000000000000000000, 0.000000000000000000 ) ) ;
#32 =( NAMED_UNIT ( * ) PLANE_ANGLE_UNIT ( ) SI_UNIT ( $, .RADIAN. ) );
#33 =( NAMED_UNIT ( * ) SI_UNIT ( $, .STERADIAN. ) SOLID_ANGLE_UNIT ( ) );
#34 = VECTOR ( 'NONE', #271, 39.37007874015748143 ) ;
#35 = SURFACE_STYLE_USAGE ( .BOTH. , #201 ) ;
#36 = DIRECTION ( 'NONE',  ( -4.453261087808557677E-17, 1.000000000000000000, -0.000000000000000000 ) ) ;
#37 = ORIENTED_EDGE ( 'NONE', *, *, #193, .F. ) ;
#38 =( NAMED_UNIT ( * ) SI_UNIT ( $, .STERADIAN. ) SOLID_ANGLE_UNIT ( ) );
#39 = ADVANCED_FACE ( 'NONE', ( #307 ), #98, .F. ) ;
#40 = ORIENTED_EDGE ( 'NONE', *, *, #187, .F. ) ;
#41 = VECTOR ( 'NONE', #15, 39.37007874015748143 ) ;
#42 =( GEOMETRIC_REPRESENTATION_CONTEXT ( 3 ) GLOBAL_UNCERTAINTY_ASSIGNED_CONTEXT ( ( #130 ) ) GLOBAL_UNIT_ASSIGNED_CONTEXT ( ( #251, #185, #38 ) ) REPRESENTATION_CONTEXT ( 'NONE', 'WORKASPACE' ) );
#43 = DIRECTION ( 'NONE',  ( -1.000000000000000000, 0.000000000000000000, 0.000000000000000000 ) ) ;
#44 = ORIENTED_EDGE ( 'NONE', *, *, #216, .T. ) ;
#45 = UNCERTAINTY_MEASURE_WITH_UNIT (LENGTH_MEASURE( 1.000000000000000082E-05 ), #154, 'distance_accuracy_value', 'NONE');
#46 = CARTESIAN_POINT ( 'NONE',  ( -0.3750000000000000555, 2.250000000000000444, 0.000000000000000000 ) ) ;
#47 = VERTEX_POINT ( 'NONE', #245 ) ;
#48 = DIRECTION ( 'NONE',  ( -0.000000000000000000, -1.000000000000000000, -0.000000000000000000 ) ) ;
#49 = SURFACE_SIDE_STYLE ('',( #80 ) ) ;
#50 = DIRECTION ( 'NONE',  ( 1.000000000000000000, 4.453261087808557677E-17, 0.000000000000000000 ) ) ;
#51 =( CONVERSION_BASED_UNIT ( 'INCH', #79 ) LENGTH_UNIT ( ) NAMED_UNIT ( #64 ) );
#52 = EDGE_CURVE ( 'NONE', #191, #229, #103, .T. ) ;
#53 = FILL_AREA_STYLE ('',( #149 ) ) ;
#54 = MECHANICAL_DESIGN_GEOMETRIC_PRESENTATION_REPRESENTATION (  '', ( #11 ), #138 ) ;
#55 = DIRECTION ( 'NONE',  ( 0.000000000000000000, 0.000000000000000000, -1.000000000000000000 ) ) ;
#56 = DIRECTION ( 'NONE',  ( 4.453261087808557677E-17, -1.000000000000000000, 0.000000000000000000 ) ) ;
#57 = CARTESIAN_POINT ( 'NONE',  ( 1.516480271171051896E-32, 2.250000000000000444, 0.000000000000000000 ) ) ;
#58 = CARTESIAN_POINT ( 'NONE',  ( 0.000000000000000000, 0.000000000000000000, 0.000000000000000000 ) ) ;
#59 = PRESENTATION_LAYER_ASSIGNMENT (  '', '', ( #11 ) ) ;
#60 = FILL_AREA_STYLE ('',( #112 ) ) ;
#61 = CIRCLE ( 'NONE', #83, 0.3750000000000000555 ) ;
#62 = CARTESIAN_POINT ( 'NONE',  ( 0.000000000000000000, 0.000000000000000000, 0.000000000000000000 ) ) ;
#63 = EDGE_CURVE ( 'NONE', #309, #47, #157, .T. ) ;
#64 = DIMENSIONAL_EXPONENTS ( 1.000000000000000000, 0.000000000000000000, 0.000000000000000000, 0.000000000000000000, 0.000000000000000000, 0.000000000000000000, 0.000000000000000000 ) ;
#65 = SURFACE_STYLE_FILL_AREA ( #60 ) ;
#66 = AXIS2_PLACEMENT_3D ( 'NONE', #300, #164, #69 ) ;
#67 = DIMENSIONAL_EXPONENTS ( 1.000000000000000000, 0.000000000000000000, 0.000000000000000000, 0.000000000000000000, 0.000000000000000000, 0.000000000000000000, 0.000000000000000000 ) ;
#68 = UNCERTAINTY_MEASURE_WITH_UNIT (LENGTH_MEASURE( 1.000000000000000082E-05 ), #174, 'distance_accuracy_value', 'NONE');
#69 = DIRECTION ( 'NONE',  ( 0.000000000000000000, 0.000000000000000000, -1.000000000000000000 ) ) ;
#70 = SURFACE_STYLE_FILL_AREA ( #92 ) ;
#71 = CARTESIAN_POINT ( 'NONE',  ( -1.224646799147353207E-16, 5.000000000000000000, 0.000000000000000000 ) ) ;
#72 = PRESENTATION_LAYER_ASSIGNMENT (  '', '', ( #199 ) ) ;
#73 =( GEOMETRIC_REPRESENTATION_CONTEXT ( 3 ) GLOBAL_UNCERTAINTY_ASSIGNED_CONTEXT ( ( #87 ) ) GLOBAL_UNIT_ASSIGNED_CONTEXT ( ( #180, #89, #220 ) ) REPRESENTATION_CONTEXT ( 'NONE', 'WORKASPACE' ) );
#74 = FILL_AREA_STYLE_COLOUR ( '', #163 ) ;
#75 = ORIENTED_EDGE ( 'NONE', *, *, #223, .F. ) ;
#76 = DIRECTION ( 'NONE',  ( -4.453261087808557677E-17, 1.000000000000000000, -0.000000000000000000 ) ) ;
#77 = ADVANCED_BREP_SHAPE_REPRESENTATION ( '59854W', ( #294, #292, #128 ), #73 ) ;
#78 = DIRECTION ( 'NONE',  ( -0.000000000000000000, -1.000000000000000000, -0.000000000000000000 ) ) ;
#79 = LENGTH_MEASURE_WITH_UNIT ( LENGTH_MEASURE( 0.02539999999999999897 ), #243 );
#80 = SURFACE_STYLE_FILL_AREA ( #261 ) ;
#81 =( LENGTH_UNIT ( ) NAMED_UNIT ( * ) SI_UNIT ( $, .METRE. ) );
#82 = CIRCLE ( 'NONE', #66, 0.3750000000000000555 ) ;
#83 = AXIS2_PLACEMENT_3D ( 'NONE', #227, #48, #306 ) ;
#84 = EDGE_CURVE ( 'NONE', #141, #16, #146, .T. ) ;
#85 = FACE_OUTER_BOUND ( 'NONE', #189, .T. ) ;
#86 = CARTESIAN_POINT ( 'NONE',  ( -1.224646799147353207E-16, 5.000000000000000000, 0.000000000000000000 ) ) ;
#87 = UNCERTAINTY_MEASURE_WITH_UNIT (LENGTH_MEASURE( 1.000000000000000082E-05 ), #180, 'distance_accuracy_value', 'NONE');
#88 =( GEOMETRIC_REPRESENTATION_CONTEXT ( 3 ) GLOBAL_UNCERTAINTY_ASSIGNED_CONTEXT ( ( #226 ) ) GLOBAL_UNIT_ASSIGNED_CONTEXT ( ( #150, #91, #270 ) ) REPRESENTATION_CONTEXT ( 'NONE', 'WORKASPACE' ) );
#89 =( NAMED_UNIT ( * ) PLANE_ANGLE_UNIT ( ) SI_UNIT ( $, .RADIAN. ) );
#90 = CARTESIAN_POINT ( 'NONE',  ( 0.000000000000000000, 2.250000000000000000, 0.000000000000000000 ) ) ;
#91 =( NAMED_UNIT ( * ) PLANE_ANGLE_UNIT ( ) SI_UNIT ( $, .RADIAN. ) );
#92 = FILL_AREA_STYLE ('',( #74 ) ) ;
#93 = FACE_OUTER_BOUND ( 'NONE', #232, .T. ) ;
#94 = LINE ( 'NONE', #165, #280 ) ;
#95 = CARTESIAN_POINT ( 'NONE',  ( 0.3749999999999999445, 5.000000000000000000, 4.592425496802576068E-17 ) ) ;
#96 = ORIENTED_EDGE ( 'NONE', *, *, #14, .F. ) ;
#97 = CARTESIAN_POINT ( 'NONE',  ( 0.000000000000000000, 0.000000000000000000, -0.3750000000000000555 ) ) ;
#98 = PLANE ( 'NONE',  #115 ) ;
#99 = EDGE_LOOP ( 'NONE', ( #40, #167, #179, #37 ) ) ;
#100 = EDGE_CURVE ( 'NONE', #16, #256, #197, .T. ) ;
#101 = SURFACE_STYLE_USAGE ( .BOTH. , #129 ) ;
#102 =( LENGTH_UNIT ( ) NAMED_UNIT ( * ) SI_UNIT ( $, .METRE. ) );
#103 = CIRCLE ( 'NONE', #131, 0.3750000000000000555 ) ;
#104 = LENGTH_MEASURE_WITH_UNIT ( LENGTH_MEASURE( 0.02539999999999999897 ), #218 );
#105 = FILL_AREA_STYLE_COLOUR ( '', #24 ) ;
#106 = EDGE_LOOP ( 'NONE', ( #202, #7, #116, #96 ) ) ;
#107 = EDGE_CURVE ( 'NONE', #229, #191, #213, .T. ) ;
#108 = DIRECTION ( 'NONE',  ( 0.000000000000000000, 0.000000000000000000, 1.000000000000000000 ) ) ;
#109 = PRESENTATION_STYLE_ASSIGNMENT (( #35 ) ) ;
#110 = CIRCLE ( 'NONE', #190, 0.3750000000000001665 ) ;
#111 = DIRECTION ( 'NONE',  ( -1.000000000000000000, -4.453261087808557677E-17, 0.000000000000000000 ) ) ;
#112 = FILL_AREA_STYLE_COLOUR ( '', #183 ) ;
#113 = DIRECTION ( 'NONE',  ( 0.000000000000000000, 0.000000000000000000, -1.000000000000000000 ) ) ;
#114 = LINE ( 'NONE', #208, #41 ) ;
#115 = AXIS2_PLACEMENT_3D ( 'NONE', #263, #56, #50 ) ;
#116 = ORIENTED_EDGE ( 'NONE', *, *, #63, .F. ) ;
#117 = STYLED_ITEM ( 'NONE', ( #308 ), #292 ) ;
#118 = CARTESIAN_POINT ( 'NONE',  ( 0.000000000000000000, 2.250000000000000000, 0.000000000000000000 ) ) ;
#119 = ORIENTED_EDGE ( 'NONE', *, *, #100, .F. ) ;
#120 = FACE_OUTER_BOUND ( 'NONE', #99, .T. ) ;
#121 = ADVANCED_FACE ( 'NONE', ( #85 ), #268, .T. ) ;
#122 = DIRECTION ( 'NONE',  ( -1.000000000000000000, 0.000000000000000000, 0.000000000000000000 ) ) ;
#123 = CARTESIAN_POINT ( 'NONE',  ( 0.000000000000000000, 2.250000000000000000, -0.3750000000000000555 ) ) ;
#124 = AXIS2_PLACEMENT_3D ( 'NONE', #90, #221, #290 ) ;
#125 =( GEOMETRIC_REPRESENTATION_CONTEXT ( 3 ) GLOBAL_UNCERTAINTY_ASSIGNED_CONTEXT ( ( #287 ) ) GLOBAL_UNIT_ASSIGNED_CONTEXT ( ( #194, #211, #244 ) ) REPRESENTATION_CONTEXT ( 'NONE', 'WORKASPACE' ) );
#126 = FILL_AREA_STYLE ('',( #264 ) ) ;
#127 = ADVANCED_FACE ( 'NONE', ( #247 ), #267, .T. ) ;
#128 = AXIS2_PLACEMENT_3D ( 'NONE', #58, #108, #173 ) ;
#129 = SURFACE_SIDE_STYLE ('',( #215 ) ) ;
#130 = UNCERTAINTY_MEASURE_WITH_UNIT (LENGTH_MEASURE( 1.000000000000000082E-05 ), #251, 'distance_accuracy_value', 'NONE');
#131 = AXIS2_PLACEMENT_3D ( 'NONE', #152, #224, #181 ) ;
#132 = STYLED_ITEM ( 'NONE', ( #275 ), #269 ) ;
#133 =( NAMED_UNIT ( * ) PLANE_ANGLE_UNIT ( ) SI_UNIT ( $, .RADIAN. ) );
#134 = APPLICATION_PROTOCOL_DEFINITION ( 'draft international standard', 'automotive_design', 1998, #29 ) ;
#135 = DIMENSIONAL_EXPONENTS ( 1.000000000000000000, 0.000000000000000000, 0.000000000000000000, 0.000000000000000000, 0.000000000000000000, 0.000000000000000000, 0.000000000000000000 ) ;
#136 = ORIENTED_EDGE ( 'NONE', *, *, #107, .T. ) ;
#137 = PRODUCT_CONTEXT ( 'NONE', #29, 'mechanical' ) ;
#138 =( GEOMETRIC_REPRESENTATION_CONTEXT ( 3 ) GLOBAL_UNCERTAINTY_ASSIGNED_CONTEXT ( ( #68 ) ) GLOBAL_UNIT_ASSIGNED_CONTEXT ( ( #174, #133, #30 ) ) REPRESENTATION_CONTEXT ( 'NONE', 'WORKASPACE' ) );
#139 = CARTESIAN_POINT ( 'NONE',  ( -1.224646799147353207E-16, 5.000000000000000000, 0.000000000000000000 ) ) ;
#140 = MECHANICAL_DESIGN_GEOMETRIC_PRESENTATION_REPRESENTATION (  '', ( #199 ), #288 ) ;
#141 = VERTEX_POINT ( 'NONE', #228 ) ;
#142 = DIRECTION ( 'NONE',  ( -0.000000000000000000, -1.000000000000000000, -0.000000000000000000 ) ) ;
#143 = DIRECTION ( 'NONE',  ( -0.000000000000000000, -1.000000000000000000, -0.000000000000000000 ) ) ;
#144 = ORIENTED_EDGE ( 'NONE', *, *, #107, .F. ) ;
#145 = CARTESIAN_POINT ( 'NONE',  ( 0.000000000000000000, 0.000000000000000000, 0.000000000000000000 ) ) ;
#146 = CIRCLE ( 'NONE', #124, 0.3750000000000000555 ) ;
#147 = SURFACE_STYLE_FILL_AREA ( #53 ) ;
#148 = EDGE_CURVE ( 'NONE', #229, #47, #277, .T. ) ;
#149 = FILL_AREA_STYLE_COLOUR ( '', #295 ) ;
#150 =( CONVERSION_BASED_UNIT ( 'INCH', #262 ) LENGTH_UNIT ( ) NAMED_UNIT ( #135 ) );
#151 = CARTESIAN_POINT ( 'NONE',  ( 3.718412684285598933E-34, 2.250000000000000000, 0.000000000000000000 ) ) ;
#152 = CARTESIAN_POINT ( 'NONE',  ( 1.516480271171051896E-32, 2.250000000000000444, 0.000000000000000000 ) ) ;
#153 =( LENGTH_UNIT ( ) NAMED_UNIT ( * ) SI_UNIT ( $, .METRE. ) );
#154 =( CONVERSION_BASED_UNIT ( 'INCH', #178 ) LENGTH_UNIT ( ) NAMED_UNIT ( #67 ) );
#155 = DIMENSIONAL_EXPONENTS ( 1.000000000000000000, 0.000000000000000000, 0.000000000000000000, 0.000000000000000000, 0.000000000000000000, 0.000000000000000000, 0.000000000000000000 ) ;
#156 = PRESENTATION_STYLE_ASSIGNMENT (( #219 ) ) ;
#157 = CIRCLE ( 'NONE', #298, 0.3750000000000001665 ) ;
#158 = AXIS2_PLACEMENT_3D ( 'NONE', #304, #142, #203 ) ;
#159 = DIRECTION ( 'NONE',  ( -4.453261087808557677E-17, 1.000000000000000000, -0.000000000000000000 ) ) ;
#160 = STYLED_ITEM ( 'NONE', ( #20 ), #285 ) ;
#161 = CARTESIAN_POINT ( 'NONE',  ( 0.3750000000000000555, 2.250000000000000444, 4.592425496802576684E-17 ) ) ;
#162 = SURFACE_SIDE_STYLE ('',( #70 ) ) ;
#163 = COLOUR_RGB ( '',1.000000000000000000, 0.000000000000000000, 0.000000000000000000 ) ;
#164 = DIRECTION ( 'NONE',  ( -0.000000000000000000, -1.000000000000000000, -0.000000000000000000 ) ) ;
#165 = CARTESIAN_POINT ( 'NONE',  ( -0.3750000000000002220, 5.000000000000000000, 0.000000000000000000 ) ) ;
#166 = DIRECTION ( 'NONE',  ( 0.000000000000000000, 0.000000000000000000, -1.000000000000000000 ) ) ;
#167 = ORIENTED_EDGE ( 'NONE', *, *, #84, .T. ) ;
#168 = CARTESIAN_POINT ( 'NONE',  ( 0.000000000000000000, 0.000000000000000000, 0.000000000000000000 ) ) ;
#169 = AXIS2_PLACEMENT_3D ( 'NONE', #62, #5, #113 ) ;
#170 = MECHANICAL_DESIGN_GEOMETRIC_PRESENTATION_REPRESENTATION (  '', ( #160 ), #125 ) ;
#171 = APPLICATION_CONTEXT ( 'automotive_design' ) ;
#172 = SURFACE_STYLE_USAGE ( .BOTH. , #49 ) ;
#173 = DIRECTION ( 'NONE',  ( 1.000000000000000000, 0.000000000000000000, 0.000000000000000000 ) ) ;
#174 =( CONVERSION_BASED_UNIT ( 'INCH', #9 ) LENGTH_UNIT ( ) NAMED_UNIT ( #225 ) );
#175 = ADVANCED_FACE ( 'NONE', ( #258 ), #12, .T. ) ;
#176 = DIRECTION ( 'NONE',  ( -1.000000000000000000, 0.000000000000000000, 0.000000000000000000 ) ) ;
#177 = AXIS2_PLACEMENT_3D ( 'NONE', #139, #76, #122 ) ;
#178 = LENGTH_MEASURE_WITH_UNIT ( LENGTH_MEASURE( 0.02539999999999999897 ), #4 );
#179 = ORIENTED_EDGE ( 'NONE', *, *, #100, .T. ) ;
#180 =( CONVERSION_BASED_UNIT ( 'INCH', #104 ) LENGTH_UNIT ( ) NAMED_UNIT ( #155 ) );
#181 = DIRECTION ( 'NONE',  ( -1.000000000000000000, 0.000000000000000000, 0.000000000000000000 ) ) ;
#182 = EDGE_LOOP ( 'NONE', ( #13, #235, #212, #119 ) ) ;
#183 = COLOUR_RGB ( '',1.000000000000000000, 0.000000000000000000, 0.000000000000000000 ) ;
#184 = MECHANICAL_DESIGN_GEOMETRIC_PRESENTATION_REPRESENTATION (  '', ( #117 ), #289 ) ;
#185 =( NAMED_UNIT ( * ) PLANE_ANGLE_UNIT ( ) SI_UNIT ( $, .RADIAN. ) );
#186 = ORIENTED_EDGE ( 'NONE', *, *, #84, .F. ) ;
#187 = EDGE_CURVE ( 'NONE', #141, #10, #114, .T. ) ;
#188 = CYLINDRICAL_SURFACE ( 'NONE', #299, 0.3750000000000001110 ) ;
#189 = EDGE_LOOP ( 'NONE', ( #44, #19 ) ) ;
#190 = AXIS2_PLACEMENT_3D ( 'NONE', #204, #36, #231 ) ;
#191 = VERTEX_POINT ( 'NONE', #46 ) ;
#192 = PRESENTATION_STYLE_ASSIGNMENT (( #101 ) ) ;
#193 = EDGE_CURVE ( 'NONE', #10, #256, #82, .T. ) ;
#194 =( CONVERSION_BASED_UNIT ( 'INCH', #238 ) LENGTH_UNIT ( ) NAMED_UNIT ( #28 ) );
#195 = AXIS2_PLACEMENT_3D ( 'NONE', #145, #143, #166 ) ;
#196 = AXIS2_PLACEMENT_3D ( 'NONE', #151, #3, #111 ) ;
#197 = LINE ( 'NONE', #266, #34 ) ;
#198 = SURFACE_STYLE_FILL_AREA ( #6 ) ;
#199 = STYLED_ITEM ( 'NONE', ( #156 ), #127 ) ;
#200 = PRESENTATION_LAYER_ASSIGNMENT (  '', '', ( #117 ) ) ;
#201 = SURFACE_SIDE_STYLE ('',( #65 ) ) ;
#202 = ORIENTED_EDGE ( 'NONE', *, *, #52, .T. ) ;
#203 = DIRECTION ( 'NONE',  ( 0.000000000000000000, 0.000000000000000000, -1.000000000000000000 ) ) ;
#204 = CARTESIAN_POINT ( 'NONE',  ( -1.224646799147353207E-16, 5.000000000000000000, 0.000000000000000000 ) ) ;
#205 = DIRECTION ( 'NONE',  ( 0.000000000000000000, 1.000000000000000000, 0.000000000000000000 ) ) ;
#206 = CARTESIAN_POINT ( 'NONE',  ( 4.592425496802575451E-17, 0.000000000000000000, 0.3750000000000000555 ) ) ;
#207 = DIRECTION ( 'NONE',  ( -4.453261087808557677E-17, 1.000000000000000000, -0.000000000000000000 ) ) ;
#208 = CARTESIAN_POINT ( 'NONE',  ( 4.592425496802575451E-17, 0.000000000000000000, 0.3750000000000000555 ) ) ;
#209 = VECTOR ( 'NONE', #207, 39.37007874015748143 ) ;
#210 = PRODUCT_DEFINITION_FORMATION_WITH_SPECIFIED_SOURCE ( 'ANY', '', #236, .NOT_KNOWN. ) ;
#211 =( NAMED_UNIT ( * ) PLANE_ANGLE_UNIT ( ) SI_UNIT ( $, .RADIAN. ) );
#212 = ORIENTED_EDGE ( 'NONE', *, *, #216, .F. ) ;
#213 = CIRCLE ( 'NONE', #241, 0.3750000000000000555 ) ;
#214 = MECHANICAL_DESIGN_GEOMETRIC_PRESENTATION_REPRESENTATION (  '', ( #234 ), #88 ) ;
#215 = SURFACE_STYLE_FILL_AREA ( #126 ) ;
#216 = EDGE_CURVE ( 'NONE', #256, #10, #281, .T. ) ;
#217 = MECHANICAL_DESIGN_GEOMETRIC_PRESENTATION_REPRESENTATION (  '', ( #132 ), #42 ) ;
#218 =( LENGTH_UNIT ( ) NAMED_UNIT ( * ) SI_UNIT ( $, .METRE. ) );
#219 = SURFACE_STYLE_USAGE ( .BOTH. , #25 ) ;
#220 =( NAMED_UNIT ( * ) SI_UNIT ( $, .STERADIAN. ) SOLID_ANGLE_UNIT ( ) );
#221 = DIRECTION ( 'NONE',  ( -0.000000000000000000, -1.000000000000000000, -0.000000000000000000 ) ) ;
#222 = EDGE_LOOP ( 'NONE', ( #279, #186 ) ) ;
#223 = EDGE_CURVE ( 'NONE', #47, #309, #110, .T. ) ;
#224 = DIRECTION ( 'NONE',  ( -4.453261087808557677E-17, 1.000000000000000000, -0.000000000000000000 ) ) ;
#225 = DIMENSIONAL_EXPONENTS ( 1.000000000000000000, 0.000000000000000000, 0.000000000000000000, 0.000000000000000000, 0.000000000000000000, 0.000000000000000000, 0.000000000000000000 ) ;
#226 = UNCERTAINTY_MEASURE_WITH_UNIT (LENGTH_MEASURE( 1.000000000000000082E-05 ), #150, 'distance_accuracy_value', 'NONE');
#227 = CARTESIAN_POINT ( 'NONE',  ( 0.000000000000000000, 2.250000000000000000, 0.000000000000000000 ) ) ;
#228 = CARTESIAN_POINT ( 'NONE',  ( 4.592425496802575451E-17, 2.250000000000000000, 0.3750000000000000555 ) ) ;
#229 = VERTEX_POINT ( 'NONE', #161 ) ;
#230 = SURFACE_STYLE_USAGE ( .BOTH. , #162 ) ;
#231 = DIRECTION ( 'NONE',  ( -1.000000000000000000, 0.000000000000000000, 0.000000000000000000 ) ) ;
#232 = EDGE_LOOP ( 'NONE', ( #252, #136, #272, #75 ) ) ;
#233 = PLANE ( 'NONE',  #248 ) ;
#234 = STYLED_ITEM ( 'NONE', ( #192 ), #294 ) ;
#235 = ORIENTED_EDGE ( 'NONE', *, *, #187, .T. ) ;
#236 = PRODUCT ( '59854W', '59854W', '', ( #137 ) ) ;
#237 = FILL_AREA_STYLE_COLOUR ( '', #242 ) ;
#238 = LENGTH_MEASURE_WITH_UNIT ( LENGTH_MEASURE( 0.02539999999999999897 ), #81 );
#239 = EDGE_CURVE ( 'NONE', #16, #141, #61, .T. ) ;
#240 = SURFACE_STYLE_USAGE ( .BOTH. , #286 ) ;
#241 = AXIS2_PLACEMENT_3D ( 'NONE', #57, #159, #176 ) ;
#242 = COLOUR_RGB ( '',0.7921568627450980005, 0.8196078431372548767, 0.9333333333333333481 ) ;
#243 =( LENGTH_UNIT ( ) NAMED_UNIT ( * ) SI_UNIT ( $, .METRE. ) );
#244 =( NAMED_UNIT ( * ) SI_UNIT ( $, .STERADIAN. ) SOLID_ANGLE_UNIT ( ) );
#245 = CARTESIAN_POINT ( 'NONE',  ( 0.3750000000000000555, 5.000000000000000000, 4.592425496802576684E-17 ) ) ;
#246 = FACE_OUTER_BOUND ( 'NONE', #27, .T. ) ;
#247 = FACE_OUTER_BOUND ( 'NONE', #182, .T. ) ;
#248 = AXIS2_PLACEMENT_3D ( 'NONE', #118, #205, #302 ) ;
#249 = ORIENTED_EDGE ( 'NONE', *, *, #63, .T. ) ;
#250 = UNCERTAINTY_MEASURE_WITH_UNIT (LENGTH_MEASURE( 1.000000000000000082E-05 ), #51, 'distance_accuracy_value', 'NONE');
#251 =( CONVERSION_BASED_UNIT ( 'INCH', #297 ) LENGTH_UNIT ( ) NAMED_UNIT ( #296 ) );
#252 = ORIENTED_EDGE ( 'NONE', *, *, #148, .F. ) ;
#253 = ORIENTED_EDGE ( 'NONE', *, *, #223, .T. ) ;
#254 = PRESENTATION_LAYER_ASSIGNMENT (  '', '', ( #132 ) ) ;
#255 =( LENGTH_UNIT ( ) NAMED_UNIT ( * ) SI_UNIT ( $, .METRE. ) );
#256 = VERTEX_POINT ( 'NONE', #97 ) ;
#257 = DIRECTION ( 'NONE',  ( -4.453261087808557677E-17, 1.000000000000000000, -0.000000000000000000 ) ) ;
#258 = FACE_OUTER_BOUND ( 'NONE', #106, .T. ) ;
#259 = PLANE ( 'NONE',  #196 ) ;
#260 = COLOUR_RGB ( '',0.7921568627450980005, 0.8196078431372548767, 0.9333333333333333481 ) ;
#261 = FILL_AREA_STYLE ('',( #237 ) ) ;
#262 = LENGTH_MEASURE_WITH_UNIT ( LENGTH_MEASURE( 0.02539999999999999897 ), #102 );
#263 = CARTESIAN_POINT ( 'NONE',  ( 0.3750000000000000555, 5.000000000000000000, 0.000000000000000000 ) ) ;
#264 = FILL_AREA_STYLE_COLOUR ( '', #260 ) ;
#265 =( NAMED_UNIT ( * ) PLANE_ANGLE_UNIT ( ) SI_UNIT ( $, .RADIAN. ) );
#266 = CARTESIAN_POINT ( 'NONE',  ( 0.000000000000000000, 0.000000000000000000, -0.3750000000000000555 ) ) ;
#267 = CYLINDRICAL_SURFACE ( 'NONE', #158, 0.3750000000000000555 ) ;
#268 = PLANE ( 'NONE',  #169 ) ;
#269 = ADVANCED_FACE ( 'NONE', ( #283 ), #233, .T. ) ;
#270 =( NAMED_UNIT ( * ) SI_UNIT ( $, .STERADIAN. ) SOLID_ANGLE_UNIT ( ) );
#271 = DIRECTION ( 'NONE',  ( -0.000000000000000000, -1.000000000000000000, -0.000000000000000000 ) ) ;
#272 = ORIENTED_EDGE ( 'NONE', *, *, #14, .T. ) ;
#273 = SHAPE_DEFINITION_REPRESENTATION ( #291, #77 ) ;
#274 = PRESENTATION_LAYER_ASSIGNMENT (  '', '', ( #160 ) ) ;
#275 = PRESENTATION_STYLE_ASSIGNMENT (( #230 ) ) ;
#276 = PRODUCT_DEFINITION_CONTEXT ( 'detailed design', #171, 'design' ) ;
#277 = LINE ( 'NONE', #95, #209 ) ;
#278 = DIRECTION ( 'NONE',  ( -4.453261087808557677E-17, 1.000000000000000000, -0.000000000000000000 ) ) ;
#279 = ORIENTED_EDGE ( 'NONE', *, *, #239, .F. ) ;
#280 = VECTOR ( 'NONE', #257, 39.37007874015748143 ) ;
#281 = CIRCLE ( 'NONE', #195, 0.3750000000000000555 ) ;
#282 = ADVANCED_FACE ( 'NONE', ( #93 ), #188, .T. ) ;
#283 = FACE_OUTER_BOUND ( 'NONE', #222, .T. ) ;
#284 =( NAMED_UNIT ( * ) SI_UNIT ( $, .STERADIAN. ) SOLID_ANGLE_UNIT ( ) );
#285 = ADVANCED_FACE ( 'NONE', ( #120 ), #2, .T. ) ;
#286 = SURFACE_SIDE_STYLE ('',( #147 ) ) ;
#287 = UNCERTAINTY_MEASURE_WITH_UNIT (LENGTH_MEASURE( 1.000000000000000082E-05 ), #194, 'distance_accuracy_value', 'NONE');
#288 =( GEOMETRIC_REPRESENTATION_CONTEXT ( 3 ) GLOBAL_UNCERTAINTY_ASSIGNED_CONTEXT ( ( #45 ) ) GLOBAL_UNIT_ASSIGNED_CONTEXT ( ( #154, #32, #33 ) ) REPRESENTATION_CONTEXT ( 'NONE', 'WORKASPACE' ) );
#289 =( GEOMETRIC_REPRESENTATION_CONTEXT ( 3 ) GLOBAL_UNCERTAINTY_ASSIGNED_CONTEXT ( ( #250 ) ) GLOBAL_UNIT_ASSIGNED_CONTEXT ( ( #51, #265, #284 ) ) REPRESENTATION_CONTEXT ( 'NONE', 'WORKASPACE' ) );
#290 = DIRECTION ( 'NONE',  ( 0.000000000000000000, 0.000000000000000000, -1.000000000000000000 ) ) ;
#291 = PRODUCT_DEFINITION_SHAPE ( 'NONE', 'NONE',  #22 ) ;
#292 = MANIFOLD_SOLID_BREP ( 'Revolve - Tool Body (Straight Shanked)', #17 ) ;
#293 = DIRECTION ( 'NONE',  ( -1.000000000000000000, 0.000000000000000000, 0.000000000000000000 ) ) ;
#294 = MANIFOLD_SOLID_BREP ( 'Revolve - Cutting Edge', #21 ) ;
#295 = COLOUR_RGB ( '',1.000000000000000000, 0.000000000000000000, 0.000000000000000000 ) ;
#296 = DIMENSIONAL_EXPONENTS ( 1.000000000000000000, 0.000000000000000000, 0.000000000000000000, 0.000000000000000000, 0.000000000000000000, 0.000000000000000000, 0.000000000000000000 ) ;
#297 = LENGTH_MEASURE_WITH_UNIT ( LENGTH_MEASURE( 0.02539999999999999897 ), #255 );
#298 = AXIS2_PLACEMENT_3D ( 'NONE', #86, #8, #293 ) ;
#299 = AXIS2_PLACEMENT_3D ( 'NONE', #71, #278, #43 ) ;
#300 = CARTESIAN_POINT ( 'NONE',  ( 0.000000000000000000, 0.000000000000000000, 0.000000000000000000 ) ) ;
#301 = EDGE_LOOP ( 'NONE', ( #249, #253 ) ) ;
#302 = DIRECTION ( 'NONE',  ( 0.000000000000000000, -0.000000000000000000, 1.000000000000000000 ) ) ;
#303 = ADVANCED_FACE ( 'NONE', ( #246 ), #259, .F. ) ;
#304 = CARTESIAN_POINT ( 'NONE',  ( 0.000000000000000000, 0.000000000000000000, 0.000000000000000000 ) ) ;
#305 = ORIENTED_EDGE ( 'NONE', *, *, #52, .F. ) ;
#306 = DIRECTION ( 'NONE',  ( 0.000000000000000000, 0.000000000000000000, -1.000000000000000000 ) ) ;
#307 = FACE_OUTER_BOUND ( 'NONE', #301, .T. ) ;
#308 = PRESENTATION_STYLE_ASSIGNMENT (( #172 ) ) ;
#309 = VERTEX_POINT ( 'NONE', #31 ) ;
ENDSEC;
END-ISO-10303-21;
