ISO-10303-21;
HEADER;
FILE_DESCRIPTION (( 'STEP AP214' ),
    '1' );
FILE_NAME ('24167.STEP',
    '2023-06-22T17:00:13',
    ( '' ),
    ( '' ),
    'SwSTEP 2.0',
    'SolidWorks 2023',
    '' );
FILE_SCHEMA (( 'AUTOMOTIVE_DESIGN' ));
ENDSEC;

DATA;
#1 = DIMENSIONAL_EXPONENTS ( 1.000000000000000000, 0.000000000000000000, 0.000000000000000000, 0.000000000000000000, 0.000000000000000000, 0.000000000000000000, 0.000000000000000000 ) ;
#2 = DIRECTION ( 'NONE',  ( 1.000000000000000000, -1.632862398863137774E-16, 0.000000000000000000 ) ) ;
#3 =( NAMED_UNIT ( * ) SI_UNIT ( $, .STERADIAN. ) SOLID_ANGLE_UNIT ( ) );
#4 = COLOUR_RGB ( '',1.000000000000000000, 0.000000000000000000, 0.000000000000000000 ) ;
#5 = STYLED_ITEM ( 'NONE', ( #255 ), #34 ) ;
#6 = CARTESIAN_POINT ( 'NONE',  ( 0.000000000000000000, 0.5000000000000001110, 0.000000000000000000 ) ) ;
#7 = FACE_OUTER_BOUND ( 'NONE', #197, .T. ) ;
#8 = PRODUCT ( '24167', '24167', '', ( #182 ) ) ;
#9 = STYLED_ITEM ( 'NONE', ( #65 ), #30 ) ;
#10 = AXIS2_PLACEMENT_3D ( 'NONE', #97, #264, #148 ) ;
#11 = DIRECTION ( 'NONE',  ( 0.000000000000000000, 0.000000000000000000, -1.000000000000000000 ) ) ;
#12 = CARTESIAN_POINT ( 'NONE',  ( 0.000000000000000000, 0.000000000000000000, -0.1875000000000000278 ) ) ;
#13 = AXIS2_PLACEMENT_3D ( 'NONE', #211, #169, #147 ) ;
#14 = PRESENTATION_LAYER_ASSIGNMENT (  '', '', ( #188 ) ) ;
#15 = DIRECTION ( 'NONE',  ( 0.000000000000000000, 0.000000000000000000, 1.000000000000000000 ) ) ;
#16 = CIRCLE ( 'NONE', #285, 0.1875000000000000278 ) ;
#17 = PRESENTATION_STYLE_ASSIGNMENT (( #157 ) ) ;
#18 = EDGE_LOOP ( 'NONE', ( #151, #243 ) ) ;
#19 =( LENGTH_UNIT ( ) NAMED_UNIT ( * ) SI_UNIT ( $, .METRE. ) );
#20 =( NAMED_UNIT ( * ) PLANE_ANGLE_UNIT ( ) SI_UNIT ( $, .RADIAN. ) );
#21 = DIRECTION ( 'NONE',  ( 1.632862398863137774E-16, 1.000000000000000000, -0.000000000000000000 ) ) ;
#22 = AXIS2_PLACEMENT_3D ( 'NONE', #39, #161, #257 ) ;
#23 = DIRECTION ( 'NONE',  ( -1.000000000000000000, 0.000000000000000000, 0.000000000000000000 ) ) ;
#24 = DIMENSIONAL_EXPONENTS ( 1.000000000000000000, 0.000000000000000000, 0.000000000000000000, 0.000000000000000000, 0.000000000000000000, 0.000000000000000000, 0.000000000000000000 ) ;
#25 = DIRECTION ( 'NONE',  ( -1.000000000000000000, 0.000000000000000000, 0.000000000000000000 ) ) ;
#26 = DIRECTION ( 'NONE',  ( 0.000000000000000000, 0.000000000000000000, -1.000000000000000000 ) ) ;
#27 = APPLICATION_CONTEXT ( 'automotive_design' ) ;
#28 = CARTESIAN_POINT ( 'NONE',  ( 2.449293598294706414E-16, 2.000000000000000000, 0.000000000000000000 ) ) ;
#29 = ORIENTED_EDGE ( 'NONE', *, *, #224, .T. ) ;
#30 = MANIFOLD_SOLID_BREP ( 'Revolve - Cutting Edge', #215 ) ;
#31 = EDGE_CURVE ( 'NONE', #35, #178, #294, .T. ) ;
#32 =( CONVERSION_BASED_UNIT ( 'INCH', #80 ) LENGTH_UNIT ( ) NAMED_UNIT ( #24 ) );
#33 = ORIENTED_EDGE ( 'NONE', *, *, #200, .T. ) ;
#34 = ADVANCED_FACE ( 'NONE', ( #306 ), #259, .T. ) ;
#35 = VERTEX_POINT ( 'NONE', #45 ) ;
#36 =( GEOMETRIC_REPRESENTATION_CONTEXT ( 3 ) GLOBAL_UNCERTAINTY_ASSIGNED_CONTEXT ( ( #145 ) ) GLOBAL_UNIT_ASSIGNED_CONTEXT ( ( #68, #48, #3 ) ) REPRESENTATION_CONTEXT ( 'NONE', 'WORKASPACE' ) );
#37 =( NAMED_UNIT ( * ) PLANE_ANGLE_UNIT ( ) SI_UNIT ( $, .RADIAN. ) );
#38 = ORIENTED_EDGE ( 'NONE', *, *, #124, .F. ) ;
#39 = CARTESIAN_POINT ( 'NONE',  ( 0.000000000000000000, 0.5000000000000001110, 0.000000000000000000 ) ) ;
#40 = DIRECTION ( 'NONE',  ( 1.632862398863137774E-16, 1.000000000000000000, -0.000000000000000000 ) ) ;
#41 = AXIS2_PLACEMENT_3D ( 'NONE', #92, #21, #67 ) ;
#42 = ORIENTED_EDGE ( 'NONE', *, *, #31, .T. ) ;
#43 = COLOUR_RGB ( '',1.000000000000000000, 0.000000000000000000, 0.000000000000000000 ) ;
#44 = SURFACE_STYLE_FILL_AREA ( #183 ) ;
#45 = CARTESIAN_POINT ( 'NONE',  ( -0.1874999999999995004, 2.000000000000000000, 0.000000000000000000 ) ) ;
#46 = CARTESIAN_POINT ( 'NONE',  ( -0.1874999999999999722, 0.5000000000000001110, 0.000000000000000000 ) ) ;
#47 = CIRCLE ( 'NONE', #85, 0.1874999999999997502 ) ;
#48 =( NAMED_UNIT ( * ) PLANE_ANGLE_UNIT ( ) SI_UNIT ( $, .RADIAN. ) );
#49 = EDGE_CURVE ( 'NONE', #195, #35, #202, .T. ) ;
#50 = CARTESIAN_POINT ( 'NONE',  ( 0.000000000000000000, 0.000000000000000000, 0.000000000000000000 ) ) ;
#51 = DIRECTION ( 'NONE',  ( 1.632862398863137774E-16, 1.000000000000000000, -0.000000000000000000 ) ) ;
#52 = LINE ( 'NONE', #238, #272 ) ;
#53 = ADVANCED_FACE ( 'NONE', ( #158 ), #136, .F. ) ;
#54 = ORIENTED_EDGE ( 'NONE', *, *, #119, .F. ) ;
#55 = CLOSED_SHELL ( 'NONE', ( #103, #171, #154, #53 ) ) ;
#56 = AXIS2_PLACEMENT_3D ( 'NONE', #230, #15, #280 ) ;
#57 = DIRECTION ( 'NONE',  ( 0.000000000000000000, -1.000000000000000000, -0.000000000000000000 ) ) ;
#58 = EDGE_LOOP ( 'NONE', ( #155, #271, #29, #297 ) ) ;
#59 =( CONVERSION_BASED_UNIT ( 'INCH', #225 ) LENGTH_UNIT ( ) NAMED_UNIT ( #1 ) );
#60 = ORIENTED_EDGE ( 'NONE', *, *, #69, .T. ) ;
#61 = PLANE ( 'NONE',  #22 ) ;
#62 = DIRECTION ( 'NONE',  ( 1.632862398863137774E-16, 1.000000000000000000, -0.000000000000000000 ) ) ;
#63 = EDGE_CURVE ( 'NONE', #174, #195, #95, .T. ) ;
#64 =( CONVERSION_BASED_UNIT ( 'INCH', #258 ) LENGTH_UNIT ( ) NAMED_UNIT ( #128 ) );
#65 = PRESENTATION_STYLE_ASSIGNMENT (( #308 ) ) ;
#66 = UNCERTAINTY_MEASURE_WITH_UNIT (LENGTH_MEASURE( 1.000000000000000082E-05 ), #64, 'distance_accuracy_value', 'NONE');
#67 = DIRECTION ( 'NONE',  ( -1.000000000000000000, 1.632862398863137774E-16, 0.000000000000000000 ) ) ;
#68 =( CONVERSION_BASED_UNIT ( 'INCH', #288 ) LENGTH_UNIT ( ) NAMED_UNIT ( #94 ) );
#69 = EDGE_CURVE ( 'NONE', #251, #223, #279, .T. ) ;
#70 = MECHANICAL_DESIGN_GEOMETRIC_PRESENTATION_REPRESENTATION (  '', ( #188 ), #108 ) ;
#71 = CARTESIAN_POINT ( 'NONE',  ( 0.000000000000000000, 0.5000000000000001110, 0.000000000000000000 ) ) ;
#72 = FACE_OUTER_BOUND ( 'NONE', #245, .T. ) ;
#73 = FILL_AREA_STYLE ('',( #187 ) ) ;
#74 = STYLED_ITEM ( 'NONE', ( #309 ), #212 ) ;
#75 = CIRCLE ( 'NONE', #96, 0.1874999999999999722 ) ;
#76 = FILL_AREA_STYLE_COLOUR ( '', #117 ) ;
#77 =( NAMED_UNIT ( * ) SI_UNIT ( $, .STERADIAN. ) SOLID_ANGLE_UNIT ( ) );
#78 = ORIENTED_EDGE ( 'NONE', *, *, #49, .F. ) ;
#79 = COLOUR_RGB ( '',0.7921568627450980005, 0.8196078431372548767, 0.9333333333333333481 ) ;
#80 = LENGTH_MEASURE_WITH_UNIT ( LENGTH_MEASURE( 0.02539999999999999897 ), #270 );
#81 = PRESENTATION_STYLE_ASSIGNMENT (( #269 ) ) ;
#82 = ORIENTED_EDGE ( 'NONE', *, *, #200, .F. ) ;
#83 = APPLICATION_PROTOCOL_DEFINITION ( 'draft international standard', 'automotive_design', 1998, #27 ) ;
#84 = FILL_AREA_STYLE ('',( #235 ) ) ;
#85 = AXIS2_PLACEMENT_3D ( 'NONE', #28, #120, #291 ) ;
#86 = SURFACE_STYLE_FILL_AREA ( #116 ) ;
#87 =( LENGTH_UNIT ( ) NAMED_UNIT ( * ) SI_UNIT ( $, .METRE. ) );
#88 =( LENGTH_UNIT ( ) NAMED_UNIT ( * ) SI_UNIT ( $, .METRE. ) );
#89 = LENGTH_MEASURE_WITH_UNIT ( LENGTH_MEASURE( 0.02539999999999999897 ), #87 );
#90 =( NAMED_UNIT ( * ) SI_UNIT ( $, .STERADIAN. ) SOLID_ANGLE_UNIT ( ) );
#91 = PRODUCT_DEFINITION_CONTEXT ( 'detailed design', #27, 'design' ) ;
#92 = CARTESIAN_POINT ( 'NONE',  ( 2.499599637769763022E-33, 0.5000000000000001110, 0.000000000000000000 ) ) ;
#93 = FACE_OUTER_BOUND ( 'NONE', #221, .T. ) ;
#94 = DIMENSIONAL_EXPONENTS ( 1.000000000000000000, 0.000000000000000000, 0.000000000000000000, 0.000000000000000000, 0.000000000000000000, 0.000000000000000000, 0.000000000000000000 ) ;
#95 = CIRCLE ( 'NONE', #220, 0.1874999999999999722 ) ;
#96 = AXIS2_PLACEMENT_3D ( 'NONE', #104, #196, #254 ) ;
#97 = CARTESIAN_POINT ( 'NONE',  ( 0.000000000000000000, 0.000000000000000000, 0.000000000000000000 ) ) ;
#98 = CYLINDRICAL_SURFACE ( 'NONE', #13, 0.1874999999999998335 ) ;
#99 = EDGE_CURVE ( 'NONE', #223, #251, #16, .T. ) ;
#100 = COLOUR_RGB ( '',1.000000000000000000, 0.000000000000000000, 0.000000000000000000 ) ;
#101 = FILL_AREA_STYLE ('',( #176 ) ) ;
#102 = VERTEX_POINT ( 'NONE', #121 ) ;
#103 = ADVANCED_FACE ( 'NONE', ( #240 ), #98, .T. ) ;
#104 = CARTESIAN_POINT ( 'NONE',  ( 0.000000000000000000, 0.5000000000000001110, 0.000000000000000000 ) ) ;
#105 = ORIENTED_EDGE ( 'NONE', *, *, #119, .T. ) ;
#106 = DIRECTION ( 'NONE',  ( -0.000000000000000000, -1.000000000000000000, -0.000000000000000000 ) ) ;
#107 = AXIS2_PLACEMENT_3D ( 'NONE', #231, #204, #2 ) ;
#108 =( GEOMETRIC_REPRESENTATION_CONTEXT ( 3 ) GLOBAL_UNCERTAINTY_ASSIGNED_CONTEXT ( ( #241 ) ) GLOBAL_UNIT_ASSIGNED_CONTEXT ( ( #115, #37, #90 ) ) REPRESENTATION_CONTEXT ( 'NONE', 'WORKASPACE' ) );
#109 = SURFACE_STYLE_USAGE ( .BOTH. , #242 ) ;
#110 =( NAMED_UNIT ( * ) SI_UNIT ( $, .STERADIAN. ) SOLID_ANGLE_UNIT ( ) );
#111 =( NAMED_UNIT ( * ) SI_UNIT ( $, .STERADIAN. ) SOLID_ANGLE_UNIT ( ) );
#112 =( GEOMETRIC_REPRESENTATION_CONTEXT ( 3 ) GLOBAL_UNCERTAINTY_ASSIGNED_CONTEXT ( ( #66 ) ) GLOBAL_UNIT_ASSIGNED_CONTEXT ( ( #64, #114, #205 ) ) REPRESENTATION_CONTEXT ( 'NONE', 'WORKASPACE' ) );
#113 = SURFACE_SIDE_STYLE ('',( #44 ) ) ;
#114 =( NAMED_UNIT ( * ) PLANE_ANGLE_UNIT ( ) SI_UNIT ( $, .RADIAN. ) );
#115 =( CONVERSION_BASED_UNIT ( 'INCH', #203 ) LENGTH_UNIT ( ) NAMED_UNIT ( #146 ) );
#116 = FILL_AREA_STYLE ('',( #307 ) ) ;
#117 = COLOUR_RGB ( '',1.000000000000000000, 0.000000000000000000, 0.000000000000000000 ) ;
#118 = CYLINDRICAL_SURFACE ( 'NONE', #266, 0.1874999999999998335 ) ;
#119 = EDGE_CURVE ( 'NONE', #195, #174, #152, .T. ) ;
#120 = DIRECTION ( 'NONE',  ( 1.632862398863137774E-16, 1.000000000000000000, -0.000000000000000000 ) ) ;
#121 = CARTESIAN_POINT ( 'NONE',  ( 0.000000000000000000, 0.5000000000000001110, -0.1874999999999999722 ) ) ;
#122 = STYLED_ITEM ( 'NONE', ( #81 ), #267 ) ;
#123 = LINE ( 'NONE', #190, #133 ) ;
#124 = EDGE_CURVE ( 'NONE', #178, #35, #47, .T. ) ;
#125 = UNCERTAINTY_MEASURE_WITH_UNIT (LENGTH_MEASURE( 1.000000000000000082E-05 ), #32, 'distance_accuracy_value', 'NONE');
#126 = PRESENTATION_LAYER_ASSIGNMENT (  '', '', ( #74 ) ) ;
#127 = PRODUCT_DEFINITION ( 'UNKNOWN', '', #253, #91 ) ;
#128 = DIMENSIONAL_EXPONENTS ( 1.000000000000000000, 0.000000000000000000, 0.000000000000000000, 0.000000000000000000, 0.000000000000000000, 0.000000000000000000, 0.000000000000000000 ) ;
#129 = CARTESIAN_POINT ( 'NONE',  ( 0.000000000000000000, 0.5000000000000001110, 0.000000000000000000 ) ) ;
#130 = ORIENTED_EDGE ( 'NONE', *, *, #208, .T. ) ;
#131 = CARTESIAN_POINT ( 'NONE',  ( 0.000000000000000000, 0.000000000000000000, -0.1874999999999999722 ) ) ;
#132 = ORIENTED_EDGE ( 'NONE', *, *, #124, .T. ) ;
#133 = VECTOR ( 'NONE', #218, 39.37007874015748143 ) ;
#134 =( CONVERSION_BASED_UNIT ( 'INCH', #250 ) LENGTH_UNIT ( ) NAMED_UNIT ( #213 ) );
#135 = EDGE_LOOP ( 'NONE', ( #273, #130, #177, #299 ) ) ;
#136 = PLANE ( 'NONE',  #107 ) ;
#137 = SURFACE_SIDE_STYLE ('',( #86 ) ) ;
#138 = AXIS2_PLACEMENT_3D ( 'NONE', #278, #282, #284 ) ;
#139 = AXIS2_PLACEMENT_3D ( 'NONE', #276, #57, #191 ) ;
#140 = SURFACE_SIDE_STYLE ('',( #142 ) ) ;
#141 = UNCERTAINTY_MEASURE_WITH_UNIT (LENGTH_MEASURE( 1.000000000000000082E-05 ), #59, 'distance_accuracy_value', 'NONE');
#142 = SURFACE_STYLE_FILL_AREA ( #84 ) ;
#143 = PRESENTATION_LAYER_ASSIGNMENT (  '', '', ( #5 ) ) ;
#144 = PLANE ( 'NONE',  #41 ) ;
#145 = UNCERTAINTY_MEASURE_WITH_UNIT (LENGTH_MEASURE( 1.000000000000000082E-05 ), #68, 'distance_accuracy_value', 'NONE');
#146 = DIMENSIONAL_EXPONENTS ( 1.000000000000000000, 0.000000000000000000, 0.000000000000000000, 0.000000000000000000, 0.000000000000000000, 0.000000000000000000, 0.000000000000000000 ) ;
#147 = DIRECTION ( 'NONE',  ( -1.000000000000000000, 0.000000000000000000, 0.000000000000000000 ) ) ;
#148 = DIRECTION ( 'NONE',  ( 0.000000000000000000, 0.000000000000000000, -1.000000000000000000 ) ) ;
#149 = VECTOR ( 'NONE', #106, 39.37007874015748143 ) ;
#150 = DIRECTION ( 'NONE',  ( -0.000000000000000000, -1.000000000000000000, -0.000000000000000000 ) ) ;
#151 = ORIENTED_EDGE ( 'NONE', *, *, #292, .F. ) ;
#152 = CIRCLE ( 'NONE', #175, 0.1874999999999999722 ) ;
#153 = SURFACE_SIDE_STYLE ('',( #170 ) ) ;
#154 = ADVANCED_FACE ( 'NONE', ( #72 ), #118, .T. ) ;
#155 = ORIENTED_EDGE ( 'NONE', *, *, #208, .F. ) ;
#156 = MECHANICAL_DESIGN_GEOMETRIC_PRESENTATION_REPRESENTATION (  '', ( #5 ), #233 ) ;
#157 = SURFACE_STYLE_USAGE ( .BOTH. , #113 ) ;
#158 = FACE_OUTER_BOUND ( 'NONE', #248, .T. ) ;
#159 = CARTESIAN_POINT ( 'NONE',  ( 2.449293598294706414E-16, 2.000000000000000000, 0.000000000000000000 ) ) ;
#160 = MECHANICAL_DESIGN_GEOMETRIC_PRESENTATION_REPRESENTATION (  '', ( #122 ), #184 ) ;
#161 = DIRECTION ( 'NONE',  ( 0.000000000000000000, 1.000000000000000000, 0.000000000000000000 ) ) ;
#162 =( LENGTH_UNIT ( ) NAMED_UNIT ( * ) SI_UNIT ( $, .METRE. ) );
#163 = ORIENTED_EDGE ( 'NONE', *, *, #49, .T. ) ;
#164 = MECHANICAL_DESIGN_GEOMETRIC_PRESENTATION_REPRESENTATION (  '', ( #74 ), #36 ) ;
#165 = DIRECTION ( 'NONE',  ( 1.632862398863137774E-16, 1.000000000000000000, -0.000000000000000000 ) ) ;
#166 = PRODUCT_RELATED_PRODUCT_CATEGORY ( 'part', '', ( #8 ) ) ;
#167 = DIRECTION ( 'NONE',  ( -1.000000000000000000, 0.000000000000000000, 0.000000000000000000 ) ) ;
#168 = ADVANCED_BREP_SHAPE_REPRESENTATION ( '24167', ( #30, #246, #56 ), #209 ) ;
#169 = DIRECTION ( 'NONE',  ( 1.632862398863137774E-16, 1.000000000000000000, -0.000000000000000000 ) ) ;
#170 = SURFACE_STYLE_FILL_AREA ( #302 ) ;
#171 = ADVANCED_FACE ( 'NONE', ( #93 ), #144, .F. ) ;
#172 = VERTEX_POINT ( 'NONE', #239 ) ;
#173 = CARTESIAN_POINT ( 'NONE',  ( 2.296212748401287109E-17, 0.000000000000000000, 0.1875000000000000278 ) ) ;
#174 = VERTEX_POINT ( 'NONE', #286 ) ;
#175 = AXIS2_PLACEMENT_3D ( 'NONE', #71, #165, #25 ) ;
#176 = FILL_AREA_STYLE_COLOUR ( '', #244 ) ;
#177 = ORIENTED_EDGE ( 'NONE', *, *, #69, .F. ) ;
#178 = VERTEX_POINT ( 'NONE', #265 ) ;
#179 = SHAPE_DEFINITION_REPRESENTATION ( #260, #168 ) ;
#180 = SURFACE_STYLE_USAGE ( .BOTH. , #137 ) ;
#181 = APPLICATION_PROTOCOL_DEFINITION ( 'draft international standard', 'automotive_design', 1998, #287 ) ;
#182 = PRODUCT_CONTEXT ( 'NONE', #287, 'mechanical' ) ;
#183 = FILL_AREA_STYLE ('',( #185 ) ) ;
#184 =( GEOMETRIC_REPRESENTATION_CONTEXT ( 3 ) GLOBAL_UNCERTAINTY_ASSIGNED_CONTEXT ( ( #125 ) ) GLOBAL_UNIT_ASSIGNED_CONTEXT ( ( #32, #296, #77 ) ) REPRESENTATION_CONTEXT ( 'NONE', 'WORKASPACE' ) );
#185 = FILL_AREA_STYLE_COLOUR ( '', #43 ) ;
#186 = PRESENTATION_LAYER_ASSIGNMENT (  '', '', ( #252 ) ) ;
#187 = FILL_AREA_STYLE_COLOUR ( '', #4 ) ;
#188 = STYLED_ITEM ( 'NONE', ( #17 ), #305 ) ;
#189 = DIRECTION ( 'NONE',  ( -0.000000000000000000, -1.000000000000000000, -0.000000000000000000 ) ) ;
#190 = CARTESIAN_POINT ( 'NONE',  ( 2.296212748401286801E-17, 0.000000000000000000, 0.1874999999999999722 ) ) ;
#191 = DIRECTION ( 'NONE',  ( 0.000000000000000000, 0.000000000000000000, -1.000000000000000000 ) ) ;
#192 = AXIS2_PLACEMENT_3D ( 'NONE', #159, #40, #281 ) ;
#193 = AXIS2_PLACEMENT_3D ( 'NONE', #129, #222, #11 ) ;
#194 =( NAMED_UNIT ( * ) SI_UNIT ( $, .STERADIAN. ) SOLID_ANGLE_UNIT ( ) );
#195 = VERTEX_POINT ( 'NONE', #46 ) ;
#196 = DIRECTION ( 'NONE',  ( -0.000000000000000000, -1.000000000000000000, -0.000000000000000000 ) ) ;
#197 = EDGE_LOOP ( 'NONE', ( #60, #275 ) ) ;
#198 = CARTESIAN_POINT ( 'NONE',  ( 0.000000000000000000, 0.000000000000000000, 0.000000000000000000 ) ) ;
#199 = ORIENTED_EDGE ( 'NONE', *, *, #63, .T. ) ;
#200 = EDGE_CURVE ( 'NONE', #174, #178, #52, .T. ) ;
#201 =( LENGTH_UNIT ( ) NAMED_UNIT ( * ) SI_UNIT ( $, .METRE. ) );
#202 = LINE ( 'NONE', #304, #289 ) ;
#203 = LENGTH_MEASURE_WITH_UNIT ( LENGTH_MEASURE( 0.02539999999999999897 ), #88 );
#204 = DIRECTION ( 'NONE',  ( -1.632862398863137774E-16, -1.000000000000000000, 0.000000000000000000 ) ) ;
#205 =( NAMED_UNIT ( * ) SI_UNIT ( $, .STERADIAN. ) SOLID_ANGLE_UNIT ( ) );
#206 = UNCERTAINTY_MEASURE_WITH_UNIT (LENGTH_MEASURE( 1.000000000000000082E-05 ), #134, 'distance_accuracy_value', 'NONE');
#207 = FACE_OUTER_BOUND ( 'NONE', #18, .T. ) ;
#208 = EDGE_CURVE ( 'NONE', #172, #223, #123, .T. ) ;
#209 =( GEOMETRIC_REPRESENTATION_CONTEXT ( 3 ) GLOBAL_UNCERTAINTY_ASSIGNED_CONTEXT ( ( #206 ) ) GLOBAL_UNIT_ASSIGNED_CONTEXT ( ( #134, #229, #110 ) ) REPRESENTATION_CONTEXT ( 'NONE', 'WORKASPACE' ) );
#210 = SURFACE_SIDE_STYLE ('',( #236 ) ) ;
#211 = CARTESIAN_POINT ( 'NONE',  ( 2.449293598294706414E-16, 2.000000000000000000, 0.000000000000000000 ) ) ;
#212 = ADVANCED_FACE ( 'NONE', ( #7 ), #293, .T. ) ;
#213 = DIMENSIONAL_EXPONENTS ( 1.000000000000000000, 0.000000000000000000, 0.000000000000000000, 0.000000000000000000, 0.000000000000000000, 0.000000000000000000, 0.000000000000000000 ) ;
#214 = SURFACE_STYLE_USAGE ( .BOTH. , #210 ) ;
#215 = CLOSED_SHELL ( 'NONE', ( #34, #305, #267, #212 ) ) ;
#216 = MECHANICAL_DESIGN_GEOMETRIC_PRESENTATION_REPRESENTATION (  '', ( #252 ), #256 ) ;
#217 = CARTESIAN_POINT ( 'NONE',  ( 2.449293598294706414E-16, 2.000000000000000000, 0.000000000000000000 ) ) ;
#218 = DIRECTION ( 'NONE',  ( -0.000000000000000000, -1.000000000000000000, -0.000000000000000000 ) ) ;
#219 = SURFACE_STYLE_FILL_AREA ( #101 ) ;
#220 = AXIS2_PLACEMENT_3D ( 'NONE', #6, #290, #23 ) ;
#221 = EDGE_LOOP ( 'NONE', ( #54, #227 ) ) ;
#222 = DIRECTION ( 'NONE',  ( -0.000000000000000000, -1.000000000000000000, -0.000000000000000000 ) ) ;
#223 = VERTEX_POINT ( 'NONE', #173 ) ;
#224 = EDGE_CURVE ( 'NONE', #102, #251, #274, .T. ) ;
#225 = LENGTH_MEASURE_WITH_UNIT ( LENGTH_MEASURE( 0.02539999999999999897 ), #201 );
#226 = FACE_OUTER_BOUND ( 'NONE', #58, .T. ) ;
#227 = ORIENTED_EDGE ( 'NONE', *, *, #63, .F. ) ;
#228 = CIRCLE ( 'NONE', #193, 0.1874999999999999722 ) ;
#229 =( NAMED_UNIT ( * ) PLANE_ANGLE_UNIT ( ) SI_UNIT ( $, .RADIAN. ) );
#230 = CARTESIAN_POINT ( 'NONE',  ( 0.000000000000000000, 0.000000000000000000, 0.000000000000000000 ) ) ;
#231 = CARTESIAN_POINT ( 'NONE',  ( 0.1874999999999999722, 2.000000000000000000, 0.000000000000000000 ) ) ;
#232 =( CONVERSION_BASED_UNIT ( 'INCH', #89 ) LENGTH_UNIT ( ) NAMED_UNIT ( #262 ) );
#233 =( GEOMETRIC_REPRESENTATION_CONTEXT ( 3 ) GLOBAL_UNCERTAINTY_ASSIGNED_CONTEXT ( ( #263 ) ) GLOBAL_UNIT_ASSIGNED_CONTEXT ( ( #232, #20, #111 ) ) REPRESENTATION_CONTEXT ( 'NONE', 'WORKASPACE' ) );
#234 = AXIS2_PLACEMENT_3D ( 'NONE', #198, #150, #298 ) ;
#235 = FILL_AREA_STYLE_COLOUR ( '', #79 ) ;
#236 = SURFACE_STYLE_FILL_AREA ( #73 ) ;
#237 = MECHANICAL_DESIGN_GEOMETRIC_PRESENTATION_REPRESENTATION (  '', ( #9 ), #112 ) ;
#238 = CARTESIAN_POINT ( 'NONE',  ( 0.1875000000000000833, 2.000000000000000000, 2.296212748401285260E-17 ) ) ;
#239 = CARTESIAN_POINT ( 'NONE',  ( 2.296212748401286801E-17, 0.5000000000000001110, 0.1874999999999999722 ) ) ;
#240 = FACE_OUTER_BOUND ( 'NONE', #303, .T. ) ;
#241 = UNCERTAINTY_MEASURE_WITH_UNIT (LENGTH_MEASURE( 1.000000000000000082E-05 ), #115, 'distance_accuracy_value', 'NONE');
#242 = SURFACE_SIDE_STYLE ('',( #219 ) ) ;
#243 = ORIENTED_EDGE ( 'NONE', *, *, #283, .F. ) ;
#244 = COLOUR_RGB ( '',0.7921568627450980005, 0.8196078431372548767, 0.9333333333333333481 ) ;
#245 = EDGE_LOOP ( 'NONE', ( #82, #199, #163, #38 ) ) ;
#246 = MANIFOLD_SOLID_BREP ( 'Revolve - Tool Body (Straight Shanked)', #55 ) ;
#247 = CYLINDRICAL_SURFACE ( 'NONE', #234, 0.1874999999999999722 ) ;
#248 = EDGE_LOOP ( 'NONE', ( #42, #132 ) ) ;
#249 = PRESENTATION_STYLE_ASSIGNMENT (( #109 ) ) ;
#250 = LENGTH_MEASURE_WITH_UNIT ( LENGTH_MEASURE( 0.02539999999999999897 ), #19 );
#251 = VERTEX_POINT ( 'NONE', #12 ) ;
#252 = STYLED_ITEM ( 'NONE', ( #249 ), #246 ) ;
#253 = PRODUCT_DEFINITION_FORMATION_WITH_SPECIFIED_SOURCE ( 'ANY', '', #8, .NOT_KNOWN. ) ;
#254 = DIRECTION ( 'NONE',  ( 0.000000000000000000, 0.000000000000000000, -1.000000000000000000 ) ) ;
#255 = PRESENTATION_STYLE_ASSIGNMENT (( #180 ) ) ;
#256 =( GEOMETRIC_REPRESENTATION_CONTEXT ( 3 ) GLOBAL_UNCERTAINTY_ASSIGNED_CONTEXT ( ( #141 ) ) GLOBAL_UNIT_ASSIGNED_CONTEXT ( ( #59, #295, #194 ) ) REPRESENTATION_CONTEXT ( 'NONE', 'WORKASPACE' ) );
#257 = DIRECTION ( 'NONE',  ( 0.000000000000000000, -0.000000000000000000, 1.000000000000000000 ) ) ;
#258 = LENGTH_MEASURE_WITH_UNIT ( LENGTH_MEASURE( 0.02539999999999999897 ), #162 );
#259 = CYLINDRICAL_SURFACE ( 'NONE', #138, 0.1874999999999999722 ) ;
#260 = PRODUCT_DEFINITION_SHAPE ( 'NONE', 'NONE',  #127 ) ;
#261 =( LENGTH_UNIT ( ) NAMED_UNIT ( * ) SI_UNIT ( $, .METRE. ) );
#262 = DIMENSIONAL_EXPONENTS ( 1.000000000000000000, 0.000000000000000000, 0.000000000000000000, 0.000000000000000000, 0.000000000000000000, 0.000000000000000000, 0.000000000000000000 ) ;
#263 = UNCERTAINTY_MEASURE_WITH_UNIT (LENGTH_MEASURE( 1.000000000000000082E-05 ), #232, 'distance_accuracy_value', 'NONE');
#264 = DIRECTION ( 'NONE',  ( -0.000000000000000000, -1.000000000000000000, -0.000000000000000000 ) ) ;
#265 = CARTESIAN_POINT ( 'NONE',  ( 0.1874999999999999722, 2.000000000000000000, 2.296212748401286493E-17 ) ) ;
#266 = AXIS2_PLACEMENT_3D ( 'NONE', #217, #268, #167 ) ;
#267 = ADVANCED_FACE ( 'NONE', ( #226 ), #247, .T. ) ;
#268 = DIRECTION ( 'NONE',  ( 1.632862398863137774E-16, 1.000000000000000000, -0.000000000000000000 ) ) ;
#269 = SURFACE_STYLE_USAGE ( .BOTH. , #153 ) ;
#270 =( LENGTH_UNIT ( ) NAMED_UNIT ( * ) SI_UNIT ( $, .METRE. ) );
#271 = ORIENTED_EDGE ( 'NONE', *, *, #283, .T. ) ;
#272 = VECTOR ( 'NONE', #51, 39.37007874015748143 ) ;
#273 = ORIENTED_EDGE ( 'NONE', *, *, #292, .T. ) ;
#274 = LINE ( 'NONE', #131, #149 ) ;
#275 = ORIENTED_EDGE ( 'NONE', *, *, #99, .T. ) ;
#276 = CARTESIAN_POINT ( 'NONE',  ( 0.000000000000000000, 0.000000000000000000, 0.000000000000000000 ) ) ;
#277 = ORIENTED_EDGE ( 'NONE', *, *, #31, .F. ) ;
#278 = CARTESIAN_POINT ( 'NONE',  ( 0.000000000000000000, 0.000000000000000000, 0.000000000000000000 ) ) ;
#279 = CIRCLE ( 'NONE', #10, 0.1875000000000000278 ) ;
#280 = DIRECTION ( 'NONE',  ( 1.000000000000000000, 0.000000000000000000, 0.000000000000000000 ) ) ;
#281 = DIRECTION ( 'NONE',  ( -1.000000000000000000, 0.000000000000000000, 0.000000000000000000 ) ) ;
#282 = DIRECTION ( 'NONE',  ( -0.000000000000000000, -1.000000000000000000, -0.000000000000000000 ) ) ;
#283 = EDGE_CURVE ( 'NONE', #172, #102, #228, .T. ) ;
#284 = DIRECTION ( 'NONE',  ( 0.000000000000000000, 0.000000000000000000, -1.000000000000000000 ) ) ;
#285 = AXIS2_PLACEMENT_3D ( 'NONE', #50, #189, #26 ) ;
#286 = CARTESIAN_POINT ( 'NONE',  ( 0.1874999999999999722, 0.5000000000000001110, 2.296212748401286493E-17 ) ) ;
#287 = APPLICATION_CONTEXT ( 'automotive_design' ) ;
#288 = LENGTH_MEASURE_WITH_UNIT ( LENGTH_MEASURE( 0.02539999999999999897 ), #261 );
#289 = VECTOR ( 'NONE', #62, 39.37007874015748143 ) ;
#290 = DIRECTION ( 'NONE',  ( 1.632862398863137774E-16, 1.000000000000000000, -0.000000000000000000 ) ) ;
#291 = DIRECTION ( 'NONE',  ( -1.000000000000000000, 0.000000000000000000, 0.000000000000000000 ) ) ;
#292 = EDGE_CURVE ( 'NONE', #102, #172, #75, .T. ) ;
#293 = PLANE ( 'NONE',  #139 ) ;
#294 = CIRCLE ( 'NONE', #192, 0.1874999999999997502 ) ;
#295 =( NAMED_UNIT ( * ) PLANE_ANGLE_UNIT ( ) SI_UNIT ( $, .RADIAN. ) );
#296 =( NAMED_UNIT ( * ) PLANE_ANGLE_UNIT ( ) SI_UNIT ( $, .RADIAN. ) );
#297 = ORIENTED_EDGE ( 'NONE', *, *, #99, .F. ) ;
#298 = DIRECTION ( 'NONE',  ( 0.000000000000000000, 0.000000000000000000, -1.000000000000000000 ) ) ;
#299 = ORIENTED_EDGE ( 'NONE', *, *, #224, .F. ) ;
#300 = PRESENTATION_LAYER_ASSIGNMENT (  '', '', ( #9 ) ) ;
#301 = PRESENTATION_LAYER_ASSIGNMENT (  '', '', ( #122 ) ) ;
#302 = FILL_AREA_STYLE ('',( #76 ) ) ;
#303 = EDGE_LOOP ( 'NONE', ( #105, #33, #277, #78 ) ) ;
#304 = CARTESIAN_POINT ( 'NONE',  ( -0.1874999999999996114, 2.000000000000000000, 0.000000000000000000 ) ) ;
#305 = ADVANCED_FACE ( 'NONE', ( #207 ), #61, .T. ) ;
#306 = FACE_OUTER_BOUND ( 'NONE', #135, .T. ) ;
#307 = FILL_AREA_STYLE_COLOUR ( '', #100 ) ;
#308 = SURFACE_STYLE_USAGE ( .BOTH. , #140 ) ;
#309 = PRESENTATION_STYLE_ASSIGNMENT (( #214 ) ) ;
ENDSEC;
END-ISO-10303-21;
