ISO-10303-21;
HEADER;
FILE_DESCRIPTION (( 'STEP AP214' ),
    '1' );
FILE_NAME ('Micro_SBMM-020-210.STEP',
    '2021-09-02T17:04:12',
    ( '' ),
    ( '' ),
    'SwSTEP 2.0',
    'SolidWorks 2020',
    '' );
FILE_SCHEMA (( 'AUTOMOTIVE_DESIGN' ));
ENDSEC;

DATA;
#1 = DIRECTION ( 'NONE',  ( -1.000000000000000000, 0.0000000000000000000, 0.0000000000000000000 ) ) ;
#2 = EDGE_CURVE ( 'NONE', #33, #126, #120, .T. ) ;
#3 = VERTEX_POINT ( 'NONE', #12 ) ;
#4 = APPLICATION_PROTOCOL_DEFINITION ( 'draft international standard', 'automotive_design', 1998, #309 ) ;
#5 = ADVANCED_FACE ( 'NONE', ( #16 ), #64, .T. ) ;
#6 = ORIENTED_EDGE ( 'NONE', *, *, #163, .F. ) ;
#7 = DIMENSIONAL_EXPONENTS ( 1.000000000000000000, 0.0000000000000000000, 0.0000000000000000000, 0.0000000000000000000, 0.0000000000000000000, 0.0000000000000000000, 0.0000000000000000000 ) ;
#8 = ORIENTED_EDGE ( 'NONE', *, *, #72, .F. ) ;
#9 = AXIS2_PLACEMENT_3D ( 'NONE', #26, #158, #156 ) ;
#10 = ORIENTED_EDGE ( 'NONE', *, *, #2, .F. ) ;
#11 = ORIENTED_EDGE ( 'NONE', *, *, #334, .T. ) ;
#12 = CARTESIAN_POINT ( 'NONE',  ( 0.1031099999999991745, 1.354581824536882559E-17, 2.952755999999999936 ) ) ;
#13 = PRODUCT_CONTEXT ( 'NONE', #309, 'mechanical' ) ;
#14 = DIRECTION ( 'NONE',  ( 0.0000000000000000000, 0.0000000000000000000, -1.000000000000000000 ) ) ;
#15 = LENGTH_MEASURE_WITH_UNIT ( LENGTH_MEASURE( 0.02539999999999999897 ), #43 );
#16 = FACE_OUTER_BOUND ( 'NONE', #108, .T. ) ;
#17 = DIRECTION ( 'NONE',  ( -0.09001749462147050351, 1.102396366554479456E-17, 0.9959401842791932857 ) ) ;
#18 = ADVANCED_FACE ( 'NONE', ( #95 ), #122, .T. ) ;
#19 = CARTESIAN_POINT ( 'NONE',  ( -0.1031099999999991745, 0.0000000000000000000, 2.952755999999999936 ) ) ;
#20 = VECTOR ( 'NONE', #99, 39.37007874015748143 ) ;
#21 = CYLINDRICAL_SURFACE ( 'NONE', #227, 0.02559049999999996397 ) ;
#22 = COLOUR_RGB ( '',0.7921568627450980005, 0.8196078431372548767, 0.9333333333333333481 ) ;
#23 = AXIS2_PLACEMENT_3D ( 'NONE', #159, #341, #207 ) ;
#24 = CIRCLE ( 'NONE', #68, 0.1031099999999991745 ) ;
#25 = DIRECTION ( 'NONE',  ( 0.0000000000000000000, 0.0000000000000000000, 1.000000000000000000 ) ) ;
#26 = CARTESIAN_POINT ( 'NONE',  ( 0.0000000000000000000, 0.0000000000000000000, 1.417323000000000333 ) ) ;
#27 = PRODUCT_RELATED_PRODUCT_CATEGORY ( 'part', '', ( #299 ) ) ;
#28 = CARTESIAN_POINT ( 'NONE',  ( 0.1181100000000000344, 1.446430334472939084E-17, 2.952755999999999936 ) ) ;
#29 = PRODUCT_DEFINITION_FORMATION_WITH_SPECIFIED_SOURCE ( 'ANY', '', #299, .NOT_KNOWN. ) ;
#30 = DIRECTION ( 'NONE',  ( -1.000000000000000000, 0.0000000000000000000, 0.0000000000000000000 ) ) ;
#31 = ORIENTED_EDGE ( 'NONE', *, *, #160, .F. ) ;
#32 = PRESENTATION_STYLE_ASSIGNMENT (( #107 ) ) ;
#33 = VERTEX_POINT ( 'NONE', #228 ) ;
#34 = ORIENTED_EDGE ( 'NONE', *, *, #212, .T. ) ;
#35 = EDGE_CURVE ( 'NONE', #246, #194, #251, .T. ) ;
#36 = VECTOR ( 'NONE', #40, 39.37007874015748143 ) ;
#37 = DIRECTION ( 'NONE',  ( -1.000000000000000000, 0.0000000000000000000, 0.0000000000000000000 ) ) ;
#38 = DIRECTION ( 'NONE',  ( 0.0000000000000000000, 0.0000000000000000000, 1.000000000000000000 ) ) ;
#39 = ORIENTED_EDGE ( 'NONE', *, *, #98, .T. ) ;
#40 = DIRECTION ( 'NONE',  ( -0.0000000000000000000, -0.0000000000000000000, -1.000000000000000000 ) ) ;
#41 = DIRECTION ( 'NONE',  ( 1.000000000000000000, 0.0000000000000000000, 0.0000000000000000000 ) ) ;
#42 = ADVANCED_FACE ( 'NONE', ( #272 ), #248, .T. ) ;
#43 =( LENGTH_UNIT ( ) NAMED_UNIT ( * ) SI_UNIT ( $, .METRE. ) );
#44 = AXIS2_PLACEMENT_3D ( 'NONE', #312, #317, #130 ) ;
#45 = FACE_OUTER_BOUND ( 'NONE', #229, .T. ) ;
#46 = AXIS2_PLACEMENT_3D ( 'NONE', #93, #187, #1 ) ;
#47 = DIRECTION ( 'NONE',  ( -1.000000000000000000, 0.0000000000000000000, 0.0000000000000000000 ) ) ;
#48 = CIRCLE ( 'NONE', #242, 0.02559049999999995356 ) ;
#49 = DIRECTION ( 'NONE',  ( 1.000000000000000000, 0.0000000000000000000, 0.0000000000000000000 ) ) ;
#50 = EDGE_CURVE ( 'NONE', #246, #3, #202, .T. ) ;
#51 = DIRECTION ( 'NONE',  ( -0.0000000000000000000, -0.0000000000000000000, -1.000000000000000000 ) ) ;
#52 = UNCERTAINTY_MEASURE_WITH_UNIT (LENGTH_MEASURE( 1.000000000000000082E-05 ), #276, 'distance_accuracy_value', 'NONE');
#53 = DIRECTION ( 'NONE',  ( -0.0000000000000000000, -0.0000000000000000000, -1.000000000000000000 ) ) ;
#54 = AXIS2_PLACEMENT_3D ( 'NONE', #336, #38, #41 ) ;
#55 = ADVANCED_FACE ( 'NONE', ( #301 ), #94, .T. ) ;
#56 = CARTESIAN_POINT ( 'NONE',  ( 0.0000000000000000000, 0.0000000000000000000, 1.417323000000000333 ) ) ;
#57 = ORIENTED_EDGE ( 'NONE', *, *, #50, .T. ) ;
#58 = CIRCLE ( 'NONE', #209, 0.02559049999999995356 ) ;
#59 = VERTEX_POINT ( 'NONE', #92 ) ;
#60 = FILL_AREA_STYLE_COLOUR ( '', #89 ) ;
#61 = ORIENTED_EDGE ( 'NONE', *, *, #160, .T. ) ;
#62 = EDGE_LOOP ( 'NONE', ( #34, #274, #217, #136 ) ) ;
#63 = CONICAL_SURFACE ( 'NONE', #23, 0.1031099999999991745, 0.7853981633974500554 ) ;
#64 = SPHERICAL_SURFACE ( 'NONE', #300, 0.03936999999999999528 ) ;
#65 =( NAMED_UNIT ( * ) PLANE_ANGLE_UNIT ( ) SI_UNIT ( $, .RADIAN. ) );
#66 = EDGE_LOOP ( 'NONE', ( #6, #213, #245, #10 ) ) ;
#67 = LENGTH_MEASURE_WITH_UNIT ( LENGTH_MEASURE( 0.02539999999999999897 ), #211 );
#68 = AXIS2_PLACEMENT_3D ( 'NONE', #273, #243, #320 ) ;
#69 = CARTESIAN_POINT ( 'NONE',  ( 0.1181100000000000344, 1.446430334472939084E-17, 2.937755999999999368 ) ) ;
#70 = DIRECTION ( 'NONE',  ( 1.000000000000000000, 0.0000000000000000000, 0.0000000000000000000 ) ) ;
#71 = CARTESIAN_POINT ( 'NONE',  ( 0.0000000000000000000, 0.0000000000000000000, 1.547998148936168050 ) ) ;
#72 = EDGE_CURVE ( 'NONE', #113, #223, #226, .T. ) ;
#73 =( CONVERSION_BASED_UNIT ( 'INCH', #15 ) LENGTH_UNIT ( ) NAMED_UNIT ( #7 ) );
#74 = DIRECTION ( 'NONE',  ( -0.0000000000000000000, -0.0000000000000000000, -1.000000000000000000 ) ) ;
#75 = CARTESIAN_POINT ( 'NONE',  ( 0.0000000000000000000, 0.0000000000000000000, 2.937755999999999368 ) ) ;
#76 = VECTOR ( 'NONE', #17, 39.37007874015748854 ) ;
#77 = DIRECTION ( 'NONE',  ( -1.000000000000000000, 0.0000000000000000000, 0.0000000000000000000 ) ) ;
#78 = CARTESIAN_POINT ( 'NONE',  ( 0.02559049999999998132, 3.133932391358031704E-18, 0.06928860975630385388 ) ) ;
#79 = EDGE_CURVE ( 'NONE', #33, #201, #97, .T. ) ;
#80 =( GEOMETRIC_REPRESENTATION_CONTEXT ( 3 ) GLOBAL_UNCERTAINTY_ASSIGNED_CONTEXT ( ( #314 ) ) GLOBAL_UNIT_ASSIGNED_CONTEXT ( ( #328, #190, #81 ) ) REPRESENTATION_CONTEXT ( 'NONE', 'WORKASPACE' ) );
#81 =( NAMED_UNIT ( * ) SI_UNIT ( $, .STERADIAN. ) SOLID_ANGLE_UNIT ( ) );
#82 = EDGE_CURVE ( 'NONE', #59, #296, #332, .T. ) ;
#83 = DIRECTION ( 'NONE',  ( -0.0000000000000000000, -0.0000000000000000000, -1.000000000000000000 ) ) ;
#84 = VERTEX_POINT ( 'NONE', #305 ) ;
#85 = CARTESIAN_POINT ( 'NONE',  ( 0.0000000000000000000, 2.410717224121564242E-18, 1.707404996040164512E-17 ) ) ;
#86 = VERTEX_POINT ( 'NONE', #69 ) ;
#87 = ORIENTED_EDGE ( 'NONE', *, *, #35, .F. ) ;
#88 = EDGE_CURVE ( 'NONE', #113, #84, #151, .T. ) ;
#89 = COLOUR_RGB ( '',0.7921568627450980005, 0.8196078431372548767, 0.9333333333333333481 ) ;
#90 = EDGE_LOOP ( 'NONE', ( #244, #267, #219, #271, #137 ) ) ;
#91 = FACE_OUTER_BOUND ( 'NONE', #191, .T. ) ;
#92 = CARTESIAN_POINT ( 'NONE',  ( 3.133932391358032860E-18, -0.02559049999999999173, 0.06928860975630385388 ) ) ;
#93 = CARTESIAN_POINT ( 'NONE',  ( 0.0000000000000000000, 0.0000000000000000000, 0.06928860975630385388 ) ) ;
#94 = CONICAL_SURFACE ( 'NONE', #230, 0.1031099999999991745, 0.7853981633974500554 ) ;
#95 = FACE_OUTER_BOUND ( 'NONE', #90, .T. ) ;
#96 = CARTESIAN_POINT ( 'NONE',  ( 0.0000000000000000000, 0.0000000000000000000, 0.03937000000000000915 ) ) ;
#97 = LINE ( 'NONE', #145, #155 ) ;
#98 = EDGE_CURVE ( 'NONE', #194, #84, #182, .T. ) ;
#99 = DIRECTION ( 'NONE',  ( -0.0000000000000000000, -0.0000000000000000000, -1.000000000000000000 ) ) ;
#100 = DIRECTION ( 'NONE',  ( 1.000000000000000000, 0.0000000000000000000, 0.0000000000000000000 ) ) ;
#101 = STYLED_ITEM ( 'NONE', ( #32 ), #290 ) ;
#102 = DIRECTION ( 'NONE',  ( 1.000000000000000000, 0.0000000000000000000, 0.0000000000000000000 ) ) ;
#103 = FACE_OUTER_BOUND ( 'NONE', #289, .T. ) ;
#104 = CARTESIAN_POINT ( 'NONE',  ( 0.0000000000000000000, 0.02559049999999999173, 0.06928860975630385388 ) ) ;
#105 = PRODUCT_DEFINITION_CONTEXT ( 'detailed design', #330, 'design' ) ;
#106 = DIRECTION ( 'NONE',  ( 0.0000000000000000000, 0.0000000000000000000, -1.000000000000000000 ) ) ;
#107 = SURFACE_STYLE_USAGE ( .BOTH. , #119 ) ;
#108 = EDGE_LOOP ( 'NONE', ( #321, #115, #277, #324 ) ) ;
#109 = AXIS2_PLACEMENT_3D ( 'NONE', #205, #132, #134 ) ;
#110 = ORIENTED_EDGE ( 'NONE', *, *, #50, .F. ) ;
#111 = AXIS2_PLACEMENT_3D ( 'NONE', #286, #53, #77 ) ;
#112 = DIRECTION ( 'NONE',  ( 1.000000000000000000, 0.0000000000000000000, 0.0000000000000000000 ) ) ;
#113 = VERTEX_POINT ( 'NONE', #310 ) ;
#114 = ADVANCED_FACE ( 'NONE', ( #45 ), #225, .T. ) ;
#115 = ORIENTED_EDGE ( 'NONE', *, *, #298, .T. ) ;
#116 = CIRCLE ( 'NONE', #129, 0.02559049999999998132 ) ;
#117 = DIMENSIONAL_EXPONENTS ( 1.000000000000000000, 0.0000000000000000000, 0.0000000000000000000, 0.0000000000000000000, 0.0000000000000000000, 0.0000000000000000000, 0.0000000000000000000 ) ;
#118 = ORIENTED_EDGE ( 'NONE', *, *, #208, .F. ) ;
#119 = SURFACE_SIDE_STYLE ('',( #135 ) ) ;
#120 = LINE ( 'NONE', #195, #323 ) ;
#121 = SHAPE_DEFINITION_REPRESENTATION ( #247, #263 ) ;
#122 = CYLINDRICAL_SURFACE ( 'NONE', #186, 0.02559049999999996397 ) ;
#123 = ADVANCED_FACE ( 'NONE', ( #285 ), #236, .T. ) ;
#124 = DIRECTION ( 'NONE',  ( -0.0000000000000000000, -0.0000000000000000000, -1.000000000000000000 ) ) ;
#125 = CIRCLE ( 'NONE', #44, 0.03936999999999999528 ) ;
#126 = VERTEX_POINT ( 'NONE', #203 ) ;
#127 = AXIS2_PLACEMENT_3D ( 'NONE', #96, #148, #199 ) ;
#128 = DIRECTION ( 'NONE',  ( 0.0000000000000000000, 0.0000000000000000000, -1.000000000000000000 ) ) ;
#129 = AXIS2_PLACEMENT_3D ( 'NONE', #342, #51, #184 ) ;
#130 = DIRECTION ( 'NONE',  ( 0.0000000000000000000, 0.0000000000000000000, 1.000000000000000000 ) ) ;
#131 = DIRECTION ( 'NONE',  ( 0.7071067811865486830, 8.659560562354947649E-17, -0.7071067811865462405 ) ) ;
#132 = DIRECTION ( 'NONE',  ( 0.0000000000000000000, 0.0000000000000000000, 1.000000000000000000 ) ) ;
#133 = EDGE_CURVE ( 'NONE', #169, #296, #125, .T. ) ;
#134 = DIRECTION ( 'NONE',  ( 1.000000000000000000, 0.0000000000000000000, -0.0000000000000000000 ) ) ;
#135 = SURFACE_STYLE_FILL_AREA ( #214 ) ;
#136 = ORIENTED_EDGE ( 'NONE', *, *, #98, .F. ) ;
#137 = ORIENTED_EDGE ( 'NONE', *, *, #316, .F. ) ;
#138 = CARTESIAN_POINT ( 'NONE',  ( 0.0000000000000000000, 0.0000000000000000000, 0.06928860975630385388 ) ) ;
#139 = ORIENTED_EDGE ( 'NONE', *, *, #163, .T. ) ;
#140 = PRESENTATION_LAYER_ASSIGNMENT (  '', '', ( #101 ) ) ;
#141 = ORIENTED_EDGE ( 'NONE', *, *, #216, .F. ) ;
#142 = ORIENTED_EDGE ( 'NONE', *, *, #35, .T. ) ;
#143 = CARTESIAN_POINT ( 'NONE',  ( -0.1031099999999991745, 0.0000000000000000000, 2.952755999999999936 ) ) ;
#144 =( NAMED_UNIT ( * ) SI_UNIT ( $, .STERADIAN. ) SOLID_ANGLE_UNIT ( ) );
#145 = CARTESIAN_POINT ( 'NONE',  ( 0.02559049999999996397, 3.133932391358030164E-18, 0.0000000000000000000 ) ) ;
#146 = CIRCLE ( 'NONE', #9, 0.1181100000000000344 ) ;
#147 = DIRECTION ( 'NONE',  ( 0.0000000000000000000, 1.000000000000000000, 0.0000000000000000000 ) ) ;
#148 = DIRECTION ( 'NONE',  ( 1.000000000000000000, 1.224646799147353207E-16, -0.0000000000000000000 ) ) ;
#149 = AXIS2_PLACEMENT_3D ( 'NONE', #75, #106, #49 ) ;
#150 = MECHANICAL_DESIGN_GEOMETRIC_PRESENTATION_REPRESENTATION (  '', ( #282 ), #188 ) ;
#151 = LINE ( 'NONE', #255, #76 ) ;
#152 = AXIS2_PLACEMENT_3D ( 'NONE', #138, #288, #30 ) ;
#153 = EDGE_CURVE ( 'NONE', #3, #86, #233, .T. ) ;
#154 = CARTESIAN_POINT ( 'NONE',  ( 0.0000000000000000000, 0.0000000000000000000, 0.3937009999999999676 ) ) ;
#155 = VECTOR ( 'NONE', #333, 39.37007874015748143 ) ;
#156 = DIRECTION ( 'NONE',  ( 1.000000000000000000, 0.0000000000000000000, 0.0000000000000000000 ) ) ;
#157 = CARTESIAN_POINT ( 'NONE',  ( -0.02559049999999998132, 0.0000000000000000000, 0.06928860975630385388 ) ) ;
#158 = DIRECTION ( 'NONE',  ( 0.0000000000000000000, 0.0000000000000000000, 1.000000000000000000 ) ) ;
#159 = CARTESIAN_POINT ( 'NONE',  ( 0.0000000000000000000, 0.0000000000000000000, 2.952755999999999936 ) ) ;
#160 = EDGE_CURVE ( 'NONE', #84, #126, #146, .T. ) ;
#161 = ORIENTED_EDGE ( 'NONE', *, *, #193, .F. ) ;
#162 = VECTOR ( 'NONE', #131, 39.37007874015748854 ) ;
#163 = EDGE_CURVE ( 'NONE', #113, #33, #48, .T. ) ;
#164 = ORIENTED_EDGE ( 'NONE', *, *, #334, .F. ) ;
#165 = ORIENTED_EDGE ( 'NONE', *, *, #224, .F. ) ;
#166 = ORIENTED_EDGE ( 'NONE', *, *, #2, .T. ) ;
#167 = ADVANCED_FACE ( 'NONE', ( #179 ), #260, .T. ) ;
#168 = DIRECTION ( 'NONE',  ( 1.000000000000000000, 0.0000000000000000000, 0.0000000000000000000 ) ) ;
#169 = VERTEX_POINT ( 'NONE', #104 ) ;
#170 = CYLINDRICAL_SURFACE ( 'NONE', #275, 0.1181100000000000344 ) ;
#171 = CIRCLE ( 'NONE', #152, 0.02559049999999998132 ) ;
#172 = CARTESIAN_POINT ( 'NONE',  ( 0.0000000000000000000, 0.0000000000000000000, 2.952755999999999936 ) ) ;
#173 = FILL_AREA_STYLE_COLOUR ( '', #22 ) ;
#174 = ORIENTED_EDGE ( 'NONE', *, *, #153, .F. ) ;
#175 = SURFACE_SIDE_STYLE ('',( #250 ) ) ;
#176 = CARTESIAN_POINT ( 'NONE',  ( -0.02559049999999996397, 0.0000000000000000000, 0.0000000000000000000 ) ) ;
#177 = CARTESIAN_POINT ( 'NONE',  ( 0.0000000000000000000, 0.0000000000000000000, 0.0000000000000000000 ) ) ;
#178 = AXIS2_PLACEMENT_3D ( 'NONE', #337, #128, #232 ) ;
#179 = FACE_OUTER_BOUND ( 'NONE', #62, .T. ) ;
#180 =( NAMED_UNIT ( * ) SI_UNIT ( $, .STERADIAN. ) SOLID_ANGLE_UNIT ( ) );
#181 = LINE ( 'NONE', #28, #344 ) ;
#182 = LINE ( 'NONE', #210, #20 ) ;
#183 = CIRCLE ( 'NONE', #149, 0.1181100000000000344 ) ;
#184 = DIRECTION ( 'NONE',  ( -1.000000000000000000, 0.0000000000000000000, 0.0000000000000000000 ) ) ;
#185 = DIRECTION ( 'NONE',  ( -0.0000000000000000000, -0.0000000000000000000, -1.000000000000000000 ) ) ;
#186 = AXIS2_PLACEMENT_3D ( 'NONE', #196, #124, #253 ) ;
#187 = DIRECTION ( 'NONE',  ( -0.0000000000000000000, -0.0000000000000000000, -1.000000000000000000 ) ) ;
#188 =( GEOMETRIC_REPRESENTATION_CONTEXT ( 3 ) GLOBAL_UNCERTAINTY_ASSIGNED_CONTEXT ( ( #343 ) ) GLOBAL_UNIT_ASSIGNED_CONTEXT ( ( #73, #279, #180 ) ) REPRESENTATION_CONTEXT ( 'NONE', 'WORKASPACE' ) );
#189 = EDGE_LOOP ( 'NONE', ( #249, #294, #192, #297 ) ) ;
#190 =( NAMED_UNIT ( * ) PLANE_ANGLE_UNIT ( ) SI_UNIT ( $, .RADIAN. ) );
#191 = EDGE_LOOP ( 'NONE', ( #165, #325, #39, #61 ) ) ;
#192 = ORIENTED_EDGE ( 'NONE', *, *, #82, .T. ) ;
#193 = EDGE_CURVE ( 'NONE', #223, #169, #116, .T. ) ;
#194 = VERTEX_POINT ( 'NONE', #340 ) ;
#195 = CARTESIAN_POINT ( 'NONE',  ( 0.1299209999999998144, 0.0000000000000000000, 1.547998148936168050 ) ) ;
#196 = CARTESIAN_POINT ( 'NONE',  ( 0.0000000000000000000, 0.0000000000000000000, 0.0000000000000000000 ) ) ;
#197 = EDGE_LOOP ( 'NONE', ( #57, #11 ) ) ;
#198 = APPLICATION_PROTOCOL_DEFINITION ( 'draft international standard', 'automotive_design', 1998, #330 ) ;
#199 = DIRECTION ( 'NONE',  ( -1.224646799147352961E-16, 1.000000000000000000, 0.0000000000000000000 ) ) ;
#200 = PRESENTATION_STYLE_ASSIGNMENT (( #231 ) ) ;
#201 = VERTEX_POINT ( 'NONE', #78 ) ;
#202 = CIRCLE ( 'NONE', #54, 0.1031099999999991745 ) ;
#203 = CARTESIAN_POINT ( 'NONE',  ( 0.1181100000000000344, 1.446430334472939084E-17, 1.417323000000000333 ) ) ;
#204 =( GEOMETRIC_REPRESENTATION_CONTEXT ( 3 ) GLOBAL_UNCERTAINTY_ASSIGNED_CONTEXT ( ( #52 ) ) GLOBAL_UNIT_ASSIGNED_CONTEXT ( ( #276, #65, #144 ) ) REPRESENTATION_CONTEXT ( 'NONE', 'WORKASPACE' ) );
#205 = CARTESIAN_POINT ( 'NONE',  ( 0.0000000000000000000, 0.0000000000000000000, 2.952755999999999936 ) ) ;
#206 = CARTESIAN_POINT ( 'NONE',  ( 0.0000000000000000000, 0.0000000000000000000, 0.0000000000000000000 ) ) ;
#207 = DIRECTION ( 'NONE',  ( -1.000000000000000000, 0.0000000000000000000, 0.0000000000000000000 ) ) ;
#208 = EDGE_CURVE ( 'NONE', #33, #113, #58, .T. ) ;
#209 = AXIS2_PLACEMENT_3D ( 'NONE', #256, #257, #47 ) ;
#210 = CARTESIAN_POINT ( 'NONE',  ( -0.1181100000000000344, 0.0000000000000000000, 2.952755999999999936 ) ) ;
#211 =( LENGTH_UNIT ( ) NAMED_UNIT ( * ) SI_UNIT ( $, .METRE. ) );
#212 = EDGE_CURVE ( 'NONE', #194, #86, #183, .T. ) ;
#213 = ORIENTED_EDGE ( 'NONE', *, *, #88, .T. ) ;
#214 = FILL_AREA_STYLE ('',( #60 ) ) ;
#215 = EDGE_LOOP ( 'NONE', ( #164, #221, #240, #87 ) ) ;
#216 = EDGE_CURVE ( 'NONE', #169, #201, #322, .T. ) ;
#217 = ORIENTED_EDGE ( 'NONE', *, *, #338, .T. ) ;
#218 = ADVANCED_FACE ( 'NONE', ( #103 ), #63, .T. ) ;
#219 = ORIENTED_EDGE ( 'NONE', *, *, #72, .T. ) ;
#220 = MECHANICAL_DESIGN_GEOMETRIC_PRESENTATION_REPRESENTATION (  '', ( #101 ), #80 ) ;
#221 = ORIENTED_EDGE ( 'NONE', *, *, #153, .T. ) ;
#222 = DIRECTION ( 'NONE',  ( 0.0000000000000000000, 0.0000000000000000000, 1.000000000000000000 ) ) ;
#223 = VERTEX_POINT ( 'NONE', #157 ) ;
#224 = EDGE_CURVE ( 'NONE', #86, #126, #181, .T. ) ;
#225 = CONICAL_SURFACE ( 'NONE', #326, 0.1299209999999998144, 0.09013951093658492675 ) ;
#226 = LINE ( 'NONE', #176, #36 ) ;
#227 = AXIS2_PLACEMENT_3D ( 'NONE', #206, #259, #235 ) ;
#228 = CARTESIAN_POINT ( 'NONE',  ( 0.02559049999999995356, 0.0000000000000000000, 0.3937009999999999676 ) ) ;
#229 = EDGE_LOOP ( 'NONE', ( #327, #118, #166, #31 ) ) ;
#230 = AXIS2_PLACEMENT_3D ( 'NONE', #172, #14, #37 ) ;
#231 = SURFACE_STYLE_USAGE ( .BOTH. , #175 ) ;
#232 = DIRECTION ( 'NONE',  ( 1.000000000000000000, 0.0000000000000000000, 0.0000000000000000000 ) ) ;
#233 = LINE ( 'NONE', #283, #162 ) ;
#234 = CLOSED_SHELL ( 'NONE', ( #269, #42, #281, #55, #167, #311, #123, #218, #114, #5, #18 ) ) ;
#235 = DIRECTION ( 'NONE',  ( -1.000000000000000000, 0.0000000000000000000, 0.0000000000000000000 ) ) ;
#236 = PLANE ( 'NONE',  #109 ) ;
#237 = CARTESIAN_POINT ( 'NONE',  ( 0.0000000000000000000, 0.0000000000000000000, 1.547998148936168050 ) ) ;
#238 = AXIS2_PLACEMENT_3D ( 'NONE', #177, #335, #100 ) ;
#239 = CIRCLE ( 'NONE', #308, 0.1181100000000000344 ) ;
#240 = ORIENTED_EDGE ( 'NONE', *, *, #212, .F. ) ;
#241 = VECTOR ( 'NONE', #329, 39.37007874015748854 ) ;
#242 = AXIS2_PLACEMENT_3D ( 'NONE', #154, #74, #307 ) ;
#243 = DIRECTION ( 'NONE',  ( 0.0000000000000000000, 0.0000000000000000000, 1.000000000000000000 ) ) ;
#244 = ORIENTED_EDGE ( 'NONE', *, *, #79, .F. ) ;
#245 = ORIENTED_EDGE ( 'NONE', *, *, #338, .F. ) ;
#246 = VERTEX_POINT ( 'NONE', #19 ) ;
#247 = PRODUCT_DEFINITION_SHAPE ( 'NONE', 'NONE',  #262 ) ;
#248 = SPHERICAL_SURFACE ( 'NONE', #319, 0.03936999999999999528 ) ;
#249 = ORIENTED_EDGE ( 'NONE', *, *, #216, .T. ) ;
#250 = SURFACE_STYLE_FILL_AREA ( #252 ) ;
#251 = LINE ( 'NONE', #143, #241 ) ;
#252 = FILL_AREA_STYLE ('',( #173 ) ) ;
#253 = DIRECTION ( 'NONE',  ( -1.000000000000000000, 0.0000000000000000000, 0.0000000000000000000 ) ) ;
#254 = CONICAL_SURFACE ( 'NONE', #268, 0.1299209999999998144, 0.09013951093658492675 ) ;
#255 = CARTESIAN_POINT ( 'NONE',  ( -0.1299209999999998144, 1.591073367920230651E-17, 1.547998148936168050 ) ) ;
#256 = CARTESIAN_POINT ( 'NONE',  ( 0.0000000000000000000, 0.0000000000000000000, 0.3937009999999999676 ) ) ;
#257 = DIRECTION ( 'NONE',  ( -0.0000000000000000000, -0.0000000000000000000, -1.000000000000000000 ) ) ;
#258 = EDGE_CURVE ( 'NONE', #86, #194, #303, .T. ) ;
#259 = DIRECTION ( 'NONE',  ( -0.0000000000000000000, -0.0000000000000000000, -1.000000000000000000 ) ) ;
#260 = CYLINDRICAL_SURFACE ( 'NONE', #111, 0.1181100000000000344 ) ;
#261 = DIRECTION ( 'NONE',  ( -1.000000000000000000, 0.0000000000000000000, 0.0000000000000000000 ) ) ;
#262 = PRODUCT_DEFINITION ( 'UNKNOWN', '', #29, #105 ) ;
#263 = ADVANCED_BREP_SHAPE_REPRESENTATION ( 'Micro_SBMM-020-210', ( #290, #238 ), #204 ) ;
#264 = LENGTH_MEASURE_WITH_UNIT ( LENGTH_MEASURE( 0.02539999999999999897 ), #331 );
#265 = EDGE_LOOP ( 'NONE', ( #139, #270, #141, #161, #8 ) ) ;
#266 = DIRECTION ( 'NONE',  ( 1.000000000000000000, 0.0000000000000000000, 0.0000000000000000000 ) ) ;
#267 = ORIENTED_EDGE ( 'NONE', *, *, #208, .T. ) ;
#268 = AXIS2_PLACEMENT_3D ( 'NONE', #237, #302, #266 ) ;
#269 = ADVANCED_FACE ( 'NONE', ( #339 ), #21, .T. ) ;
#270 = ORIENTED_EDGE ( 'NONE', *, *, #79, .T. ) ;
#271 = ORIENTED_EDGE ( 'NONE', *, *, #298, .F. ) ;
#272 = FACE_OUTER_BOUND ( 'NONE', #189, .T. ) ;
#273 = CARTESIAN_POINT ( 'NONE',  ( 0.0000000000000000000, 0.0000000000000000000, 2.952755999999999936 ) ) ;
#274 = ORIENTED_EDGE ( 'NONE', *, *, #224, .T. ) ;
#275 = AXIS2_PLACEMENT_3D ( 'NONE', #293, #83, #291 ) ;
#276 =( CONVERSION_BASED_UNIT ( 'INCH', #264 ) LENGTH_UNIT ( ) NAMED_UNIT ( #117 ) );
#277 = ORIENTED_EDGE ( 'NONE', *, *, #193, .T. ) ;
#278 = CARTESIAN_POINT ( 'NONE',  ( 0.0000000000000000000, 0.0000000000000000000, 0.03937000000000000915 ) ) ;
#279 =( NAMED_UNIT ( * ) PLANE_ANGLE_UNIT ( ) SI_UNIT ( $, .RADIAN. ) );
#280 = DIRECTION ( 'NONE',  ( 0.09001749462147050351, 0.0000000000000000000, 0.9959401842791932857 ) ) ;
#281 = ADVANCED_FACE ( 'NONE', ( #313 ), #254, .T. ) ;
#282 = STYLED_ITEM ( 'NONE', ( #200 ), #263 ) ;
#283 = CARTESIAN_POINT ( 'NONE',  ( 0.1031099999999991745, 1.262733314600825725E-17, 2.952755999999999936 ) ) ;
#284 = DIRECTION ( 'NONE',  ( -0.0000000000000000000, -0.0000000000000000000, -1.000000000000000000 ) ) ;
#285 = FACE_OUTER_BOUND ( 'NONE', #197, .T. ) ;
#286 = CARTESIAN_POINT ( 'NONE',  ( 0.0000000000000000000, 0.0000000000000000000, 2.952755999999999936 ) ) ;
#287 = CARTESIAN_POINT ( 'NONE',  ( 0.0000000000000000000, 0.0000000000000000000, 0.06928860975630385388 ) ) ;
#288 = DIRECTION ( 'NONE',  ( -0.0000000000000000000, -0.0000000000000000000, -1.000000000000000000 ) ) ;
#289 = EDGE_LOOP ( 'NONE', ( #174, #110, #142, #292 ) ) ;
#290 = MANIFOLD_SOLID_BREP ( 'Cut-Revolve3', #234 ) ;
#291 = DIRECTION ( 'NONE',  ( -1.000000000000000000, 0.0000000000000000000, 0.0000000000000000000 ) ) ;
#292 = ORIENTED_EDGE ( 'NONE', *, *, #258, .F. ) ;
#293 = CARTESIAN_POINT ( 'NONE',  ( 0.0000000000000000000, 0.0000000000000000000, 2.952755999999999936 ) ) ;
#294 = ORIENTED_EDGE ( 'NONE', *, *, #316, .T. ) ;
#295 = DIMENSIONAL_EXPONENTS ( 1.000000000000000000, 0.0000000000000000000, 0.0000000000000000000, 0.0000000000000000000, 0.0000000000000000000, 0.0000000000000000000, 0.0000000000000000000 ) ;
#296 = VERTEX_POINT ( 'NONE', #85 ) ;
#297 = ORIENTED_EDGE ( 'NONE', *, *, #133, .F. ) ;
#298 = EDGE_CURVE ( 'NONE', #59, #223, #318, .T. ) ;
#299 = PRODUCT ( 'Micro_SBMM-020-210', 'Micro_SBMM-020-210', '', ( #13 ) ) ;
#300 = AXIS2_PLACEMENT_3D ( 'NONE', #306, #168, #147 ) ;
#301 = FACE_OUTER_BOUND ( 'NONE', #215, .T. ) ;
#302 = DIRECTION ( 'NONE',  ( 0.0000000000000000000, 0.0000000000000000000, 1.000000000000000000 ) ) ;
#303 = CIRCLE ( 'NONE', #178, 0.1181100000000000344 ) ;
#304 = DIRECTION ( 'NONE',  ( 0.0000000000000000000, 1.000000000000000000, 0.0000000000000000000 ) ) ;
#305 = CARTESIAN_POINT ( 'NONE',  ( -0.1181100000000000344, 0.0000000000000000000, 1.417323000000000333 ) ) ;
#306 = CARTESIAN_POINT ( 'NONE',  ( 0.0000000000000000000, 0.0000000000000000000, 0.03937000000000000915 ) ) ;
#307 = DIRECTION ( 'NONE',  ( -1.000000000000000000, 0.0000000000000000000, 0.0000000000000000000 ) ) ;
#308 = AXIS2_PLACEMENT_3D ( 'NONE', #56, #222, #112 ) ;
#309 = APPLICATION_CONTEXT ( 'automotive_design' ) ;
#310 = CARTESIAN_POINT ( 'NONE',  ( -0.02559049999999995356, 8.799117868043711275E-18, 0.3937009999999999676 ) ) ;
#311 = ADVANCED_FACE ( 'NONE', ( #91 ), #170, .T. ) ;
#312 = CARTESIAN_POINT ( 'NONE',  ( 0.0000000000000000000, 0.0000000000000000000, 0.03937000000000000915 ) ) ;
#313 = FACE_OUTER_BOUND ( 'NONE', #66, .T. ) ;
#314 = UNCERTAINTY_MEASURE_WITH_UNIT (LENGTH_MEASURE( 1.000000000000000082E-05 ), #328, 'distance_accuracy_value', 'NONE');
#315 = AXIS2_PLACEMENT_3D ( 'NONE', #287, #185, #261 ) ;
#316 = EDGE_CURVE ( 'NONE', #201, #59, #171, .T. ) ;
#317 = DIRECTION ( 'NONE',  ( -1.000000000000000000, 0.0000000000000000000, 0.0000000000000000000 ) ) ;
#318 = CIRCLE ( 'NONE', #46, 0.02559049999999998132 ) ;
#319 = AXIS2_PLACEMENT_3D ( 'NONE', #278, #70, #304 ) ;
#320 = DIRECTION ( 'NONE',  ( 1.000000000000000000, 0.0000000000000000000, 0.0000000000000000000 ) ) ;
#321 = ORIENTED_EDGE ( 'NONE', *, *, #82, .F. ) ;
#322 = CIRCLE ( 'NONE', #315, 0.02559049999999998132 ) ;
#323 = VECTOR ( 'NONE', #280, 39.37007874015748854 ) ;
#324 = ORIENTED_EDGE ( 'NONE', *, *, #133, .T. ) ;
#325 = ORIENTED_EDGE ( 'NONE', *, *, #258, .T. ) ;
#326 = AXIS2_PLACEMENT_3D ( 'NONE', #71, #25, #102 ) ;
#327 = ORIENTED_EDGE ( 'NONE', *, *, #88, .F. ) ;
#328 =( CONVERSION_BASED_UNIT ( 'INCH', #67 ) LENGTH_UNIT ( ) NAMED_UNIT ( #295 ) );
#329 = DIRECTION ( 'NONE',  ( -0.7071067811865486830, 0.0000000000000000000, -0.7071067811865462405 ) ) ;
#330 = APPLICATION_CONTEXT ( 'automotive_design' ) ;
#331 =( LENGTH_UNIT ( ) NAMED_UNIT ( * ) SI_UNIT ( $, .METRE. ) );
#332 = CIRCLE ( 'NONE', #127, 0.03936999999999999528 ) ;
#333 = DIRECTION ( 'NONE',  ( -0.0000000000000000000, -0.0000000000000000000, -1.000000000000000000 ) ) ;
#334 = EDGE_CURVE ( 'NONE', #3, #246, #24, .T. ) ;
#335 = DIRECTION ( 'NONE',  ( 0.0000000000000000000, 0.0000000000000000000, 1.000000000000000000 ) ) ;
#336 = CARTESIAN_POINT ( 'NONE',  ( 0.0000000000000000000, 0.0000000000000000000, 2.952755999999999936 ) ) ;
#337 = CARTESIAN_POINT ( 'NONE',  ( 0.0000000000000000000, 0.0000000000000000000, 2.937755999999999368 ) ) ;
#338 = EDGE_CURVE ( 'NONE', #126, #84, #239, .T. ) ;
#339 = FACE_OUTER_BOUND ( 'NONE', #265, .T. ) ;
#340 = CARTESIAN_POINT ( 'NONE',  ( -0.1181100000000000344, 0.0000000000000000000, 2.937755999999999368 ) ) ;
#341 = DIRECTION ( 'NONE',  ( 0.0000000000000000000, 0.0000000000000000000, -1.000000000000000000 ) ) ;
#342 = CARTESIAN_POINT ( 'NONE',  ( 0.0000000000000000000, 0.0000000000000000000, 0.06928860975630385388 ) ) ;
#343 = UNCERTAINTY_MEASURE_WITH_UNIT (LENGTH_MEASURE( 1.000000000000000082E-05 ), #73, 'distance_accuracy_value', 'NONE');
#344 = VECTOR ( 'NONE', #284, 39.37007874015748143 ) ;
#345 = PRESENTATION_LAYER_ASSIGNMENT (  '', '', ( #282 ) ) ;
ENDSEC;
END-ISO-10303-21;
