ISO-10303-21;
HEADER;
FILE_DESCRIPTION (( 'STEP AP214' ),
    '1' );
FILE_NAME ('84628.STEP',
    '2023-06-23T14:03:25',
    ( '' ),
    ( '' ),
    'SwSTEP 2.0',
    'SolidWorks 2023',
    '' );
FILE_SCHEMA (( 'AUTOMOTIVE_DESIGN' ));
ENDSEC;

DATA;
#1 = COLOUR_RGB ( '',1.000000000000000000, 0.000000000000000000, 0.000000000000000000 ) ;
#2 = EDGE_CURVE ( 'NONE', #119, #337, #111, .T. ) ;
#3 = CARTESIAN_POINT ( 'NONE',  ( 0.000000000000000000, 0.7500000000000001110, 0.000000000000000000 ) ) ;
#4 =( GEOMETRIC_REPRESENTATION_CONTEXT ( 3 ) GLOBAL_UNCERTAINTY_ASSIGNED_CONTEXT ( ( #57 ) ) GLOBAL_UNIT_ASSIGNED_CONTEXT ( ( #18, #40, #214 ) ) REPRESENTATION_CONTEXT ( 'NONE', 'WORKASPACE' ) );
#5 = LENGTH_MEASURE_WITH_UNIT ( LENGTH_MEASURE( 0.02539999999999999897 ), #113 );
#6 = LINE ( 'NONE', #120, #279 ) ;
#7 = EDGE_CURVE ( 'NONE', #305, #183, #19, .T. ) ;
#8 = CIRCLE ( 'NONE', #253, 0.09374999999999995837 ) ;
#9 = FILL_AREA_STYLE_COLOUR ( '', #227 ) ;
#10 =( NAMED_UNIT ( * ) SI_UNIT ( $, .STERADIAN. ) SOLID_ANGLE_UNIT ( ) );
#11 = DIMENSIONAL_EXPONENTS ( 1.000000000000000000, 0.000000000000000000, 0.000000000000000000, 0.000000000000000000, 0.000000000000000000, 0.000000000000000000, 0.000000000000000000 ) ;
#12 = DIRECTION ( 'NONE',  ( -0.000000000000000000, -1.000000000000000000, -0.000000000000000000 ) ) ;
#13 = EDGE_CURVE ( 'NONE', #183, #94, #60, .T. ) ;
#14 = PRODUCT_DEFINITION_CONTEXT ( 'detailed design', #197, 'design' ) ;
#15 = CLOSED_SHELL ( 'NONE', ( #34, #118, #297, #144 ) ) ;
#16 = DIRECTION ( 'NONE',  ( -3.498990854706722745E-17, 1.000000000000000000, -0.000000000000000000 ) ) ;
#17 = DIMENSIONAL_EXPONENTS ( 1.000000000000000000, 0.000000000000000000, 0.000000000000000000, 0.000000000000000000, 0.000000000000000000, 0.000000000000000000, 0.000000000000000000 ) ;
#18 =( CONVERSION_BASED_UNIT ( 'INCH', #128 ) LENGTH_UNIT ( ) NAMED_UNIT ( #160 ) );
#19 = LINE ( 'NONE', #132, #207 ) ;
#20 = ORIENTED_EDGE ( 'NONE', *, *, #130, .F. ) ;
#21 = CARTESIAN_POINT ( 'NONE',  ( 0.09374999999999994449, 2.500000000000000000, 0.000000000000000000 ) ) ;
#22 = FACE_OUTER_BOUND ( 'NONE', #289, .T. ) ;
#23 =( LENGTH_UNIT ( ) NAMED_UNIT ( * ) SI_UNIT ( $, .METRE. ) );
#24 =( GEOMETRIC_REPRESENTATION_CONTEXT ( 3 ) GLOBAL_UNCERTAINTY_ASSIGNED_CONTEXT ( ( #104 ) ) GLOBAL_UNIT_ASSIGNED_CONTEXT ( ( #114, #145, #153 ) ) REPRESENTATION_CONTEXT ( 'NONE', 'WORKASPACE' ) );
#25 = FACE_OUTER_BOUND ( 'NONE', #92, .T. ) ;
#26 = EDGE_CURVE ( 'NONE', #306, #181, #308, .T. ) ;
#27 = AXIS2_PLACEMENT_3D ( 'NONE', #299, #274, #164 ) ;
#28 = EDGE_LOOP ( 'NONE', ( #264, #109, #66, #261 ) ) ;
#29 =( LENGTH_UNIT ( ) NAMED_UNIT ( * ) SI_UNIT ( $, .METRE. ) );
#30 = EDGE_LOOP ( 'NONE', ( #85, #146, #93, #322 ) ) ;
#31 = VECTOR ( 'NONE', #98, 39.37007874015748143 ) ;
#32 = ORIENTED_EDGE ( 'NONE', *, *, #51, .F. ) ;
#33 = FACE_OUTER_BOUND ( 'NONE', #108, .T. ) ;
#34 = ADVANCED_FACE ( 'NONE', ( #185 ), #37, .T. ) ;
#35 = VERTEX_POINT ( 'NONE', #123 ) ;
#36 = CARTESIAN_POINT ( 'NONE',  ( 0.000000000000000000, 0.7500000000000001110, 0.000000000000000000 ) ) ;
#37 = CYLINDRICAL_SURFACE ( 'NONE', #138, 0.07810000000000000275 ) ;
#38 = AXIS2_PLACEMENT_3D ( 'NONE', #187, #42, #189 ) ;
#39 = CIRCLE ( 'NONE', #180, 0.09375000000000001388 ) ;
#40 =( NAMED_UNIT ( * ) PLANE_ANGLE_UNIT ( ) SI_UNIT ( $, .RADIAN. ) );
#41 = CYLINDRICAL_SURFACE ( 'NONE', #55, 0.09374999999999997224 ) ;
#42 = DIRECTION ( 'NONE',  ( 0.000000000000000000, 0.000000000000000000, 1.000000000000000000 ) ) ;
#43 = PLANE ( 'NONE',  #121 ) ;
#44 = SURFACE_STYLE_FILL_AREA ( #74 ) ;
#45 = AXIS2_PLACEMENT_3D ( 'NONE', #76, #247, #195 ) ;
#46 = SURFACE_SIDE_STYLE ('',( #286 ) ) ;
#47 = SURFACE_STYLE_FILL_AREA ( #325 ) ;
#48 = ORIENTED_EDGE ( 'NONE', *, *, #13, .T. ) ;
#49 =( LENGTH_UNIT ( ) NAMED_UNIT ( * ) SI_UNIT ( $, .METRE. ) );
#50 = CARTESIAN_POINT ( 'NONE',  ( -6.123233995736766036E-17, 2.500000000000000000, 0.000000000000000000 ) ) ;
#51 = EDGE_CURVE ( 'NONE', #183, #311, #77, .T. ) ;
#52 = CARTESIAN_POINT ( 'NONE',  ( -7.582401355855259480E-33, 0.7499999999999998890, 0.000000000000000000 ) ) ;
#53 = SURFACE_STYLE_USAGE ( .BOTH. , #86 ) ;
#54 = PRESENTATION_STYLE_ASSIGNMENT (( #266 ) ) ;
#55 = AXIS2_PLACEMENT_3D ( 'NONE', #211, #16, #349 ) ;
#56 = ORIENTED_EDGE ( 'NONE', *, *, #209, .T. ) ;
#57 = UNCERTAINTY_MEASURE_WITH_UNIT (LENGTH_MEASURE( 1.000000000000000082E-05 ), #18, 'distance_accuracy_value', 'NONE');
#58 = CARTESIAN_POINT ( 'NONE',  ( 0.000000000000000000, 0.000000000000000000, 0.000000000000000000 ) ) ;
#59 = FILL_AREA_STYLE_COLOUR ( '', #1 ) ;
#60 = CIRCLE ( 'NONE', #45, 0.09374999999999995837 ) ;
#61 = PRESENTATION_LAYER_ASSIGNMENT (  '', '', ( #212 ) ) ;
#62 = ORIENTED_EDGE ( 'NONE', *, *, #7, .F. ) ;
#63 = FILL_AREA_STYLE ('',( #9 ) ) ;
#64 = DIMENSIONAL_EXPONENTS ( 1.000000000000000000, 0.000000000000000000, 0.000000000000000000, 0.000000000000000000, 0.000000000000000000, 0.000000000000000000, 0.000000000000000000 ) ;
#65 = SURFACE_SIDE_STYLE ('',( #205 ) ) ;
#66 = ORIENTED_EDGE ( 'NONE', *, *, #7, .T. ) ;
#67 = ADVANCED_FACE ( 'NONE', ( #288 ), #41, .T. ) ;
#68 = DIRECTION ( 'NONE',  ( 0.000000000000000000, 0.000000000000000000, -1.000000000000000000 ) ) ;
#69 = ORIENTED_EDGE ( 'NONE', *, *, #201, .F. ) ;
#70 = DIRECTION ( 'NONE',  ( -1.000000000000000000, 0.000000000000000000, 0.000000000000000000 ) ) ;
#71 = ORIENTED_EDGE ( 'NONE', *, *, #82, .F. ) ;
#72 = DIRECTION ( 'NONE',  ( -1.000000000000000000, 0.000000000000000000, 0.000000000000000000 ) ) ;
#73 = CARTESIAN_POINT ( 'NONE',  ( -0.09375000000000004163, 2.500000000000000000, 0.000000000000000000 ) ) ;
#74 = FILL_AREA_STYLE ('',( #304 ) ) ;
#75 = DIRECTION ( 'NONE',  ( 0.000000000000000000, 0.000000000000000000, -1.000000000000000000 ) ) ;
#76 = CARTESIAN_POINT ( 'NONE',  ( -1.504496843994944312E-18, 0.7929980216144647542, 0.000000000000000000 ) ) ;
#77 = LINE ( 'NONE', #73, #31 ) ;
#78 = DIRECTION ( 'NONE',  ( 3.498990854706722745E-17, -1.000000000000000000, 0.000000000000000000 ) ) ;
#79 = DIRECTION ( 'NONE',  ( -3.498990854706722745E-17, 1.000000000000000000, -0.000000000000000000 ) ) ;
#80 = ORIENTED_EDGE ( 'NONE', *, *, #312, .F. ) ;
#81 = CARTESIAN_POINT ( 'NONE',  ( -7.582401355855259480E-33, 0.7499999999999998890, 0.000000000000000000 ) ) ;
#82 = EDGE_CURVE ( 'NONE', #181, #306, #96, .T. ) ;
#83 = LENGTH_MEASURE_WITH_UNIT ( LENGTH_MEASURE( 0.02539999999999999897 ), #142 );
#84 = AXIS2_PLACEMENT_3D ( 'NONE', #21, #78, #358 ) ;
#85 = ORIENTED_EDGE ( 'NONE', *, *, #209, .F. ) ;
#86 = SURFACE_SIDE_STYLE ('',( #302 ) ) ;
#87 = DIRECTION ( 'NONE',  ( 0.000000000000000000, 0.000000000000000000, -1.000000000000000000 ) ) ;
#88 = MECHANICAL_DESIGN_GEOMETRIC_PRESENTATION_REPRESENTATION (  '', ( #184 ), #303 ) ;
#89 = LENGTH_MEASURE_WITH_UNIT ( LENGTH_MEASURE( 0.02539999999999999897 ), #317 );
#90 = CIRCLE ( 'NONE', #112, 0.07810000000000000275 ) ;
#91 = MANIFOLD_SOLID_BREP ( 'Revolve - Cutting Edge', #15 ) ;
#92 = EDGE_LOOP ( 'NONE', ( #281, #313 ) ) ;
#93 = ORIENTED_EDGE ( 'NONE', *, *, #312, .T. ) ;
#94 = VERTEX_POINT ( 'NONE', #162 ) ;
#95 = CARTESIAN_POINT ( 'NONE',  ( 0.000000000000000000, 0.000000000000000000, -0.07810000000000000275 ) ) ;
#96 = CIRCLE ( 'NONE', #158, 0.07810000000000000275 ) ;
#97 = CARTESIAN_POINT ( 'NONE',  ( -6.123233995736766036E-17, 2.500000000000000000, 0.000000000000000000 ) ) ;
#98 = DIRECTION ( 'NONE',  ( -3.498990854706722745E-17, 1.000000000000000000, -0.000000000000000000 ) ) ;
#99 = SURFACE_SIDE_STYLE ('',( #44 ) ) ;
#100 = FILL_AREA_STYLE_COLOUR ( '', #298 ) ;
#101 = DIRECTION ( 'NONE',  ( -1.000000000000000000, 0.000000000000000000, 0.000000000000000000 ) ) ;
#102 = SURFACE_SIDE_STYLE ('',( #217 ) ) ;
#103 = DIRECTION ( 'NONE',  ( -0.3420201433256681023, 0.9396926207859086499, 0.000000000000000000 ) ) ;
#104 = UNCERTAINTY_MEASURE_WITH_UNIT (LENGTH_MEASURE( 1.000000000000000082E-05 ), #114, 'distance_accuracy_value', 'NONE');
#105 = STYLED_ITEM ( 'NONE', ( #167 ), #91 ) ;
#106 = FILL_AREA_STYLE_COLOUR ( '', #193 ) ;
#107 = DIRECTION ( 'NONE',  ( -1.000000000000000000, 0.000000000000000000, 0.000000000000000000 ) ) ;
#108 = EDGE_LOOP ( 'NONE', ( #177, #20 ) ) ;
#109 = ORIENTED_EDGE ( 'NONE', *, *, #130, .T. ) ;
#110 =( NAMED_UNIT ( * ) SI_UNIT ( $, .STERADIAN. ) SOLID_ANGLE_UNIT ( ) );
#111 = CIRCLE ( 'NONE', #314, 0.07810000000000000275 ) ;
#112 = AXIS2_PLACEMENT_3D ( 'NONE', #332, #79, #226 ) ;
#113 =( LENGTH_UNIT ( ) NAMED_UNIT ( * ) SI_UNIT ( $, .METRE. ) );
#114 =( CONVERSION_BASED_UNIT ( 'INCH', #254 ) LENGTH_UNIT ( ) NAMED_UNIT ( #64 ) );
#115 = PRODUCT_RELATED_PRODUCT_CATEGORY ( 'part', '', ( #346 ) ) ;
#116 = CIRCLE ( 'NONE', #155, 0.09375000000000001388 ) ;
#117 =( NAMED_UNIT ( * ) SI_UNIT ( $, .STERADIAN. ) SOLID_ANGLE_UNIT ( ) );
#118 = ADVANCED_FACE ( 'NONE', ( #239 ), #43, .T. ) ;
#119 = VERTEX_POINT ( 'NONE', #331 ) ;
#120 = CARTESIAN_POINT ( 'NONE',  ( 0.07810000000000000275, 0.7499999999999998890, 9.564491501340828324E-18 ) ) ;
#121 = AXIS2_PLACEMENT_3D ( 'NONE', #3, #359, #334 ) ;
#122 = STYLED_ITEM ( 'NONE', ( #172 ), #297 ) ;
#123 = CARTESIAN_POINT ( 'NONE',  ( 0.09374999999999994449, 2.500000000000000000, 1.148106374200643401E-17 ) ) ;
#124 =( NAMED_UNIT ( * ) PLANE_ANGLE_UNIT ( ) SI_UNIT ( $, .RADIAN. ) );
#125 = PRODUCT_DEFINITION_FORMATION_WITH_SPECIFIED_SOURCE ( 'ANY', '', #346, .NOT_KNOWN. ) ;
#126 = LINE ( 'NONE', #330, #200 ) ;
#127 = VECTOR ( 'NONE', #348, 39.37007874015748143 ) ;
#128 = LENGTH_MEASURE_WITH_UNIT ( LENGTH_MEASURE( 0.02539999999999999897 ), #234 );
#129 = ORIENTED_EDGE ( 'NONE', *, *, #13, .F. ) ;
#130 = EDGE_CURVE ( 'NONE', #342, #305, #90, .T. ) ;
#131 = CYLINDRICAL_SURFACE ( 'NONE', #260, 0.09374999999999997224 ) ;
#132 = CARTESIAN_POINT ( 'NONE',  ( -0.07810000000000000275, 0.7499999999999998890, 0.000000000000000000 ) ) ;
#133 = CARTESIAN_POINT ( 'NONE',  ( 0.000000000000000000, 0.000000000000000000, 0.000000000000000000 ) ) ;
#134 = DIRECTION ( 'NONE',  ( -3.498990854706722745E-17, 1.000000000000000000, -0.000000000000000000 ) ) ;
#135 = FILL_AREA_STYLE ('',( #106 ) ) ;
#136 = CARTESIAN_POINT ( 'NONE',  ( -7.582401355855259480E-33, 0.7499999999999998890, 0.000000000000000000 ) ) ;
#137 = COLOUR_RGB ( '',0.7921568627450980005, 0.8196078431372548767, 0.9333333333333333481 ) ;
#138 = AXIS2_PLACEMENT_3D ( 'NONE', #170, #12, #75 ) ;
#139 = FILL_AREA_STYLE_COLOUR ( '', #137 ) ;
#140 =( CONVERSION_BASED_UNIT ( 'INCH', #83 ) LENGTH_UNIT ( ) NAMED_UNIT ( #11 ) );
#141 = ORIENTED_EDGE ( 'NONE', *, *, #147, .T. ) ;
#142 =( LENGTH_UNIT ( ) NAMED_UNIT ( * ) SI_UNIT ( $, .METRE. ) );
#143 = CIRCLE ( 'NONE', #333, 0.07810000000000000275 ) ;
#144 = ADVANCED_FACE ( 'NONE', ( #25 ), #335, .T. ) ;
#145 =( NAMED_UNIT ( * ) PLANE_ANGLE_UNIT ( ) SI_UNIT ( $, .RADIAN. ) );
#146 = ORIENTED_EDGE ( 'NONE', *, *, #175, .T. ) ;
#147 = EDGE_CURVE ( 'NONE', #342, #94, #6, .T. ) ;
#148 = STYLED_ITEM ( 'NONE', ( #276 ), #144 ) ;
#149 = DIRECTION ( 'NONE',  ( 0.000000000000000000, -1.000000000000000000, -0.000000000000000000 ) ) ;
#150 =( CONVERSION_BASED_UNIT ( 'INCH', #5 ) LENGTH_UNIT ( ) NAMED_UNIT ( #215 ) );
#151 = SURFACE_STYLE_USAGE ( .BOTH. , #65 ) ;
#152 = PLANE ( 'NONE',  #27 ) ;
#153 =( NAMED_UNIT ( * ) SI_UNIT ( $, .STERADIAN. ) SOLID_ANGLE_UNIT ( ) );
#154 = DIRECTION ( 'NONE',  ( 0.3420201433256679913, 0.9396926207859086499, 4.188538737676983753E-17 ) ) ;
#155 = AXIS2_PLACEMENT_3D ( 'NONE', #50, #171, #101 ) ;
#156 =( NAMED_UNIT ( * ) PLANE_ANGLE_UNIT ( ) SI_UNIT ( $, .RADIAN. ) );
#157 = ORIENTED_EDGE ( 'NONE', *, *, #336, .F. ) ;
#158 = AXIS2_PLACEMENT_3D ( 'NONE', #292, #265, #271 ) ;
#159 = LENGTH_MEASURE_WITH_UNIT ( LENGTH_MEASURE( 0.02539999999999999897 ), #49 );
#160 = DIMENSIONAL_EXPONENTS ( 1.000000000000000000, 0.000000000000000000, 0.000000000000000000, 0.000000000000000000, 0.000000000000000000, 0.000000000000000000, 0.000000000000000000 ) ;
#161 = DIRECTION ( 'NONE',  ( -0.000000000000000000, -1.000000000000000000, -0.000000000000000000 ) ) ;
#162 = CARTESIAN_POINT ( 'NONE',  ( 0.09374999999999994449, 0.7929980216144647542, 1.148106374200642938E-17 ) ) ;
#163 = EDGE_CURVE ( 'NONE', #94, #183, #8, .T. ) ;
#164 = DIRECTION ( 'NONE',  ( -1.000000000000000000, -3.498990854706722745E-17, 0.000000000000000000 ) ) ;
#165 = SURFACE_STYLE_USAGE ( .BOTH. , #99 ) ;
#166 =( GEOMETRIC_REPRESENTATION_CONTEXT ( 3 ) GLOBAL_UNCERTAINTY_ASSIGNED_CONTEXT ( ( #244 ) ) GLOBAL_UNIT_ASSIGNED_CONTEXT ( ( #140, #173, #110 ) ) REPRESENTATION_CONTEXT ( 'NONE', 'WORKASPACE' ) );
#167 = PRESENTATION_STYLE_ASSIGNMENT (( #246 ) ) ;
#168 = DIRECTION ( 'NONE',  ( -1.000000000000000000, 0.000000000000000000, 0.000000000000000000 ) ) ;
#169 = CARTESIAN_POINT ( 'NONE',  ( -0.09374999999999994449, 0.7929980216144647542, 0.000000000000000000 ) ) ;
#170 = CARTESIAN_POINT ( 'NONE',  ( 0.000000000000000000, 0.000000000000000000, 0.000000000000000000 ) ) ;
#171 = DIRECTION ( 'NONE',  ( -3.498990854706722745E-17, 1.000000000000000000, -0.000000000000000000 ) ) ;
#172 = PRESENTATION_STYLE_ASSIGNMENT (( #165 ) ) ;
#173 =( NAMED_UNIT ( * ) PLANE_ANGLE_UNIT ( ) SI_UNIT ( $, .RADIAN. ) );
#174 =( GEOMETRIC_REPRESENTATION_CONTEXT ( 3 ) GLOBAL_UNCERTAINTY_ASSIGNED_CONTEXT ( ( #198 ) ) GLOBAL_UNIT_ASSIGNED_CONTEXT ( ( #186, #124, #10 ) ) REPRESENTATION_CONTEXT ( 'NONE', 'WORKASPACE' ) );
#175 = EDGE_CURVE ( 'NONE', #337, #119, #143, .T. ) ;
#176 = CIRCLE ( 'NONE', #221, 0.07810000000000000275 ) ;
#177 = ORIENTED_EDGE ( 'NONE', *, *, #224, .F. ) ;
#178 =( NAMED_UNIT ( * ) SI_UNIT ( $, .STERADIAN. ) SOLID_ANGLE_UNIT ( ) );
#179 = AXIS2_PLACEMENT_3D ( 'NONE', #133, #350, #326 ) ;
#180 = AXIS2_PLACEMENT_3D ( 'NONE', #97, #319, #72 ) ;
#181 = VERTEX_POINT ( 'NONE', #285 ) ;
#182 = PRODUCT_DEFINITION_SHAPE ( 'NONE', 'NONE',  #213 ) ;
#183 = VERTEX_POINT ( 'NONE', #169 ) ;
#184 = STYLED_ITEM ( 'NONE', ( #54 ), #321 ) ;
#185 = FACE_OUTER_BOUND ( 'NONE', #206, .T. ) ;
#186 =( CONVERSION_BASED_UNIT ( 'INCH', #159 ) LENGTH_UNIT ( ) NAMED_UNIT ( #17 ) );
#187 = CARTESIAN_POINT ( 'NONE',  ( 0.000000000000000000, 0.000000000000000000, 0.000000000000000000 ) ) ;
#188 = CYLINDRICAL_SURFACE ( 'NONE', #179, 0.07810000000000000275 ) ;
#189 = DIRECTION ( 'NONE',  ( 1.000000000000000000, 0.000000000000000000, 0.000000000000000000 ) ) ;
#190 = CARTESIAN_POINT ( 'NONE',  ( -6.123233995736766036E-17, 2.500000000000000000, 0.000000000000000000 ) ) ;
#191 = PRESENTATION_STYLE_ASSIGNMENT (( #151 ) ) ;
#192 = ORIENTED_EDGE ( 'NONE', *, *, #201, .T. ) ;
#193 = COLOUR_RGB ( '',0.7921568627450980005, 0.8196078431372548767, 0.9333333333333333481 ) ;
#194 = PRESENTATION_STYLE_ASSIGNMENT (( #328 ) ) ;
#195 = DIRECTION ( 'NONE',  ( -1.000000000000000000, 0.000000000000000000, 0.000000000000000000 ) ) ;
#196 = LINE ( 'NONE', #95, #235 ) ;
#197 = APPLICATION_CONTEXT ( 'automotive_design' ) ;
#198 = UNCERTAINTY_MEASURE_WITH_UNIT (LENGTH_MEASURE( 1.000000000000000082E-05 ), #186, 'distance_accuracy_value', 'NONE');
#199 = PLANE ( 'NONE',  #84 ) ;
#200 = VECTOR ( 'NONE', #223, 39.37007874015748143 ) ;
#201 = EDGE_CURVE ( 'NONE', #35, #311, #39, .T. ) ;
#202 = AXIS2_PLACEMENT_3D ( 'NONE', #52, #134, #353 ) ;
#203 = CARTESIAN_POINT ( 'NONE',  ( 0.000000000000000000, 0.000000000000000000, 0.000000000000000000 ) ) ;
#204 = ORIENTED_EDGE ( 'NONE', *, *, #51, .T. ) ;
#205 = SURFACE_STYLE_FILL_AREA ( #63 ) ;
#206 = EDGE_LOOP ( 'NONE', ( #275, #56, #71, #80 ) ) ;
#207 = VECTOR ( 'NONE', #103, 39.37007874015748143 ) ;
#208 = PRESENTATION_LAYER_ASSIGNMENT (  '', '', ( #105 ) ) ;
#209 = EDGE_CURVE ( 'NONE', #337, #306, #126, .T. ) ;
#210 = CARTESIAN_POINT ( 'NONE',  ( 9.564491501340828324E-18, 0.000000000000000000, 0.07810000000000000275 ) ) ;
#211 = CARTESIAN_POINT ( 'NONE',  ( -6.123233995736766036E-17, 2.500000000000000000, 0.000000000000000000 ) ) ;
#212 = STYLED_ITEM ( 'NONE', ( #194 ), #118 ) ;
#213 = PRODUCT_DEFINITION ( 'UNKNOWN', '', #125, #14 ) ;
#214 =( NAMED_UNIT ( * ) SI_UNIT ( $, .STERADIAN. ) SOLID_ANGLE_UNIT ( ) );
#215 = DIMENSIONAL_EXPONENTS ( 1.000000000000000000, 0.000000000000000000, 0.000000000000000000, 0.000000000000000000, 0.000000000000000000, 0.000000000000000000, 0.000000000000000000 ) ;
#216 = CARTESIAN_POINT ( 'NONE',  ( 0.07810000000000000275, 0.7499999999999998890, 1.052277762167362885E-17 ) ) ;
#217 = SURFACE_STYLE_FILL_AREA ( #352 ) ;
#218 = UNCERTAINTY_MEASURE_WITH_UNIT (LENGTH_MEASURE( 1.000000000000000082E-05 ), #150, 'distance_accuracy_value', 'NONE');
#219 = LINE ( 'NONE', #301, #127 ) ;
#220 = APPLICATION_CONTEXT ( 'automotive_design' ) ;
#221 = AXIS2_PLACEMENT_3D ( 'NONE', #81, #300, #168 ) ;
#222 = FACE_OUTER_BOUND ( 'NONE', #30, .T. ) ;
#223 = DIRECTION ( 'NONE',  ( -0.000000000000000000, -1.000000000000000000, -0.000000000000000000 ) ) ;
#224 = EDGE_CURVE ( 'NONE', #305, #342, #176, .T. ) ;
#225 = MECHANICAL_DESIGN_GEOMETRIC_PRESENTATION_REPRESENTATION (  '', ( #105 ), #4 ) ;
#226 = DIRECTION ( 'NONE',  ( -1.000000000000000000, 0.000000000000000000, 0.000000000000000000 ) ) ;
#227 = COLOUR_RGB ( '',1.000000000000000000, 0.000000000000000000, 0.000000000000000000 ) ;
#228 = ORIENTED_EDGE ( 'NONE', *, *, #336, .T. ) ;
#229 =( GEOMETRIC_REPRESENTATION_CONTEXT ( 3 ) GLOBAL_UNCERTAINTY_ASSIGNED_CONTEXT ( ( #329 ) ) GLOBAL_UNIT_ASSIGNED_CONTEXT ( ( #340, #257, #117 ) ) REPRESENTATION_CONTEXT ( 'NONE', 'WORKASPACE' ) );
#230 = ADVANCED_FACE ( 'NONE', ( #270 ), #131, .T. ) ;
#231 = DIRECTION ( 'NONE',  ( -3.498990854706722745E-17, 1.000000000000000000, -0.000000000000000000 ) ) ;
#232 = STYLED_ITEM ( 'NONE', ( #191 ), #34 ) ;
#233 = APPLICATION_PROTOCOL_DEFINITION ( 'draft international standard', 'automotive_design', 1998, #197 ) ;
#234 =( LENGTH_UNIT ( ) NAMED_UNIT ( * ) SI_UNIT ( $, .METRE. ) );
#235 = VECTOR ( 'NONE', #290, 39.37007874015748143 ) ;
#236 = CARTESIAN_POINT ( 'NONE',  ( 0.000000000000000000, 0.7500000000000001110, 0.000000000000000000 ) ) ;
#237 = PRESENTATION_LAYER_ASSIGNMENT (  '', '', ( #148 ) ) ;
#238 = DIMENSIONAL_EXPONENTS ( 1.000000000000000000, 0.000000000000000000, 0.000000000000000000, 0.000000000000000000, 0.000000000000000000, 0.000000000000000000, 0.000000000000000000 ) ;
#239 = FACE_OUTER_BOUND ( 'NONE', #242, .T. ) ;
#240 = PRODUCT_CONTEXT ( 'NONE', #220, 'mechanical' ) ;
#241 = DIRECTION ( 'NONE',  ( -3.498990854706722745E-17, 1.000000000000000000, -0.000000000000000000 ) ) ;
#242 = EDGE_LOOP ( 'NONE', ( #356, #249 ) ) ;
#243 = CARTESIAN_POINT ( 'NONE',  ( -0.07810000000000000275, 0.7499999999999998890, 0.000000000000000000 ) ) ;
#244 = UNCERTAINTY_MEASURE_WITH_UNIT (LENGTH_MEASURE( 1.000000000000000082E-05 ), #140, 'distance_accuracy_value', 'NONE');
#245 = FACE_OUTER_BOUND ( 'NONE', #252, .T. ) ;
#246 = SURFACE_STYLE_USAGE ( .BOTH. , #46 ) ;
#247 = DIRECTION ( 'NONE',  ( -3.498990854706722745E-17, 1.000000000000000000, -0.000000000000000000 ) ) ;
#248 = COLOUR_RGB ( '',1.000000000000000000, 0.000000000000000000, 0.000000000000000000 ) ;
#249 = ORIENTED_EDGE ( 'NONE', *, *, #175, .F. ) ;
#250 = FACE_OUTER_BOUND ( 'NONE', #28, .T. ) ;
#251 = CONICAL_SURFACE ( 'NONE', #318, 0.07810000000000000275, 0.3490658503988651740 ) ;
#252 = EDGE_LOOP ( 'NONE', ( #228, #192 ) ) ;
#253 = AXIS2_PLACEMENT_3D ( 'NONE', #316, #231, #70 ) ;
#254 = LENGTH_MEASURE_WITH_UNIT ( LENGTH_MEASURE( 0.02539999999999999897 ), #29 );
#255 = LENGTH_MEASURE_WITH_UNIT ( LENGTH_MEASURE( 0.02539999999999999897 ), #23 );
#256 = MECHANICAL_DESIGN_GEOMETRIC_PRESENTATION_REPRESENTATION (  '', ( #212 ), #166 ) ;
#257 =( NAMED_UNIT ( * ) PLANE_ANGLE_UNIT ( ) SI_UNIT ( $, .RADIAN. ) );
#258 = ADVANCED_FACE ( 'NONE', ( #245 ), #199, .F. ) ;
#259 = DIRECTION ( 'NONE',  ( -0.000000000000000000, -1.000000000000000000, -0.000000000000000000 ) ) ;
#260 = AXIS2_PLACEMENT_3D ( 'NONE', #190, #241, #327 ) ;
#261 = ORIENTED_EDGE ( 'NONE', *, *, #163, .F. ) ;
#262 =( GEOMETRIC_REPRESENTATION_CONTEXT ( 3 ) GLOBAL_UNCERTAINTY_ASSIGNED_CONTEXT ( ( #218 ) ) GLOBAL_UNIT_ASSIGNED_CONTEXT ( ( #150, #345, #295 ) ) REPRESENTATION_CONTEXT ( 'NONE', 'WORKASPACE' ) );
#263 = CLOSED_SHELL ( 'NONE', ( #67, #341, #324, #277, #230, #258 ) ) ;
#264 = ORIENTED_EDGE ( 'NONE', *, *, #147, .F. ) ;
#265 = DIRECTION ( 'NONE',  ( -0.000000000000000000, -1.000000000000000000, -0.000000000000000000 ) ) ;
#266 = SURFACE_STYLE_USAGE ( .BOTH. , #354 ) ;
#267 = DIRECTION ( 'NONE',  ( 0.000000000000000000, 0.000000000000000000, -1.000000000000000000 ) ) ;
#268 = EDGE_CURVE ( 'NONE', #94, #35, #219, .T. ) ;
#269 = SHAPE_DEFINITION_REPRESENTATION ( #182, #291 ) ;
#270 = FACE_OUTER_BOUND ( 'NONE', #284, .T. ) ;
#271 = DIRECTION ( 'NONE',  ( 0.000000000000000000, 0.000000000000000000, -1.000000000000000000 ) ) ;
#272 = CARTESIAN_POINT ( 'NONE',  ( 9.564491501340828324E-18, 0.7500000000000001110, 0.07810000000000000275 ) ) ;
#273 = EDGE_LOOP ( 'NONE', ( #48, #283, #157, #32 ) ) ;
#274 = DIRECTION ( 'NONE',  ( -3.498990854706722745E-17, 1.000000000000000000, 0.000000000000000000 ) ) ;
#275 = ORIENTED_EDGE ( 'NONE', *, *, #2, .T. ) ;
#276 = PRESENTATION_STYLE_ASSIGNMENT (( #53 ) ) ;
#277 = ADVANCED_FACE ( 'NONE', ( #250 ), #287, .T. ) ;
#278 = UNCERTAINTY_MEASURE_WITH_UNIT (LENGTH_MEASURE( 1.000000000000000082E-05 ), #309, 'distance_accuracy_value', 'NONE');
#279 = VECTOR ( 'NONE', #154, 39.37007874015748143 ) ;
#280 = FILL_AREA_STYLE ('',( #59 ) ) ;
#281 = ORIENTED_EDGE ( 'NONE', *, *, #82, .T. ) ;
#282 = MECHANICAL_DESIGN_GEOMETRIC_PRESENTATION_REPRESENTATION (  '', ( #148 ), #24 ) ;
#283 = ORIENTED_EDGE ( 'NONE', *, *, #268, .T. ) ;
#284 = EDGE_LOOP ( 'NONE', ( #351, #315, #204, #69 ) ) ;
#285 = CARTESIAN_POINT ( 'NONE',  ( 0.000000000000000000, 0.000000000000000000, -0.07810000000000000275 ) ) ;
#286 = SURFACE_STYLE_FILL_AREA ( #135 ) ;
#287 = CONICAL_SURFACE ( 'NONE', #202, 0.07810000000000000275, 0.3490658503988651740 ) ;
#288 = FACE_OUTER_BOUND ( 'NONE', #273, .T. ) ;
#289 = EDGE_LOOP ( 'NONE', ( #296, #141, #129, #62 ) ) ;
#290 = DIRECTION ( 'NONE',  ( -0.000000000000000000, -1.000000000000000000, -0.000000000000000000 ) ) ;
#291 = ADVANCED_BREP_SHAPE_REPRESENTATION ( '84628', ( #91, #321, #38 ), #262 ) ;
#292 = CARTESIAN_POINT ( 'NONE',  ( 0.000000000000000000, 0.000000000000000000, 0.000000000000000000 ) ) ;
#293 = DIMENSIONAL_EXPONENTS ( 1.000000000000000000, 0.000000000000000000, 0.000000000000000000, 0.000000000000000000, 0.000000000000000000, 0.000000000000000000, 0.000000000000000000 ) ;
#294 = APPLICATION_PROTOCOL_DEFINITION ( 'draft international standard', 'automotive_design', 1998, #220 ) ;
#295 =( NAMED_UNIT ( * ) SI_UNIT ( $, .STERADIAN. ) SOLID_ANGLE_UNIT ( ) );
#296 = ORIENTED_EDGE ( 'NONE', *, *, #224, .T. ) ;
#297 = ADVANCED_FACE ( 'NONE', ( #222 ), #188, .T. ) ;
#298 = COLOUR_RGB ( '',1.000000000000000000, 0.000000000000000000, 0.000000000000000000 ) ;
#299 = CARTESIAN_POINT ( 'NONE',  ( 4.780866899015960637E-35, 0.7500000000000001110, 0.000000000000000000 ) ) ;
#300 = DIRECTION ( 'NONE',  ( -3.498990854706722745E-17, 1.000000000000000000, -0.000000000000000000 ) ) ;
#301 = CARTESIAN_POINT ( 'NONE',  ( 0.09374999999999990286, 2.500000000000000000, 1.148106374200643247E-17 ) ) ;
#302 = SURFACE_STYLE_FILL_AREA ( #280 ) ;
#303 =( GEOMETRIC_REPRESENTATION_CONTEXT ( 3 ) GLOBAL_UNCERTAINTY_ASSIGNED_CONTEXT ( ( #278 ) ) GLOBAL_UNIT_ASSIGNED_CONTEXT ( ( #309, #156, #178 ) ) REPRESENTATION_CONTEXT ( 'NONE', 'WORKASPACE' ) );
#304 = FILL_AREA_STYLE_COLOUR ( '', #248 ) ;
#305 = VERTEX_POINT ( 'NONE', #243 ) ;
#306 = VERTEX_POINT ( 'NONE', #210 ) ;
#307 = DIRECTION ( 'NONE',  ( -0.000000000000000000, -1.000000000000000000, -0.000000000000000000 ) ) ;
#308 = CIRCLE ( 'NONE', #320, 0.07810000000000000275 ) ;
#309 =( CONVERSION_BASED_UNIT ( 'INCH', #89 ) LENGTH_UNIT ( ) NAMED_UNIT ( #238 ) );
#310 = DIRECTION ( 'NONE',  ( 0.000000000000000000, 0.000000000000000000, -1.000000000000000000 ) ) ;
#311 = VERTEX_POINT ( 'NONE', #347 ) ;
#312 = EDGE_CURVE ( 'NONE', #119, #181, #196, .T. ) ;
#313 = ORIENTED_EDGE ( 'NONE', *, *, #26, .T. ) ;
#314 = AXIS2_PLACEMENT_3D ( 'NONE', #236, #161, #267 ) ;
#315 = ORIENTED_EDGE ( 'NONE', *, *, #163, .T. ) ;
#316 = CARTESIAN_POINT ( 'NONE',  ( -1.504496843994944312E-18, 0.7929980216144647542, 0.000000000000000000 ) ) ;
#317 =( LENGTH_UNIT ( ) NAMED_UNIT ( * ) SI_UNIT ( $, .METRE. ) );
#318 = AXIS2_PLACEMENT_3D ( 'NONE', #136, #357, #107 ) ;
#319 = DIRECTION ( 'NONE',  ( -3.498990854706722745E-17, 1.000000000000000000, -0.000000000000000000 ) ) ;
#320 = AXIS2_PLACEMENT_3D ( 'NONE', #58, #307, #68 ) ;
#321 = MANIFOLD_SOLID_BREP ( 'Revolve - Tool Body (Reduced Cut Diameter)', #263 ) ;
#322 = ORIENTED_EDGE ( 'NONE', *, *, #26, .F. ) ;
#323 = PRESENTATION_LAYER_ASSIGNMENT (  '', '', ( #122 ) ) ;
#324 = ADVANCED_FACE ( 'NONE', ( #33 ), #152, .F. ) ;
#325 = FILL_AREA_STYLE ('',( #139 ) ) ;
#326 = DIRECTION ( 'NONE',  ( 0.000000000000000000, 0.000000000000000000, -1.000000000000000000 ) ) ;
#327 = DIRECTION ( 'NONE',  ( -1.000000000000000000, 0.000000000000000000, 0.000000000000000000 ) ) ;
#328 = SURFACE_STYLE_USAGE ( .BOTH. , #102 ) ;
#329 = UNCERTAINTY_MEASURE_WITH_UNIT (LENGTH_MEASURE( 1.000000000000000082E-05 ), #340, 'distance_accuracy_value', 'NONE');
#330 = CARTESIAN_POINT ( 'NONE',  ( 9.564491501340828324E-18, 0.000000000000000000, 0.07810000000000000275 ) ) ;
#331 = CARTESIAN_POINT ( 'NONE',  ( 0.000000000000000000, 0.7500000000000001110, -0.07810000000000000275 ) ) ;
#332 = CARTESIAN_POINT ( 'NONE',  ( -7.582401355855259480E-33, 0.7499999999999998890, 0.000000000000000000 ) ) ;
#333 = AXIS2_PLACEMENT_3D ( 'NONE', #36, #259, #87 ) ;
#334 = DIRECTION ( 'NONE',  ( 0.000000000000000000, -0.000000000000000000, 1.000000000000000000 ) ) ;
#335 = PLANE ( 'NONE',  #355 ) ;
#336 = EDGE_CURVE ( 'NONE', #311, #35, #116, .T. ) ;
#337 = VERTEX_POINT ( 'NONE', #272 ) ;
#338 = PRESENTATION_LAYER_ASSIGNMENT (  '', '', ( #184 ) ) ;
#339 = MECHANICAL_DESIGN_GEOMETRIC_PRESENTATION_REPRESENTATION (  '', ( #232 ), #174 ) ;
#340 =( CONVERSION_BASED_UNIT ( 'INCH', #255 ) LENGTH_UNIT ( ) NAMED_UNIT ( #293 ) );
#341 = ADVANCED_FACE ( 'NONE', ( #22 ), #251, .T. ) ;
#342 = VERTEX_POINT ( 'NONE', #216 ) ;
#343 = MECHANICAL_DESIGN_GEOMETRIC_PRESENTATION_REPRESENTATION (  '', ( #122 ), #229 ) ;
#344 = PRESENTATION_LAYER_ASSIGNMENT (  '', '', ( #232 ) ) ;
#345 =( NAMED_UNIT ( * ) PLANE_ANGLE_UNIT ( ) SI_UNIT ( $, .RADIAN. ) );
#346 = PRODUCT ( '84628', '84628', '', ( #240 ) ) ;
#347 = CARTESIAN_POINT ( 'NONE',  ( -0.09375000000000006939, 2.500000000000000000, 0.000000000000000000 ) ) ;
#348 = DIRECTION ( 'NONE',  ( -3.498990854706722745E-17, 1.000000000000000000, -0.000000000000000000 ) ) ;
#349 = DIRECTION ( 'NONE',  ( -1.000000000000000000, 0.000000000000000000, 0.000000000000000000 ) ) ;
#350 = DIRECTION ( 'NONE',  ( -0.000000000000000000, -1.000000000000000000, -0.000000000000000000 ) ) ;
#351 = ORIENTED_EDGE ( 'NONE', *, *, #268, .F. ) ;
#352 = FILL_AREA_STYLE ('',( #100 ) ) ;
#353 = DIRECTION ( 'NONE',  ( -1.000000000000000000, 0.000000000000000000, 0.000000000000000000 ) ) ;
#354 = SURFACE_SIDE_STYLE ('',( #47 ) ) ;
#355 = AXIS2_PLACEMENT_3D ( 'NONE', #203, #149, #310 ) ;
#356 = ORIENTED_EDGE ( 'NONE', *, *, #2, .F. ) ;
#357 = DIRECTION ( 'NONE',  ( -3.498990854706722745E-17, 1.000000000000000000, -0.000000000000000000 ) ) ;
#358 = DIRECTION ( 'NONE',  ( 1.000000000000000000, 3.498990854706722745E-17, 0.000000000000000000 ) ) ;
#359 = DIRECTION ( 'NONE',  ( 0.000000000000000000, 1.000000000000000000, 0.000000000000000000 ) ) ;
ENDSEC;
END-ISO-10303-21;
