ISO-10303-21;
HEADER;
FILE_DESCRIPTION (( 'STEP AP214' ),
    '1' );
FILE_NAME ('00332.STEP',
    '2023-06-22T14:06:15',
    ( '' ),
    ( '' ),
    'SwSTEP 2.0',
    'SolidWorks 2023',
    '' );
FILE_SCHEMA (( 'AUTOMOTIVE_DESIGN' ));
ENDSEC;

DATA;
#1 = AXIS2_PLACEMENT_3D ( 'NONE', #102, #194, #87 ) ;
#2 = LENGTH_MEASURE_WITH_UNIT ( LENGTH_MEASURE( 0.02539999999999999897 ), #231 );
#3 = PRESENTATION_STYLE_ASSIGNMENT (( #208 ) ) ;
#4 = COLOUR_RGB ( '',1.000000000000000000, 0.000000000000000000, 0.000000000000000000 ) ;
#5 = PRODUCT_RELATED_PRODUCT_CATEGORY ( 'part', '', ( #142 ) ) ;
#6 =( NAMED_UNIT ( * ) PLANE_ANGLE_UNIT ( ) SI_UNIT ( $, .RADIAN. ) );
#7 = VECTOR ( 'NONE', #169, 39.37007874015748143 ) ;
#8 = ORIENTED_EDGE ( 'NONE', *, *, #96, .T. ) ;
#9 = ADVANCED_BREP_SHAPE_REPRESENTATION ( '00332', ( #237, #135, #35 ), #289 ) ;
#10 = MECHANICAL_DESIGN_GEOMETRIC_PRESENTATION_REPRESENTATION (  '', ( #72 ), #112 ) ;
#11 = DIRECTION ( 'NONE',  ( 0.000000000000000000, 0.000000000000000000, -1.000000000000000000 ) ) ;
#12 = ORIENTED_EDGE ( 'NONE', *, *, #181, .F. ) ;
#13 =( LENGTH_UNIT ( ) NAMED_UNIT ( * ) SI_UNIT ( $, .METRE. ) );
#14 = CARTESIAN_POINT ( 'NONE',  ( -0.1874999999999996669, 2.000000000000000000, 0.000000000000000000 ) ) ;
#15 =( LENGTH_UNIT ( ) NAMED_UNIT ( * ) SI_UNIT ( $, .METRE. ) );
#16 = APPLICATION_CONTEXT ( 'automotive_design' ) ;
#17 = AXIS2_PLACEMENT_3D ( 'NONE', #247, #42, #11 ) ;
#18 = SURFACE_SIDE_STYLE ('',( #199 ) ) ;
#19 = SURFACE_SIDE_STYLE ('',( #248 ) ) ;
#20 = SURFACE_STYLE_FILL_AREA ( #229 ) ;
#21 = FILL_AREA_STYLE ('',( #149 ) ) ;
#22 = CARTESIAN_POINT ( 'NONE',  ( 0.000000000000000000, 0.000000000000000000, -0.1875000000000000278 ) ) ;
#23 = ADVANCED_FACE ( 'NONE', ( #150 ), #126, .T. ) ;
#24 =( GEOMETRIC_REPRESENTATION_CONTEXT ( 3 ) GLOBAL_UNCERTAINTY_ASSIGNED_CONTEXT ( ( #167 ) ) GLOBAL_UNIT_ASSIGNED_CONTEXT ( ( #279, #193, #46 ) ) REPRESENTATION_CONTEXT ( 'NONE', 'WORKASPACE' ) );
#25 = DIRECTION ( 'NONE',  ( 1.000000000000000000, -1.632862398863137774E-16, 0.000000000000000000 ) ) ;
#26 = PRESENTATION_LAYER_ASSIGNMENT (  '', '', ( #118 ) ) ;
#27 = FACE_OUTER_BOUND ( 'NONE', #163, .T. ) ;
#28 = LENGTH_MEASURE_WITH_UNIT ( LENGTH_MEASURE( 0.02539999999999999897 ), #100 );
#29 = DIRECTION ( 'NONE',  ( -1.000000000000000000, 0.000000000000000000, 0.000000000000000000 ) ) ;
#30 = AXIS2_PLACEMENT_3D ( 'NONE', #175, #69, #25 ) ;
#31 = ORIENTED_EDGE ( 'NONE', *, *, #181, .T. ) ;
#32 = DIRECTION ( 'NONE',  ( 0.000000000000000000, -0.000000000000000000, 1.000000000000000000 ) ) ;
#33 = ORIENTED_EDGE ( 'NONE', *, *, #215, .T. ) ;
#34 = MECHANICAL_DESIGN_GEOMETRIC_PRESENTATION_REPRESENTATION (  '', ( #162 ), #239 ) ;
#35 = AXIS2_PLACEMENT_3D ( 'NONE', #51, #55, #182 ) ;
#36 = ORIENTED_EDGE ( 'NONE', *, *, #274, .T. ) ;
#37 = CARTESIAN_POINT ( 'NONE',  ( -0.1874999999999995282, 2.000000000000000000, 0.000000000000000000 ) ) ;
#38 = CLOSED_SHELL ( 'NONE', ( #23, #263, #54, #114 ) ) ;
#39 = CIRCLE ( 'NONE', #269, 0.1875000000000000278 ) ;
#40 = CARTESIAN_POINT ( 'NONE',  ( 0.000000000000000000, 0.5000000000000001110, 0.000000000000000000 ) ) ;
#41 = PRESENTATION_STYLE_ASSIGNMENT (( #222 ) ) ;
#42 = DIRECTION ( 'NONE',  ( -0.000000000000000000, -1.000000000000000000, -0.000000000000000000 ) ) ;
#43 = CIRCLE ( 'NONE', #205, 0.1874999999999997780 ) ;
#44 = DIRECTION ( 'NONE',  ( -0.000000000000000000, -1.000000000000000000, -0.000000000000000000 ) ) ;
#45 = UNCERTAINTY_MEASURE_WITH_UNIT (LENGTH_MEASURE( 1.000000000000000082E-05 ), #209, 'distance_accuracy_value', 'NONE');
#46 =( NAMED_UNIT ( * ) SI_UNIT ( $, .STERADIAN. ) SOLID_ANGLE_UNIT ( ) );
#47 = MECHANICAL_DESIGN_GEOMETRIC_PRESENTATION_REPRESENTATION (  '', ( #184 ), #66 ) ;
#48 = CIRCLE ( 'NONE', #226, 0.1875000000000000278 ) ;
#49 = CARTESIAN_POINT ( 'NONE',  ( 2.296212748401287726E-17, 0.000000000000000000, 0.1875000000000000278 ) ) ;
#50 = PRODUCT_DEFINITION ( 'UNKNOWN', '', #294, #129 ) ;
#51 = CARTESIAN_POINT ( 'NONE',  ( 0.000000000000000000, 0.000000000000000000, 0.000000000000000000 ) ) ;
#52 = MECHANICAL_DESIGN_GEOMETRIC_PRESENTATION_REPRESENTATION (  '', ( #118 ), #217 ) ;
#53 = ORIENTED_EDGE ( 'NONE', *, *, #228, .T. ) ;
#54 = ADVANCED_FACE ( 'NONE', ( #221 ), #108, .T. ) ;
#55 = DIRECTION ( 'NONE',  ( 0.000000000000000000, 0.000000000000000000, 1.000000000000000000 ) ) ;
#56 = ORIENTED_EDGE ( 'NONE', *, *, #128, .F. ) ;
#57 = DIRECTION ( 'NONE',  ( 1.632862398863137774E-16, 1.000000000000000000, -0.000000000000000000 ) ) ;
#58 = VERTEX_POINT ( 'NONE', #86 ) ;
#59 = FILL_AREA_STYLE_COLOUR ( '', #60 ) ;
#60 = COLOUR_RGB ( '',1.000000000000000000, 0.000000000000000000, 0.000000000000000000 ) ;
#61 = STYLED_ITEM ( 'NONE', ( #297 ), #114 ) ;
#62 = FILL_AREA_STYLE_COLOUR ( '', #265 ) ;
#63 = EDGE_CURVE ( 'NONE', #295, #275, #48, .T. ) ;
#64 = DIRECTION ( 'NONE',  ( 1.632862398863137774E-16, 1.000000000000000000, -0.000000000000000000 ) ) ;
#65 = ORIENTED_EDGE ( 'NONE', *, *, #192, .T. ) ;
#66 =( GEOMETRIC_REPRESENTATION_CONTEXT ( 3 ) GLOBAL_UNCERTAINTY_ASSIGNED_CONTEXT ( ( #180 ) ) GLOBAL_UNIT_ASSIGNED_CONTEXT ( ( #190, #82, #253 ) ) REPRESENTATION_CONTEXT ( 'NONE', 'WORKASPACE' ) );
#67 = COLOUR_RGB ( '',0.7921568627450980005, 0.8196078431372548767, 0.9333333333333333481 ) ;
#68 = DIRECTION ( 'NONE',  ( 1.632862398863137774E-16, 1.000000000000000000, -0.000000000000000000 ) ) ;
#69 = DIRECTION ( 'NONE',  ( -1.632862398863137774E-16, -1.000000000000000000, 0.000000000000000000 ) ) ;
#70 = DIMENSIONAL_EXPONENTS ( 1.000000000000000000, 0.000000000000000000, 0.000000000000000000, 0.000000000000000000, 0.000000000000000000, 0.000000000000000000, 0.000000000000000000 ) ;
#71 = FILL_AREA_STYLE ('',( #176 ) ) ;
#72 = STYLED_ITEM ( 'NONE', ( #262 ), #237 ) ;
#73 = FILL_AREA_STYLE_COLOUR ( '', #67 ) ;
#74 = SURFACE_STYLE_USAGE ( .BOTH. , #179 ) ;
#75 = PRODUCT_CONTEXT ( 'NONE', #16, 'mechanical' ) ;
#76 = PRESENTATION_LAYER_ASSIGNMENT (  '', '', ( #184 ) ) ;
#77 = ORIENTED_EDGE ( 'NONE', *, *, #223, .F. ) ;
#78 =( NAMED_UNIT ( * ) SI_UNIT ( $, .STERADIAN. ) SOLID_ANGLE_UNIT ( ) );
#79 = DIRECTION ( 'NONE',  ( 0.000000000000000000, 0.000000000000000000, -1.000000000000000000 ) ) ;
#80 = LENGTH_MEASURE_WITH_UNIT ( LENGTH_MEASURE( 0.02539999999999999897 ), #13 );
#81 = CARTESIAN_POINT ( 'NONE',  ( 0.000000000000000000, 0.000000000000000000, -0.1875000000000000278 ) ) ;
#82 =( NAMED_UNIT ( * ) PLANE_ANGLE_UNIT ( ) SI_UNIT ( $, .RADIAN. ) );
#83 = AXIS2_PLACEMENT_3D ( 'NONE', #285, #64, #109 ) ;
#84 = DIRECTION ( 'NONE',  ( 1.632862398863137774E-16, 1.000000000000000000, -0.000000000000000000 ) ) ;
#85 = PRESENTATION_STYLE_ASSIGNMENT (( #101 ) ) ;
#86 = CARTESIAN_POINT ( 'NONE',  ( 0.1875000000000000278, 0.5000000000000001110, 2.296212748401286493E-17 ) ) ;
#87 = DIRECTION ( 'NONE',  ( 0.000000000000000000, 0.000000000000000000, -1.000000000000000000 ) ) ;
#88 = CIRCLE ( 'NONE', #156, 0.1875000000000000278 ) ;
#89 =( NAMED_UNIT ( * ) SI_UNIT ( $, .STERADIAN. ) SOLID_ANGLE_UNIT ( ) );
#90 = DIMENSIONAL_EXPONENTS ( 1.000000000000000000, 0.000000000000000000, 0.000000000000000000, 0.000000000000000000, 0.000000000000000000, 0.000000000000000000, 0.000000000000000000 ) ;
#91 = PLANE ( 'NONE',  #196 ) ;
#92 = SURFACE_STYLE_FILL_AREA ( #71 ) ;
#93 =( LENGTH_UNIT ( ) NAMED_UNIT ( * ) SI_UNIT ( $, .METRE. ) );
#94 = DIRECTION ( 'NONE',  ( 0.000000000000000000, 1.000000000000000000, 0.000000000000000000 ) ) ;
#95 = VERTEX_POINT ( 'NONE', #37 ) ;
#96 = EDGE_CURVE ( 'NONE', #115, #166, #178, .T. ) ;
#97 = AXIS2_PLACEMENT_3D ( 'NONE', #197, #131, #303 ) ;
#98 = PRESENTATION_STYLE_ASSIGNMENT (( #300 ) ) ;
#99 = CARTESIAN_POINT ( 'NONE',  ( 2.449293598294706414E-16, 2.000000000000000000, 0.000000000000000000 ) ) ;
#100 =( LENGTH_UNIT ( ) NAMED_UNIT ( * ) SI_UNIT ( $, .METRE. ) );
#101 = SURFACE_STYLE_USAGE ( .BOTH. , #19 ) ;
#102 = CARTESIAN_POINT ( 'NONE',  ( 0.000000000000000000, 0.000000000000000000, 0.000000000000000000 ) ) ;
#103 = FILL_AREA_STYLE ('',( #59 ) ) ;
#104 = CIRCLE ( 'NONE', #83, 0.1875000000000000278 ) ;
#105 = FACE_OUTER_BOUND ( 'NONE', #140, .T. ) ;
#106 = ORIENTED_EDGE ( 'NONE', *, *, #211, .F. ) ;
#107 = DIRECTION ( 'NONE',  ( -0.000000000000000000, -1.000000000000000000, -0.000000000000000000 ) ) ;
#108 = CYLINDRICAL_SURFACE ( 'NONE', #17, 0.1875000000000000278 ) ;
#109 = DIRECTION ( 'NONE',  ( -1.000000000000000000, 0.000000000000000000, 0.000000000000000000 ) ) ;
#110 = DIMENSIONAL_EXPONENTS ( 1.000000000000000000, 0.000000000000000000, 0.000000000000000000, 0.000000000000000000, 0.000000000000000000, 0.000000000000000000, 0.000000000000000000 ) ;
#111 = CYLINDRICAL_SURFACE ( 'NONE', #261, 0.1874999999999999167 ) ;
#112 =( GEOMETRIC_REPRESENTATION_CONTEXT ( 3 ) GLOBAL_UNCERTAINTY_ASSIGNED_CONTEXT ( ( #189 ) ) GLOBAL_UNIT_ASSIGNED_CONTEXT ( ( #255, #260, #89 ) ) REPRESENTATION_CONTEXT ( 'NONE', 'WORKASPACE' ) );
#113 = SURFACE_SIDE_STYLE ('',( #92 ) ) ;
#114 = ADVANCED_FACE ( 'NONE', ( #278 ), #125, .T. ) ;
#115 = VERTEX_POINT ( 'NONE', #173 ) ;
#116 = EDGE_LOOP ( 'NONE', ( #219, #238, #77, #106 ) ) ;
#117 = CARTESIAN_POINT ( 'NONE',  ( 0.000000000000000000, 0.5000000000000001110, 0.000000000000000000 ) ) ;
#118 = STYLED_ITEM ( 'NONE', ( #3 ), #263 ) ;
#119 = ORIENTED_EDGE ( 'NONE', *, *, #223, .T. ) ;
#120 =( NAMED_UNIT ( * ) SI_UNIT ( $, .STERADIAN. ) SOLID_ANGLE_UNIT ( ) );
#121 = ORIENTED_EDGE ( 'NONE', *, *, #249, .T. ) ;
#122 = SURFACE_STYLE_USAGE ( .BOTH. , #242 ) ;
#123 = ORIENTED_EDGE ( 'NONE', *, *, #274, .F. ) ;
#124 = DIRECTION ( 'NONE',  ( -1.000000000000000000, 0.000000000000000000, 0.000000000000000000 ) ) ;
#125 = PLANE ( 'NONE',  #1 ) ;
#126 = CYLINDRICAL_SURFACE ( 'NONE', #97, 0.1875000000000000278 ) ;
#127 = DIRECTION ( 'NONE',  ( 0.000000000000000000, 0.000000000000000000, -1.000000000000000000 ) ) ;
#128 = EDGE_CURVE ( 'NONE', #275, #295, #88, .T. ) ;
#129 = PRODUCT_DEFINITION_CONTEXT ( 'detailed design', #206, 'design' ) ;
#130 = FILL_AREA_STYLE ('',( #62 ) ) ;
#131 = DIRECTION ( 'NONE',  ( -0.000000000000000000, -1.000000000000000000, -0.000000000000000000 ) ) ;
#132 = DIRECTION ( 'NONE',  ( -0.000000000000000000, -1.000000000000000000, -0.000000000000000000 ) ) ;
#133 = AXIS2_PLACEMENT_3D ( 'NONE', #99, #148, #172 ) ;
#134 = VECTOR ( 'NONE', #132, 39.37007874015748143 ) ;
#135 = MANIFOLD_SOLID_BREP ( 'Revolve - Tool Body (Straight Shanked)', #151 ) ;
#136 = CARTESIAN_POINT ( 'NONE',  ( 0.1875000000000000278, 2.000000000000000000, 2.296212748401286493E-17 ) ) ;
#137 = LENGTH_MEASURE_WITH_UNIT ( LENGTH_MEASURE( 0.02539999999999999897 ), #290 );
#138 =( CONVERSION_BASED_UNIT ( 'INCH', #214 ) LENGTH_UNIT ( ) NAMED_UNIT ( #90 ) );
#139 = ADVANCED_FACE ( 'NONE', ( #254 ), #307, .F. ) ;
#140 = EDGE_LOOP ( 'NONE', ( #123, #31, #33, #216 ) ) ;
#141 =( CONVERSION_BASED_UNIT ( 'INCH', #137 ) LENGTH_UNIT ( ) NAMED_UNIT ( #174 ) );
#142 = PRODUCT ( '00332', '00332', '', ( #75 ) ) ;
#143 = PRESENTATION_LAYER_ASSIGNMENT (  '', '', ( #162 ) ) ;
#144 = ORIENTED_EDGE ( 'NONE', *, *, #211, .T. ) ;
#145 = CARTESIAN_POINT ( 'NONE',  ( 0.000000000000000000, 0.000000000000000000, 0.000000000000000000 ) ) ;
#146 = PRESENTATION_LAYER_ASSIGNMENT (  '', '', ( #61 ) ) ;
#147 = UNCERTAINTY_MEASURE_WITH_UNIT (LENGTH_MEASURE( 1.000000000000000082E-05 ), #141, 'distance_accuracy_value', 'NONE');
#148 = DIRECTION ( 'NONE',  ( 1.632862398863137774E-16, 1.000000000000000000, -0.000000000000000000 ) ) ;
#149 = FILL_AREA_STYLE_COLOUR ( '', #4 ) ;
#150 = FACE_OUTER_BOUND ( 'NONE', #116, .T. ) ;
#151 = CLOSED_SHELL ( 'NONE', ( #235, #139, #204, #243 ) ) ;
#152 = DIRECTION ( 'NONE',  ( 1.632862398863137774E-16, 1.000000000000000000, -0.000000000000000000 ) ) ;
#153 = DIMENSIONAL_EXPONENTS ( 1.000000000000000000, 0.000000000000000000, 0.000000000000000000, 0.000000000000000000, 0.000000000000000000, 0.000000000000000000, 0.000000000000000000 ) ;
#154 = DIRECTION ( 'NONE',  ( 1.632862398863137774E-16, 1.000000000000000000, -0.000000000000000000 ) ) ;
#155 = CARTESIAN_POINT ( 'NONE',  ( 0.000000000000000000, 0.5000000000000001110, 0.000000000000000000 ) ) ;
#156 = AXIS2_PLACEMENT_3D ( 'NONE', #284, #107, #201 ) ;
#157 = APPLICATION_PROTOCOL_DEFINITION ( 'draft international standard', 'automotive_design', 1998, #206 ) ;
#158 = MECHANICAL_DESIGN_GEOMETRIC_PRESENTATION_REPRESENTATION (  '', ( #283 ), #24 ) ;
#159 = ORIENTED_EDGE ( 'NONE', *, *, #63, .F. ) ;
#160 = CARTESIAN_POINT ( 'NONE',  ( 2.296212748401287726E-17, 0.5000000000000001110, 0.1875000000000000278 ) ) ;
#161 = CARTESIAN_POINT ( 'NONE',  ( 0.000000000000000000, 0.5000000000000001110, -0.1875000000000000278 ) ) ;
#162 = STYLED_ITEM ( 'NONE', ( #41 ), #54 ) ;
#163 = EDGE_LOOP ( 'NONE', ( #56, #159 ) ) ;
#164 = ORIENTED_EDGE ( 'NONE', *, *, #215, .F. ) ;
#165 =( CONVERSION_BASED_UNIT ( 'INCH', #80 ) LENGTH_UNIT ( ) NAMED_UNIT ( #287 ) );
#166 = VERTEX_POINT ( 'NONE', #22 ) ;
#167 = UNCERTAINTY_MEASURE_WITH_UNIT (LENGTH_MEASURE( 1.000000000000000082E-05 ), #279, 'distance_accuracy_value', 'NONE');
#168 = CIRCLE ( 'NONE', #288, 0.1874999999999997780 ) ;
#169 = DIRECTION ( 'NONE',  ( 1.632862398863137774E-16, 1.000000000000000000, -0.000000000000000000 ) ) ;
#170 = LENGTH_MEASURE_WITH_UNIT ( LENGTH_MEASURE( 0.02539999999999999897 ), #244 );
#171 = DIRECTION ( 'NONE',  ( -1.000000000000000000, 0.000000000000000000, 0.000000000000000000 ) ) ;
#172 = DIRECTION ( 'NONE',  ( -1.000000000000000000, 0.000000000000000000, 0.000000000000000000 ) ) ;
#173 = CARTESIAN_POINT ( 'NONE',  ( 2.296212748401287726E-17, 0.000000000000000000, 0.1875000000000000278 ) ) ;
#174 = DIMENSIONAL_EXPONENTS ( 1.000000000000000000, 0.000000000000000000, 0.000000000000000000, 0.000000000000000000, 0.000000000000000000, 0.000000000000000000, 0.000000000000000000 ) ;
#175 = CARTESIAN_POINT ( 'NONE',  ( 0.1875000000000000278, 2.000000000000000000, 0.000000000000000000 ) ) ;
#176 = FILL_AREA_STYLE_COLOUR ( '', #213 ) ;
#177 = UNCERTAINTY_MEASURE_WITH_UNIT (LENGTH_MEASURE( 1.000000000000000082E-05 ), #138, 'distance_accuracy_value', 'NONE');
#178 = CIRCLE ( 'NONE', #220, 0.1875000000000000278 ) ;
#179 = SURFACE_SIDE_STYLE ('',( #308 ) ) ;
#180 = UNCERTAINTY_MEASURE_WITH_UNIT (LENGTH_MEASURE( 1.000000000000000082E-05 ), #190, 'distance_accuracy_value', 'NONE');
#181 = EDGE_CURVE ( 'NONE', #58, #183, #104, .T. ) ;
#182 = DIRECTION ( 'NONE',  ( 1.000000000000000000, 0.000000000000000000, 0.000000000000000000 ) ) ;
#183 = VERTEX_POINT ( 'NONE', #257 ) ;
#184 = STYLED_ITEM ( 'NONE', ( #98 ), #23 ) ;
#185 = VECTOR ( 'NONE', #281, 39.37007874015748143 ) ;
#186 = EDGE_LOOP ( 'NONE', ( #65, #53 ) ) ;
#187 = ORIENTED_EDGE ( 'NONE', *, *, #249, .F. ) ;
#188 = CIRCLE ( 'NONE', #293, 0.1875000000000000278 ) ;
#189 = UNCERTAINTY_MEASURE_WITH_UNIT (LENGTH_MEASURE( 1.000000000000000082E-05 ), #255, 'distance_accuracy_value', 'NONE');
#190 =( CONVERSION_BASED_UNIT ( 'INCH', #170 ) LENGTH_UNIT ( ) NAMED_UNIT ( #258 ) );
#191 = DIRECTION ( 'NONE',  ( -1.000000000000000000, 1.632862398863137774E-16, 0.000000000000000000 ) ) ;
#192 = EDGE_CURVE ( 'NONE', #95, #246, #168, .T. ) ;
#193 =( NAMED_UNIT ( * ) PLANE_ANGLE_UNIT ( ) SI_UNIT ( $, .RADIAN. ) );
#194 = DIRECTION ( 'NONE',  ( 0.000000000000000000, -1.000000000000000000, -0.000000000000000000 ) ) ;
#195 = AXIS2_PLACEMENT_3D ( 'NONE', #227, #84, #191 ) ;
#196 = AXIS2_PLACEMENT_3D ( 'NONE', #117, #94, #32 ) ;
#197 = CARTESIAN_POINT ( 'NONE',  ( 0.000000000000000000, 0.000000000000000000, 0.000000000000000000 ) ) ;
#198 = DIRECTION ( 'NONE',  ( -0.000000000000000000, -1.000000000000000000, -0.000000000000000000 ) ) ;
#199 = SURFACE_STYLE_FILL_AREA ( #103 ) ;
#200 = CYLINDRICAL_SURFACE ( 'NONE', #133, 0.1874999999999999167 ) ;
#201 = DIRECTION ( 'NONE',  ( 0.000000000000000000, 0.000000000000000000, -1.000000000000000000 ) ) ;
#202 = FACE_OUTER_BOUND ( 'NONE', #186, .T. ) ;
#203 = SURFACE_STYLE_FILL_AREA ( #21 ) ;
#204 = ADVANCED_FACE ( 'NONE', ( #105 ), #200, .T. ) ;
#205 = AXIS2_PLACEMENT_3D ( 'NONE', #304, #152, #171 ) ;
#206 = APPLICATION_CONTEXT ( 'automotive_design' ) ;
#207 = PLANE ( 'NONE',  #30 ) ;
#208 = SURFACE_STYLE_USAGE ( .BOTH. , #113 ) ;
#209 =( CONVERSION_BASED_UNIT ( 'INCH', #28 ) LENGTH_UNIT ( ) NAMED_UNIT ( #153 ) );
#210 = FACE_OUTER_BOUND ( 'NONE', #268, .T. ) ;
#211 = EDGE_CURVE ( 'NONE', #275, #166, #298, .T. ) ;
#212 = PRESENTATION_LAYER_ASSIGNMENT (  '', '', ( #283 ) ) ;
#213 = COLOUR_RGB ( '',1.000000000000000000, 0.000000000000000000, 0.000000000000000000 ) ;
#214 = LENGTH_MEASURE_WITH_UNIT ( LENGTH_MEASURE( 0.02539999999999999897 ), #93 );
#215 = EDGE_CURVE ( 'NONE', #183, #95, #224, .T. ) ;
#216 = ORIENTED_EDGE ( 'NONE', *, *, #228, .F. ) ;
#217 =( GEOMETRIC_REPRESENTATION_CONTEXT ( 3 ) GLOBAL_UNCERTAINTY_ASSIGNED_CONTEXT ( ( #147 ) ) GLOBAL_UNIT_ASSIGNED_CONTEXT ( ( #141, #6, #78 ) ) REPRESENTATION_CONTEXT ( 'NONE', 'WORKASPACE' ) );
#218 = EDGE_LOOP ( 'NONE', ( #271, #273, #144, #267 ) ) ;
#219 = ORIENTED_EDGE ( 'NONE', *, *, #128, .T. ) ;
#220 = AXIS2_PLACEMENT_3D ( 'NONE', #145, #44, #79 ) ;
#221 = FACE_OUTER_BOUND ( 'NONE', #218, .T. ) ;
#222 = SURFACE_STYLE_USAGE ( .BOTH. , #309 ) ;
#223 = EDGE_CURVE ( 'NONE', #166, #115, #39, .T. ) ;
#224 = LINE ( 'NONE', #14, #7 ) ;
#225 =( NAMED_UNIT ( * ) PLANE_ANGLE_UNIT ( ) SI_UNIT ( $, .RADIAN. ) );
#226 = AXIS2_PLACEMENT_3D ( 'NONE', #40, #250, #280 ) ;
#227 = CARTESIAN_POINT ( 'NONE',  ( 2.499599637769763364E-33, 0.5000000000000001110, 0.000000000000000000 ) ) ;
#228 = EDGE_CURVE ( 'NONE', #246, #95, #43, .T. ) ;
#229 = FILL_AREA_STYLE ('',( #272 ) ) ;
#230 = LENGTH_MEASURE_WITH_UNIT ( LENGTH_MEASURE( 0.02539999999999999897 ), #15 );
#231 =( LENGTH_UNIT ( ) NAMED_UNIT ( * ) SI_UNIT ( $, .METRE. ) );
#232 = FILL_AREA_STYLE ('',( #73 ) ) ;
#233 = CARTESIAN_POINT ( 'NONE',  ( 2.449293598294706414E-16, 2.000000000000000000, 0.000000000000000000 ) ) ;
#234 = EDGE_LOOP ( 'NONE', ( #119, #8 ) ) ;
#235 = ADVANCED_FACE ( 'NONE', ( #210 ), #111, .T. ) ;
#236 = LINE ( 'NONE', #266, #302 ) ;
#237 = MANIFOLD_SOLID_BREP ( 'Revolve - Cutting Edge', #38 ) ;
#238 = ORIENTED_EDGE ( 'NONE', *, *, #251, .T. ) ;
#239 =( GEOMETRIC_REPRESENTATION_CONTEXT ( 3 ) GLOBAL_UNCERTAINTY_ASSIGNED_CONTEXT ( ( #45 ) ) GLOBAL_UNIT_ASSIGNED_CONTEXT ( ( #209, #291, #305 ) ) REPRESENTATION_CONTEXT ( 'NONE', 'WORKASPACE' ) );
#240 = ORIENTED_EDGE ( 'NONE', *, *, #192, .F. ) ;
#241 = EDGE_LOOP ( 'NONE', ( #187, #12 ) ) ;
#242 = SURFACE_SIDE_STYLE ('',( #20 ) ) ;
#243 = ADVANCED_FACE ( 'NONE', ( #202 ), #207, .F. ) ;
#244 =( LENGTH_UNIT ( ) NAMED_UNIT ( * ) SI_UNIT ( $, .METRE. ) );
#245 = DIRECTION ( 'NONE',  ( 1.632862398863137774E-16, 1.000000000000000000, -0.000000000000000000 ) ) ;
#246 = VERTEX_POINT ( 'NONE', #136 ) ;
#247 = CARTESIAN_POINT ( 'NONE',  ( 0.000000000000000000, 0.000000000000000000, 0.000000000000000000 ) ) ;
#248 = SURFACE_STYLE_FILL_AREA ( #130 ) ;
#249 = EDGE_CURVE ( 'NONE', #183, #58, #188, .T. ) ;
#250 = DIRECTION ( 'NONE',  ( -0.000000000000000000, -1.000000000000000000, -0.000000000000000000 ) ) ;
#251 = EDGE_CURVE ( 'NONE', #295, #115, #259, .T. ) ;
#252 =( GEOMETRIC_REPRESENTATION_CONTEXT ( 3 ) GLOBAL_UNCERTAINTY_ASSIGNED_CONTEXT ( ( #256 ) ) GLOBAL_UNIT_ASSIGNED_CONTEXT ( ( #165, #225, #299 ) ) REPRESENTATION_CONTEXT ( 'NONE', 'WORKASPACE' ) );
#253 =( NAMED_UNIT ( * ) SI_UNIT ( $, .STERADIAN. ) SOLID_ANGLE_UNIT ( ) );
#254 = FACE_OUTER_BOUND ( 'NONE', #241, .T. ) ;
#255 =( CONVERSION_BASED_UNIT ( 'INCH', #2 ) LENGTH_UNIT ( ) NAMED_UNIT ( #70 ) );
#256 = UNCERTAINTY_MEASURE_WITH_UNIT (LENGTH_MEASURE( 1.000000000000000082E-05 ), #165, 'distance_accuracy_value', 'NONE');
#257 = CARTESIAN_POINT ( 'NONE',  ( -0.1875000000000000278, 0.5000000000000001110, 0.000000000000000000 ) ) ;
#258 = DIMENSIONAL_EXPONENTS ( 1.000000000000000000, 0.000000000000000000, 0.000000000000000000, 0.000000000000000000, 0.000000000000000000, 0.000000000000000000, 0.000000000000000000 ) ;
#259 = LINE ( 'NONE', #49, #134 ) ;
#260 =( NAMED_UNIT ( * ) PLANE_ANGLE_UNIT ( ) SI_UNIT ( $, .RADIAN. ) );
#261 = AXIS2_PLACEMENT_3D ( 'NONE', #233, #68, #286 ) ;
#262 = PRESENTATION_STYLE_ASSIGNMENT (( #74 ) ) ;
#263 = ADVANCED_FACE ( 'NONE', ( #27 ), #91, .T. ) ;
#264 = SHAPE_DEFINITION_REPRESENTATION ( #282, #9 ) ;
#265 = COLOUR_RGB ( '',0.7921568627450980005, 0.8196078431372548767, 0.9333333333333333481 ) ;
#266 = CARTESIAN_POINT ( 'NONE',  ( 0.1875000000000001388, 2.000000000000000000, 2.296212748401286185E-17 ) ) ;
#267 = ORIENTED_EDGE ( 'NONE', *, *, #96, .F. ) ;
#268 = EDGE_LOOP ( 'NONE', ( #121, #36, #240, #164 ) ) ;
#269 = AXIS2_PLACEMENT_3D ( 'NONE', #277, #198, #127 ) ;
#270 =( NAMED_UNIT ( * ) PLANE_ANGLE_UNIT ( ) SI_UNIT ( $, .RADIAN. ) );
#271 = ORIENTED_EDGE ( 'NONE', *, *, #251, .F. ) ;
#272 = FILL_AREA_STYLE_COLOUR ( '', #301 ) ;
#273 = ORIENTED_EDGE ( 'NONE', *, *, #63, .T. ) ;
#274 = EDGE_CURVE ( 'NONE', #58, #246, #236, .T. ) ;
#275 = VERTEX_POINT ( 'NONE', #161 ) ;
#276 = MECHANICAL_DESIGN_GEOMETRIC_PRESENTATION_REPRESENTATION (  '', ( #61 ), #252 ) ;
#277 = CARTESIAN_POINT ( 'NONE',  ( 0.000000000000000000, 0.000000000000000000, 0.000000000000000000 ) ) ;
#278 = FACE_OUTER_BOUND ( 'NONE', #234, .T. ) ;
#279 =( CONVERSION_BASED_UNIT ( 'INCH', #230 ) LENGTH_UNIT ( ) NAMED_UNIT ( #110 ) );
#280 = DIRECTION ( 'NONE',  ( 0.000000000000000000, 0.000000000000000000, -1.000000000000000000 ) ) ;
#281 = DIRECTION ( 'NONE',  ( -0.000000000000000000, -1.000000000000000000, -0.000000000000000000 ) ) ;
#282 = PRODUCT_DEFINITION_SHAPE ( 'NONE', 'NONE',  #50 ) ;
#283 = STYLED_ITEM ( 'NONE', ( #85 ), #135 ) ;
#284 = CARTESIAN_POINT ( 'NONE',  ( 0.000000000000000000, 0.5000000000000001110, 0.000000000000000000 ) ) ;
#285 = CARTESIAN_POINT ( 'NONE',  ( 0.000000000000000000, 0.5000000000000001110, 0.000000000000000000 ) ) ;
#286 = DIRECTION ( 'NONE',  ( -1.000000000000000000, 0.000000000000000000, 0.000000000000000000 ) ) ;
#287 = DIMENSIONAL_EXPONENTS ( 1.000000000000000000, 0.000000000000000000, 0.000000000000000000, 0.000000000000000000, 0.000000000000000000, 0.000000000000000000, 0.000000000000000000 ) ;
#288 = AXIS2_PLACEMENT_3D ( 'NONE', #306, #245, #124 ) ;
#289 =( GEOMETRIC_REPRESENTATION_CONTEXT ( 3 ) GLOBAL_UNCERTAINTY_ASSIGNED_CONTEXT ( ( #177 ) ) GLOBAL_UNIT_ASSIGNED_CONTEXT ( ( #138, #270, #120 ) ) REPRESENTATION_CONTEXT ( 'NONE', 'WORKASPACE' ) );
#290 =( LENGTH_UNIT ( ) NAMED_UNIT ( * ) SI_UNIT ( $, .METRE. ) );
#291 =( NAMED_UNIT ( * ) PLANE_ANGLE_UNIT ( ) SI_UNIT ( $, .RADIAN. ) );
#292 = APPLICATION_PROTOCOL_DEFINITION ( 'draft international standard', 'automotive_design', 1998, #16 ) ;
#293 = AXIS2_PLACEMENT_3D ( 'NONE', #155, #154, #29 ) ;
#294 = PRODUCT_DEFINITION_FORMATION_WITH_SPECIFIED_SOURCE ( 'ANY', '', #142, .NOT_KNOWN. ) ;
#295 = VERTEX_POINT ( 'NONE', #160 ) ;
#296 = PRESENTATION_LAYER_ASSIGNMENT (  '', '', ( #72 ) ) ;
#297 = PRESENTATION_STYLE_ASSIGNMENT (( #122 ) ) ;
#298 = LINE ( 'NONE', #81, #185 ) ;
#299 =( NAMED_UNIT ( * ) SI_UNIT ( $, .STERADIAN. ) SOLID_ANGLE_UNIT ( ) );
#300 = SURFACE_STYLE_USAGE ( .BOTH. , #18 ) ;
#301 = COLOUR_RGB ( '',1.000000000000000000, 0.000000000000000000, 0.000000000000000000 ) ;
#302 = VECTOR ( 'NONE', #57, 39.37007874015748143 ) ;
#303 = DIRECTION ( 'NONE',  ( 0.000000000000000000, 0.000000000000000000, -1.000000000000000000 ) ) ;
#304 = CARTESIAN_POINT ( 'NONE',  ( 2.449293598294706414E-16, 2.000000000000000000, 0.000000000000000000 ) ) ;
#305 =( NAMED_UNIT ( * ) SI_UNIT ( $, .STERADIAN. ) SOLID_ANGLE_UNIT ( ) );
#306 = CARTESIAN_POINT ( 'NONE',  ( 2.449293598294706414E-16, 2.000000000000000000, 0.000000000000000000 ) ) ;
#307 = PLANE ( 'NONE',  #195 ) ;
#308 = SURFACE_STYLE_FILL_AREA ( #232 ) ;
#309 = SURFACE_SIDE_STYLE ('',( #203 ) ) ;
ENDSEC;
END-ISO-10303-21;
