ISO-10303-21;
HEADER;
FILE_DESCRIPTION (( 'STEP AP214' ),
    '1' );
FILE_NAME ('Micro_SEM-031-02X.STEP',
    '2021-09-02T00:28:51',
    ( '' ),
    ( '' ),
    'SwSTEP 2.0',
    'SolidWorks 2020',
    '' );
FILE_SCHEMA (( 'AUTOMOTIVE_DESIGN' ));
ENDSEC;

DATA;
#1 = SURFACE_STYLE_FILL_AREA ( #102 ) ;
#2 = DIRECTION ( 'NONE',  ( -0.7071067811865456854, 0.0000000000000000000, -0.7071067811865493491 ) ) ;
#3 = CIRCLE ( 'NONE', #40, 0.04750000000000064587 ) ;
#4 = LENGTH_MEASURE_WITH_UNIT ( LENGTH_MEASURE( 0.02539999999999999897 ), #97 );
#5 = ORIENTED_EDGE ( 'NONE', *, *, #49, .F. ) ;
#6 = CARTESIAN_POINT ( 'NONE',  ( -0.04750000000000064587, 0.0000000000000000000, 1.500000000000000222 ) ) ;
#7 = STYLED_ITEM ( 'NONE', ( #22 ), #15 ) ;
#8 = ORIENTED_EDGE ( 'NONE', *, *, #39, .T. ) ;
#9 = APPLICATION_PROTOCOL_DEFINITION ( 'draft international standard', 'automotive_design', 1998, #52 ) ;
#10 = EDGE_LOOP ( 'NONE', ( #92, #65, #80, #107 ) ) ;
#11 = PRODUCT_CONTEXT ( 'NONE', #33, 'mechanical' ) ;
#12 = DIRECTION ( 'NONE',  ( 0.0000000000000000000, 0.0000000000000000000, 1.000000000000000000 ) ) ;
#13 = AXIS2_PLACEMENT_3D ( 'NONE', #23, #12, #127 ) ;
#14 = EDGE_CURVE ( 'NONE', #157, #32, #64, .T. ) ;
#15 = ADVANCED_BREP_SHAPE_REPRESENTATION ( 'Micro_SEM-031-02X', ( #166, #25 ), #105 ) ;
#16 = VECTOR ( 'NONE', #192, 39.37007874015748143 ) ;
#17 =( NAMED_UNIT ( * ) SI_UNIT ( $, .STERADIAN. ) SOLID_ANGLE_UNIT ( ) );
#18 = CARTESIAN_POINT ( 'NONE',  ( 0.0000000000000000000, 0.0000000000000000000, 1.500000000000000222 ) ) ;
#19 = CARTESIAN_POINT ( 'NONE',  ( 0.06250000000000000000, 7.654042494670956004E-18, 0.0000000000000000000 ) ) ;
#20 = ORIENTED_EDGE ( 'NONE', *, *, #14, .T. ) ;
#21 = DIRECTION ( 'NONE',  ( 0.0000000000000000000, 0.0000000000000000000, -1.000000000000000000 ) ) ;
#22 = PRESENTATION_STYLE_ASSIGNMENT (( #179 ) ) ;
#23 = CARTESIAN_POINT ( 'NONE',  ( 0.0000000000000000000, 0.0000000000000000000, 0.0000000000000000000 ) ) ;
#24 = DIRECTION ( 'NONE',  ( 0.0000000000000000000, 0.0000000000000000000, -1.000000000000000000 ) ) ;
#25 = AXIS2_PLACEMENT_3D ( 'NONE', #37, #122, #158 ) ;
#26 = LINE ( 'NONE', #139, #169 ) ;
#27 = AXIS2_PLACEMENT_3D ( 'NONE', #68, #133, #172 ) ;
#28 = CARTESIAN_POINT ( 'NONE',  ( 0.04750000000000064587, 6.735557395310482421E-18, 1.500000000000000222 ) ) ;
#29 = CIRCLE ( 'NONE', #53, 0.06250000000000000000 ) ;
#30 =( CONVERSION_BASED_UNIT ( 'INCH', #138 ) LENGTH_UNIT ( ) NAMED_UNIT ( #42 ) );
#31 = FILL_AREA_STYLE_COLOUR ( '', #150 ) ;
#32 = VERTEX_POINT ( 'NONE', #109 ) ;
#33 = APPLICATION_CONTEXT ( 'automotive_design' ) ;
#34 = ADVANCED_FACE ( 'NONE', ( #98 ), #148, .F. ) ;
#35 = EDGE_LOOP ( 'NONE', ( #164, #143 ) ) ;
#36 = AXIS2_PLACEMENT_3D ( 'NONE', #77, #54, #111 ) ;
#37 = CARTESIAN_POINT ( 'NONE',  ( 0.0000000000000000000, 0.0000000000000000000, 0.0000000000000000000 ) ) ;
#38 = DIRECTION ( 'NONE',  ( 0.0000000000000000000, 0.0000000000000000000, -1.000000000000000000 ) ) ;
#39 = EDGE_CURVE ( 'NONE', #121, #32, #51, .T. ) ;
#40 = AXIS2_PLACEMENT_3D ( 'NONE', #72, #141, #170 ) ;
#41 = DIRECTION ( 'NONE',  ( -1.000000000000000000, 0.0000000000000000000, 0.0000000000000000000 ) ) ;
#42 = DIMENSIONAL_EXPONENTS ( 1.000000000000000000, 0.0000000000000000000, 0.0000000000000000000, 0.0000000000000000000, 0.0000000000000000000, 0.0000000000000000000, 0.0000000000000000000 ) ;
#43 = CARTESIAN_POINT ( 'NONE',  ( 0.0000000000000000000, 0.0000000000000000000, 1.485000000000000764 ) ) ;
#44 =( CONVERSION_BASED_UNIT ( 'INCH', #4 ) LENGTH_UNIT ( ) NAMED_UNIT ( #74 ) );
#45 = VECTOR ( 'NONE', #50, 39.37007874015748143 ) ;
#46 = ORIENTED_EDGE ( 'NONE', *, *, #167, .T. ) ;
#47 = CYLINDRICAL_SURFACE ( 'NONE', #149, 0.06250000000000000000 ) ;
#48 = VERTEX_POINT ( 'NONE', #6 ) ;
#49 = EDGE_CURVE ( 'NONE', #121, #82, #60, .T. ) ;
#50 = DIRECTION ( 'NONE',  ( 0.7071067811865456854, 8.659560562354911904E-17, -0.7071067811865493491 ) ) ;
#51 = CIRCLE ( 'NONE', #184, 0.06250000000000000000 ) ;
#52 = APPLICATION_CONTEXT ( 'automotive_design' ) ;
#53 = AXIS2_PLACEMENT_3D ( 'NONE', #177, #90, #136 ) ;
#54 = DIRECTION ( 'NONE',  ( 0.0000000000000000000, 0.0000000000000000000, 1.000000000000000000 ) ) ;
#55 = PRESENTATION_STYLE_ASSIGNMENT (( #103 ) ) ;
#56 = UNCERTAINTY_MEASURE_WITH_UNIT (LENGTH_MEASURE( 1.000000000000000082E-05 ), #30, 'distance_accuracy_value', 'NONE');
#57 = CARTESIAN_POINT ( 'NONE',  ( 0.0000000000000000000, 0.0000000000000000000, 1.500000000000000222 ) ) ;
#58 = SURFACE_SIDE_STYLE ('',( #1 ) ) ;
#59 = EDGE_LOOP ( 'NONE', ( #8, #46, #95, #5 ) ) ;
#60 = LINE ( 'NONE', #123, #16 ) ;
#61 = COLOUR_RGB ( '',0.7921568627450980005, 0.8196078431372548767, 0.9333333333333333481 ) ;
#62 = ORIENTED_EDGE ( 'NONE', *, *, #63, .F. ) ;
#63 = EDGE_CURVE ( 'NONE', #32, #121, #79, .T. ) ;
#64 = LINE ( 'NONE', #94, #45 ) ;
#65 = ORIENTED_EDGE ( 'NONE', *, *, #63, .T. ) ;
#66 = PRODUCT_DEFINITION ( 'UNKNOWN', '', #96, #197 ) ;
#67 = EDGE_CURVE ( 'NONE', #48, #157, #87, .T. ) ;
#68 = CARTESIAN_POINT ( 'NONE',  ( 0.0000000000000000000, 0.0000000000000000000, 1.500000000000000222 ) ) ;
#69 = AXIS2_PLACEMENT_3D ( 'NONE', #120, #84, #153 ) ;
#70 = CYLINDRICAL_SURFACE ( 'NONE', #196, 0.06250000000000000000 ) ;
#71 = DIRECTION ( 'NONE',  ( 0.0000000000000000000, 0.0000000000000000000, -1.000000000000000000 ) ) ;
#72 = CARTESIAN_POINT ( 'NONE',  ( 0.0000000000000000000, 0.0000000000000000000, 1.500000000000000222 ) ) ;
#73 = MECHANICAL_DESIGN_GEOMETRIC_PRESENTATION_REPRESENTATION (  '', ( #175 ), #156 ) ;
#74 = DIMENSIONAL_EXPONENTS ( 1.000000000000000000, 0.0000000000000000000, 0.0000000000000000000, 0.0000000000000000000, 0.0000000000000000000, 0.0000000000000000000, 0.0000000000000000000 ) ;
#75 =( NAMED_UNIT ( * ) SI_UNIT ( $, .STERADIAN. ) SOLID_ANGLE_UNIT ( ) );
#76 = DIRECTION ( 'NONE',  ( 1.000000000000000000, 0.0000000000000000000, 0.0000000000000000000 ) ) ;
#77 = CARTESIAN_POINT ( 'NONE',  ( 0.0000000000000000000, 0.0000000000000000000, 0.0000000000000000000 ) ) ;
#78 = ORIENTED_EDGE ( 'NONE', *, *, #39, .F. ) ;
#79 = CIRCLE ( 'NONE', #131, 0.06250000000000000000 ) ;
#80 = ORIENTED_EDGE ( 'NONE', *, *, #49, .T. ) ;
#81 = SHAPE_DEFINITION_REPRESENTATION ( #128, #15 ) ;
#82 = VERTEX_POINT ( 'NONE', #130 ) ;
#83 = PRODUCT_RELATED_PRODUCT_CATEGORY ( 'part', '', ( #195 ) ) ;
#84 = DIRECTION ( 'NONE',  ( 0.0000000000000000000, 0.0000000000000000000, 1.000000000000000000 ) ) ;
#85 = CARTESIAN_POINT ( 'NONE',  ( 0.0000000000000000000, 0.0000000000000000000, 1.500000000000000222 ) ) ;
#86 = FACE_OUTER_BOUND ( 'NONE', #10, .T. ) ;
#87 = CIRCLE ( 'NONE', #69, 0.04750000000000064587 ) ;
#88 = CARTESIAN_POINT ( 'NONE',  ( 0.06250000000000000000, 7.654042494670956004E-18, 1.500000000000000222 ) ) ;
#89 = DIRECTION ( 'NONE',  ( -1.000000000000000000, 0.0000000000000000000, 0.0000000000000000000 ) ) ;
#90 = DIRECTION ( 'NONE',  ( 0.0000000000000000000, 0.0000000000000000000, 1.000000000000000000 ) ) ;
#91 = SURFACE_SIDE_STYLE ('',( #142 ) ) ;
#92 = ORIENTED_EDGE ( 'NONE', *, *, #167, .F. ) ;
#93 = EDGE_CURVE ( 'NONE', #48, #121, #26, .T. ) ;
#94 = CARTESIAN_POINT ( 'NONE',  ( 0.04750000000000064587, 5.817072295950006528E-18, 1.500000000000000222 ) ) ;
#95 = ORIENTED_EDGE ( 'NONE', *, *, #112, .T. ) ;
#96 = PRODUCT_DEFINITION_FORMATION_WITH_SPECIFIED_SOURCE ( 'ANY', '', #195, .NOT_KNOWN. ) ;
#97 =( LENGTH_UNIT ( ) NAMED_UNIT ( * ) SI_UNIT ( $, .METRE. ) );
#98 = FACE_OUTER_BOUND ( 'NONE', #182, .T. ) ;
#99 = PRESENTATION_LAYER_ASSIGNMENT (  '', '', ( #175 ) ) ;
#100 = AXIS2_PLACEMENT_3D ( 'NONE', #18, #71, #173 ) ;
#101 =( CONVERSION_BASED_UNIT ( 'INCH', #185 ) LENGTH_UNIT ( ) NAMED_UNIT ( #168 ) );
#102 = FILL_AREA_STYLE ('',( #31 ) ) ;
#103 = SURFACE_STYLE_USAGE ( .BOTH. , #58 ) ;
#104 = FACE_OUTER_BOUND ( 'NONE', #162, .T. ) ;
#105 =( GEOMETRIC_REPRESENTATION_CONTEXT ( 3 ) GLOBAL_UNCERTAINTY_ASSIGNED_CONTEXT ( ( #119 ) ) GLOBAL_UNIT_ASSIGNED_CONTEXT ( ( #101, #118, #75 ) ) REPRESENTATION_CONTEXT ( 'NONE', 'WORKASPACE' ) );
#106 = FACE_OUTER_BOUND ( 'NONE', #35, .T. ) ;
#107 = ORIENTED_EDGE ( 'NONE', *, *, #155, .T. ) ;
#108 = ADVANCED_FACE ( 'NONE', ( #106 ), #180, .T. ) ;
#109 = CARTESIAN_POINT ( 'NONE',  ( 0.06250000000000000000, 7.654042494670956004E-18, 1.485000000000000764 ) ) ;
#110 = MECHANICAL_DESIGN_GEOMETRIC_PRESENTATION_REPRESENTATION (  '', ( #7 ), #199 ) ;
#111 = DIRECTION ( 'NONE',  ( 1.000000000000000000, 0.0000000000000000000, 0.0000000000000000000 ) ) ;
#112 = EDGE_CURVE ( 'NONE', #193, #82, #191, .T. ) ;
#113 = PRESENTATION_LAYER_ASSIGNMENT (  '', '', ( #7 ) ) ;
#114 = CONICAL_SURFACE ( 'NONE', #129, 0.04750000000000064587, 0.7853981633974457255 ) ;
#115 = UNCERTAINTY_MEASURE_WITH_UNIT (LENGTH_MEASURE( 1.000000000000000082E-05 ), #44, 'distance_accuracy_value', 'NONE');
#116 = ADVANCED_FACE ( 'NONE', ( #132 ), #114, .T. ) ;
#117 =( NAMED_UNIT ( * ) PLANE_ANGLE_UNIT ( ) SI_UNIT ( $, .RADIAN. ) );
#118 =( NAMED_UNIT ( * ) PLANE_ANGLE_UNIT ( ) SI_UNIT ( $, .RADIAN. ) );
#119 = UNCERTAINTY_MEASURE_WITH_UNIT (LENGTH_MEASURE( 1.000000000000000082E-05 ), #101, 'distance_accuracy_value', 'NONE');
#120 = CARTESIAN_POINT ( 'NONE',  ( 0.0000000000000000000, 0.0000000000000000000, 1.500000000000000222 ) ) ;
#121 = VERTEX_POINT ( 'NONE', #171 ) ;
#122 = DIRECTION ( 'NONE',  ( 0.0000000000000000000, 0.0000000000000000000, 1.000000000000000000 ) ) ;
#123 = CARTESIAN_POINT ( 'NONE',  ( -0.06250000000000000000, 0.0000000000000000000, 1.500000000000000222 ) ) ;
#124 = VECTOR ( 'NONE', #151, 39.37007874015748143 ) ;
#125 =( NAMED_UNIT ( * ) PLANE_ANGLE_UNIT ( ) SI_UNIT ( $, .RADIAN. ) );
#126 = ORIENTED_EDGE ( 'NONE', *, *, #112, .F. ) ;
#127 = DIRECTION ( 'NONE',  ( 1.000000000000000000, 0.0000000000000000000, -0.0000000000000000000 ) ) ;
#128 = PRODUCT_DEFINITION_SHAPE ( 'NONE', 'NONE',  #66 ) ;
#129 = AXIS2_PLACEMENT_3D ( 'NONE', #85, #38, #174 ) ;
#130 = CARTESIAN_POINT ( 'NONE',  ( -0.06250000000000000000, 0.0000000000000000000, 0.0000000000000000000 ) ) ;
#131 = AXIS2_PLACEMENT_3D ( 'NONE', #198, #24, #190 ) ;
#132 = FACE_OUTER_BOUND ( 'NONE', #181, .T. ) ;
#133 = DIRECTION ( 'NONE',  ( 0.0000000000000000000, 0.0000000000000000000, 1.000000000000000000 ) ) ;
#134 =( LENGTH_UNIT ( ) NAMED_UNIT ( * ) SI_UNIT ( $, .METRE. ) );
#135 = CLOSED_SHELL ( 'NONE', ( #183, #186, #165, #108, #34, #116 ) ) ;
#136 = DIRECTION ( 'NONE',  ( 1.000000000000000000, 0.0000000000000000000, 0.0000000000000000000 ) ) ;
#137 =( LENGTH_UNIT ( ) NAMED_UNIT ( * ) SI_UNIT ( $, .METRE. ) );
#138 = LENGTH_MEASURE_WITH_UNIT ( LENGTH_MEASURE( 0.02539999999999999897 ), #134 );
#139 = CARTESIAN_POINT ( 'NONE',  ( -0.04750000000000064587, 0.0000000000000000000, 1.500000000000000222 ) ) ;
#140 = LINE ( 'NONE', #88, #124 ) ;
#141 = DIRECTION ( 'NONE',  ( 0.0000000000000000000, 0.0000000000000000000, 1.000000000000000000 ) ) ;
#142 = SURFACE_STYLE_FILL_AREA ( #160 ) ;
#143 = ORIENTED_EDGE ( 'NONE', *, *, #194, .T. ) ;
#144 = ORIENTED_EDGE ( 'NONE', *, *, #67, .F. ) ;
#145 =( NAMED_UNIT ( * ) SI_UNIT ( $, .STERADIAN. ) SOLID_ANGLE_UNIT ( ) );
#146 = ORIENTED_EDGE ( 'NONE', *, *, #155, .F. ) ;
#147 = FILL_AREA_STYLE_COLOUR ( '', #61 ) ;
#148 = PLANE ( 'NONE',  #13 ) ;
#149 = AXIS2_PLACEMENT_3D ( 'NONE', #57, #187, #41 ) ;
#150 = COLOUR_RGB ( '',0.7921568627450980005, 0.8196078431372548767, 0.9333333333333333481 ) ;
#151 = DIRECTION ( 'NONE',  ( -0.0000000000000000000, -0.0000000000000000000, -1.000000000000000000 ) ) ;
#152 = CONICAL_SURFACE ( 'NONE', #100, 0.04750000000000064587, 0.7853981633974457255 ) ;
#153 = DIRECTION ( 'NONE',  ( 1.000000000000000000, 0.0000000000000000000, 0.0000000000000000000 ) ) ;
#154 = DIRECTION ( 'NONE',  ( -0.0000000000000000000, -0.0000000000000000000, -1.000000000000000000 ) ) ;
#155 = EDGE_CURVE ( 'NONE', #82, #193, #29, .T. ) ;
#156 =( GEOMETRIC_REPRESENTATION_CONTEXT ( 3 ) GLOBAL_UNCERTAINTY_ASSIGNED_CONTEXT ( ( #56 ) ) GLOBAL_UNIT_ASSIGNED_CONTEXT ( ( #30, #117, #17 ) ) REPRESENTATION_CONTEXT ( 'NONE', 'WORKASPACE' ) );
#157 = VERTEX_POINT ( 'NONE', #28 ) ;
#158 = DIRECTION ( 'NONE',  ( 1.000000000000000000, 0.0000000000000000000, 0.0000000000000000000 ) ) ;
#159 = ORIENTED_EDGE ( 'NONE', *, *, #93, .T. ) ;
#160 = FILL_AREA_STYLE ('',( #147 ) ) ;
#161 = ORIENTED_EDGE ( 'NONE', *, *, #93, .F. ) ;
#162 = EDGE_LOOP ( 'NONE', ( #178, #20, #78, #161 ) ) ;
#163 = APPLICATION_PROTOCOL_DEFINITION ( 'draft international standard', 'automotive_design', 1998, #33 ) ;
#164 = ORIENTED_EDGE ( 'NONE', *, *, #67, .T. ) ;
#165 = ADVANCED_FACE ( 'NONE', ( #86 ), #47, .T. ) ;
#166 = MANIFOLD_SOLID_BREP ( 'Chamfer', #135 ) ;
#167 = EDGE_CURVE ( 'NONE', #32, #193, #140, .T. ) ;
#168 = DIMENSIONAL_EXPONENTS ( 1.000000000000000000, 0.0000000000000000000, 0.0000000000000000000, 0.0000000000000000000, 0.0000000000000000000, 0.0000000000000000000, 0.0000000000000000000 ) ;
#169 = VECTOR ( 'NONE', #2, 39.37007874015748143 ) ;
#170 = DIRECTION ( 'NONE',  ( 1.000000000000000000, 0.0000000000000000000, 0.0000000000000000000 ) ) ;
#171 = CARTESIAN_POINT ( 'NONE',  ( -0.06250000000000000000, 0.0000000000000000000, 1.485000000000000764 ) ) ;
#172 = DIRECTION ( 'NONE',  ( 1.000000000000000000, 0.0000000000000000000, -0.0000000000000000000 ) ) ;
#173 = DIRECTION ( 'NONE',  ( -1.000000000000000000, 0.0000000000000000000, 0.0000000000000000000 ) ) ;
#174 = DIRECTION ( 'NONE',  ( -1.000000000000000000, 0.0000000000000000000, 0.0000000000000000000 ) ) ;
#175 = STYLED_ITEM ( 'NONE', ( #55 ), #166 ) ;
#176 = FACE_OUTER_BOUND ( 'NONE', #59, .T. ) ;
#177 = CARTESIAN_POINT ( 'NONE',  ( 0.0000000000000000000, 0.0000000000000000000, 0.0000000000000000000 ) ) ;
#178 = ORIENTED_EDGE ( 'NONE', *, *, #194, .F. ) ;
#179 = SURFACE_STYLE_USAGE ( .BOTH. , #91 ) ;
#180 = PLANE ( 'NONE',  #27 ) ;
#181 = EDGE_LOOP ( 'NONE', ( #189, #144, #159, #62 ) ) ;
#182 = EDGE_LOOP ( 'NONE', ( #146, #126 ) ) ;
#183 = ADVANCED_FACE ( 'NONE', ( #104 ), #152, .T. ) ;
#184 = AXIS2_PLACEMENT_3D ( 'NONE', #43, #21, #76 ) ;
#185 = LENGTH_MEASURE_WITH_UNIT ( LENGTH_MEASURE( 0.02539999999999999897 ), #137 );
#186 = ADVANCED_FACE ( 'NONE', ( #176 ), #70, .T. ) ;
#187 = DIRECTION ( 'NONE',  ( -0.0000000000000000000, -0.0000000000000000000, -1.000000000000000000 ) ) ;
#188 = CARTESIAN_POINT ( 'NONE',  ( 0.0000000000000000000, 0.0000000000000000000, 1.500000000000000222 ) ) ;
#189 = ORIENTED_EDGE ( 'NONE', *, *, #14, .F. ) ;
#190 = DIRECTION ( 'NONE',  ( 1.000000000000000000, 0.0000000000000000000, 0.0000000000000000000 ) ) ;
#191 = CIRCLE ( 'NONE', #36, 0.06250000000000000000 ) ;
#192 = DIRECTION ( 'NONE',  ( -0.0000000000000000000, -0.0000000000000000000, -1.000000000000000000 ) ) ;
#193 = VERTEX_POINT ( 'NONE', #19 ) ;
#194 = EDGE_CURVE ( 'NONE', #157, #48, #3, .T. ) ;
#195 = PRODUCT ( 'Micro_SEM-031-02X', 'Micro_SEM-031-02X', '', ( #11 ) ) ;
#196 = AXIS2_PLACEMENT_3D ( 'NONE', #188, #154, #89 ) ;
#197 = PRODUCT_DEFINITION_CONTEXT ( 'detailed design', #52, 'design' ) ;
#198 = CARTESIAN_POINT ( 'NONE',  ( 0.0000000000000000000, 0.0000000000000000000, 1.485000000000000764 ) ) ;
#199 =( GEOMETRIC_REPRESENTATION_CONTEXT ( 3 ) GLOBAL_UNCERTAINTY_ASSIGNED_CONTEXT ( ( #115 ) ) GLOBAL_UNIT_ASSIGNED_CONTEXT ( ( #44, #125, #145 ) ) REPRESENTATION_CONTEXT ( 'NONE', 'WORKASPACE' ) );
ENDSEC;
END-ISO-10303-21;
