ISO-10303-21;
HEADER;
FILE_DESCRIPTION (( 'STEP AP214' ),
    '1' );
FILE_NAME ('59641.STEP',
    '2023-07-24T15:51:20',
    ( '' ),
    ( '' ),
    'SwSTEP 2.0',
    'SolidWorks 2023',
    '' );
FILE_SCHEMA (( 'AUTOMOTIVE_DESIGN' ));
ENDSEC;

DATA;
#1 =( LENGTH_UNIT ( ) NAMED_UNIT ( * ) SI_UNIT ( .MILLI., .METRE. ) );
#2 = AXIS2_PLACEMENT_3D ( 'NONE', #284, #20, #72 ) ;
#3 = FILL_AREA_STYLE_COLOUR ( '', #22 ) ;
#4 = EDGE_CURVE ( 'NONE', #34, #8, #49, .T. ) ;
#5 = CARTESIAN_POINT ( 'NONE',  ( 0.000000000000000000, 18.00000000000000355, 0.000000000000000000 ) ) ;
#6 = MECHANICAL_DESIGN_GEOMETRIC_PRESENTATION_REPRESENTATION (  '', ( #143 ), #272 ) ;
#7 = DIRECTION ( 'NONE',  ( 0.000000000000000000, 0.000000000000000000, -1.000000000000000000 ) ) ;
#8 = VERTEX_POINT ( 'NONE', #226 ) ;
#9 = DIRECTION ( 'NONE',  ( 0.000000000000000000, -0.000000000000000000, 1.000000000000000000 ) ) ;
#10 = ADVANCED_BREP_SHAPE_REPRESENTATION ( '59641', ( #275, #190, #2 ), #288 ) ;
#11 = ORIENTED_EDGE ( 'NONE', *, *, #227, .T. ) ;
#12 = CARTESIAN_POINT ( 'NONE',  ( -1.469576158976823750E-15, 75.00000000000000000, 0.000000000000000000 ) ) ;
#13 = CARTESIAN_POINT ( 'NONE',  ( 0.000000000000000000, 0.000000000000000000, -6.000000000000000000 ) ) ;
#14 = VERTEX_POINT ( 'NONE', #19 ) ;
#15 = APPLICATION_PROTOCOL_DEFINITION ( 'draft international standard', 'automotive_design', 1998, #47 ) ;
#16 = SURFACE_SIDE_STYLE ('',( #221 ) ) ;
#17 = COLOUR_RGB ( '',1.000000000000000000, 0.000000000000000000, 0.000000000000000000 ) ;
#18 = DIRECTION ( 'NONE',  ( -1.000000000000000000, 0.000000000000000000, 0.000000000000000000 ) ) ;
#19 = CARTESIAN_POINT ( 'NONE',  ( 6.000000000000000000, 75.00000000000000000, 7.347880794884120722E-16 ) ) ;
#20 = DIRECTION ( 'NONE',  ( 0.000000000000000000, 0.000000000000000000, 1.000000000000000000 ) ) ;
#21 = ORIENTED_EDGE ( 'NONE', *, *, #139, .T. ) ;
#22 = COLOUR_RGB ( '',1.000000000000000000, 0.000000000000000000, 0.000000000000000000 ) ;
#23 = VECTOR ( 'NONE', #33, 1000.000000000000000 ) ;
#24 = SURFACE_STYLE_FILL_AREA ( #153 ) ;
#25 = STYLED_ITEM ( 'NONE', ( #124 ), #188 ) ;
#26 = EDGE_CURVE ( 'NONE', #88, #8, #167, .T. ) ;
#27 = FACE_OUTER_BOUND ( 'NONE', #264, .T. ) ;
#28 = DIRECTION ( 'NONE',  ( -0.000000000000000000, -1.000000000000000000, -0.000000000000000000 ) ) ;
#29 = AXIS2_PLACEMENT_3D ( 'NONE', #200, #280, #89 ) ;
#30 = DIRECTION ( 'NONE',  ( -2.578203787678638266E-17, 1.000000000000000000, -0.000000000000000000 ) ) ;
#31 =( NAMED_UNIT ( * ) SI_UNIT ( $, .STERADIAN. ) SOLID_ANGLE_UNIT ( ) );
#32 = DIRECTION ( 'NONE',  ( -0.000000000000000000, -1.000000000000000000, -0.000000000000000000 ) ) ;
#33 = DIRECTION ( 'NONE',  ( -0.000000000000000000, -1.000000000000000000, -0.000000000000000000 ) ) ;
#34 = VERTEX_POINT ( 'NONE', #63 ) ;
#35 = FACE_OUTER_BOUND ( 'NONE', #93, .T. ) ;
#36 = DIRECTION ( 'NONE',  ( 0.000000000000000000, 0.000000000000000000, -1.000000000000000000 ) ) ;
#37 = CARTESIAN_POINT ( 'NONE',  ( 0.000000000000000000, 18.00000000000000000, 0.000000000000000000 ) ) ;
#38 = COLOUR_RGB ( '',1.000000000000000000, 0.000000000000000000, 0.000000000000000000 ) ;
#39 = ORIENTED_EDGE ( 'NONE', *, *, #211, .F. ) ;
#40 = DIRECTION ( 'NONE',  ( 0.000000000000000000, 0.000000000000000000, -1.000000000000000000 ) ) ;
#41 = ORIENTED_EDGE ( 'NONE', *, *, #227, .F. ) ;
#42 = EDGE_LOOP ( 'NONE', ( #241, #150 ) ) ;
#43 = MECHANICAL_DESIGN_GEOMETRIC_PRESENTATION_REPRESENTATION (  '', ( #210 ), #53 ) ;
#44 =( GEOMETRIC_REPRESENTATION_CONTEXT ( 3 ) GLOBAL_UNCERTAINTY_ASSIGNED_CONTEXT ( ( #166 ) ) GLOBAL_UNIT_ASSIGNED_CONTEXT ( ( #215, #85, #114 ) ) REPRESENTATION_CONTEXT ( 'NONE', 'WORKASPACE' ) );
#45 = SURFACE_SIDE_STYLE ('',( #178 ) ) ;
#46 = COLOUR_RGB ( '',1.000000000000000000, 0.000000000000000000, 0.000000000000000000 ) ;
#47 = APPLICATION_CONTEXT ( 'automotive_design' ) ;
#48 = EDGE_CURVE ( 'NONE', #92, #88, #271, .T. ) ;
#49 = LINE ( 'NONE', #51, #186 ) ;
#50 = FILL_AREA_STYLE_COLOUR ( '', #115 ) ;
#51 = CARTESIAN_POINT ( 'NONE',  ( 7.347880794884119736E-16, 0.000000000000000000, 6.000000000000000000 ) ) ;
#52 = ADVANCED_FACE ( 'NONE', ( #27 ), #236, .T. ) ;
#53 =( GEOMETRIC_REPRESENTATION_CONTEXT ( 3 ) GLOBAL_UNCERTAINTY_ASSIGNED_CONTEXT ( ( #100 ) ) GLOBAL_UNIT_ASSIGNED_CONTEXT ( ( #216, #267, #281 ) ) REPRESENTATION_CONTEXT ( 'NONE', 'WORKASPACE' ) );
#54 = DIRECTION ( 'NONE',  ( -1.000000000000000000, 0.000000000000000000, 0.000000000000000000 ) ) ;
#55 = UNCERTAINTY_MEASURE_WITH_UNIT (LENGTH_MEASURE( 1.000000000000000082E-05 ), #182, 'distance_accuracy_value', 'NONE');
#56 = DIRECTION ( 'NONE',  ( -0.000000000000000000, -1.000000000000000000, -0.000000000000000000 ) ) ;
#57 = UNCERTAINTY_MEASURE_WITH_UNIT (LENGTH_MEASURE( 1.000000000000000082E-05 ), #194, 'distance_accuracy_value', 'NONE');
#58 = CIRCLE ( 'NONE', #81, 6.000000000000000000 ) ;
#59 = PRESENTATION_LAYER_ASSIGNMENT (  '', '', ( #62 ) ) ;
#60 = ADVANCED_FACE ( 'NONE', ( #120 ), #195, .T. ) ;
#61 = FILL_AREA_STYLE_COLOUR ( '', #17 ) ;
#62 = STYLED_ITEM ( 'NONE', ( #163 ), #60 ) ;
#63 = CARTESIAN_POINT ( 'NONE',  ( 7.347880794884119736E-16, 18.00000000000000000, 6.000000000000000000 ) ) ;
#64 = CARTESIAN_POINT ( 'NONE',  ( 1.994140431240143121E-33, 18.00000000000000000, 0.000000000000000000 ) ) ;
#65 =( NAMED_UNIT ( * ) SI_UNIT ( $, .STERADIAN. ) SOLID_ANGLE_UNIT ( ) );
#66 = AXIS2_PLACEMENT_3D ( 'NONE', #110, #82, #255 ) ;
#67 = DIRECTION ( 'NONE',  ( 1.000000000000000000, 2.578203787678638266E-17, 0.000000000000000000 ) ) ;
#68 = FILL_AREA_STYLE ('',( #177 ) ) ;
#69 = DIRECTION ( 'NONE',  ( -0.000000000000000000, -1.000000000000000000, -0.000000000000000000 ) ) ;
#70 = EDGE_LOOP ( 'NONE', ( #141, #184, #179, #123 ) ) ;
#71 = VERTEX_POINT ( 'NONE', #198 ) ;
#72 = DIRECTION ( 'NONE',  ( 1.000000000000000000, 0.000000000000000000, 0.000000000000000000 ) ) ;
#73 = PRESENTATION_LAYER_ASSIGNMENT (  '', '', ( #25 ) ) ;
#74 = MECHANICAL_DESIGN_GEOMETRIC_PRESENTATION_REPRESENTATION (  '', ( #62 ), #224 ) ;
#75 = PRODUCT_DEFINITION ( 'UNKNOWN', '', #116, #119 ) ;
#76 = ORIENTED_EDGE ( 'NONE', *, *, #4, .T. ) ;
#77 = DIRECTION ( 'NONE',  ( -1.000000000000000000, 0.000000000000000000, 0.000000000000000000 ) ) ;
#78 = LINE ( 'NONE', #130, #90 ) ;
#79 = DIRECTION ( 'NONE',  ( -1.000000000000000000, 0.000000000000000000, 0.000000000000000000 ) ) ;
#80 = CARTESIAN_POINT ( 'NONE',  ( 0.000000000000000000, 18.00000000000000000, 0.000000000000000000 ) ) ;
#81 = AXIS2_PLACEMENT_3D ( 'NONE', #80, #239, #36 ) ;
#82 = DIRECTION ( 'NONE',  ( 0.000000000000000000, -1.000000000000000000, -0.000000000000000000 ) ) ;
#83 = PRESENTATION_LAYER_ASSIGNMENT (  '', '', ( #210 ) ) ;
#84 = FILL_AREA_STYLE ('',( #278 ) ) ;
#85 =( NAMED_UNIT ( * ) PLANE_ANGLE_UNIT ( ) SI_UNIT ( $, .RADIAN. ) );
#86 = ORIENTED_EDGE ( 'NONE', *, *, #48, .F. ) ;
#87 = CYLINDRICAL_SURFACE ( 'NONE', #175, 6.000000000000000888 ) ;
#88 = VERTEX_POINT ( 'NONE', #13 ) ;
#89 = DIRECTION ( 'NONE',  ( -1.000000000000000000, 0.000000000000000000, 0.000000000000000000 ) ) ;
#90 = VECTOR ( 'NONE', #176, 1000.000000000000000 ) ;
#91 = DIRECTION ( 'NONE',  ( 0.000000000000000000, 1.000000000000000000, 0.000000000000000000 ) ) ;
#92 = VERTEX_POINT ( 'NONE', #201 ) ;
#93 = EDGE_LOOP ( 'NONE', ( #245, #180, #156, #41 ) ) ;
#94 = SURFACE_STYLE_USAGE ( .BOTH. , #187 ) ;
#95 =( NAMED_UNIT ( * ) PLANE_ANGLE_UNIT ( ) SI_UNIT ( $, .RADIAN. ) );
#96 = ADVANCED_FACE ( 'NONE', ( #247 ), #140, .T. ) ;
#97 = CIRCLE ( 'NONE', #29, 6.000000000000001776 ) ;
#98 =( NAMED_UNIT ( * ) SI_UNIT ( $, .STERADIAN. ) SOLID_ANGLE_UNIT ( ) );
#99 = DIRECTION ( 'NONE',  ( -2.578203787678638266E-17, 1.000000000000000000, -0.000000000000000000 ) ) ;
#100 = UNCERTAINTY_MEASURE_WITH_UNIT (LENGTH_MEASURE( 1.000000000000000082E-05 ), #216, 'distance_accuracy_value', 'NONE');
#101 = PRODUCT_RELATED_PRODUCT_CATEGORY ( 'part', '', ( #152 ) ) ;
#102 = SURFACE_STYLE_USAGE ( .BOTH. , #212 ) ;
#103 = AXIS2_PLACEMENT_3D ( 'NONE', #256, #32, #40 ) ;
#104 = AXIS2_PLACEMENT_3D ( 'NONE', #214, #28, #105 ) ;
#105 = DIRECTION ( 'NONE',  ( 0.000000000000000000, 0.000000000000000000, -1.000000000000000000 ) ) ;
#106 = FILL_AREA_STYLE ('',( #3 ) ) ;
#107 = CIRCLE ( 'NONE', #251, 6.000000000000000000 ) ;
#108 = EDGE_CURVE ( 'NONE', #34, #92, #58, .T. ) ;
#109 = DIRECTION ( 'NONE',  ( -1.000000000000000000, 0.000000000000000000, 0.000000000000000000 ) ) ;
#110 = CARTESIAN_POINT ( 'NONE',  ( 0.000000000000000000, 0.000000000000000000, 0.000000000000000000 ) ) ;
#111 = SURFACE_SIDE_STYLE ('',( #244 ) ) ;
#112 = ORIENTED_EDGE ( 'NONE', *, *, #133, .F. ) ;
#113 = DIRECTION ( 'NONE',  ( -2.578203787678638266E-17, 1.000000000000000000, -0.000000000000000000 ) ) ;
#114 =( NAMED_UNIT ( * ) SI_UNIT ( $, .STERADIAN. ) SOLID_ANGLE_UNIT ( ) );
#115 = COLOUR_RGB ( '',0.7921568627450980005, 0.8196078431372548767, 0.9333333333333333481 ) ;
#116 = PRODUCT_DEFINITION_FORMATION_WITH_SPECIFIED_SOURCE ( 'ANY', '', #152, .NOT_KNOWN. ) ;
#117 = FILL_AREA_STYLE_COLOUR ( '', #46 ) ;
#118 = ORIENTED_EDGE ( 'NONE', *, *, #211, .T. ) ;
#119 = PRODUCT_DEFINITION_CONTEXT ( 'detailed design', #136, 'design' ) ;
#120 = FACE_OUTER_BOUND ( 'NONE', #70, .T. ) ;
#121 = FACE_OUTER_BOUND ( 'NONE', #263, .T. ) ;
#122 = PLANE ( 'NONE',  #160 ) ;
#123 = ORIENTED_EDGE ( 'NONE', *, *, #155, .F. ) ;
#124 = PRESENTATION_STYLE_ASSIGNMENT (( #196 ) ) ;
#125 = PLANE ( 'NONE',  #66 ) ;
#126 = CARTESIAN_POINT ( 'NONE',  ( 5.999999999999999112, 75.00000000000000000, 7.347880794884120722E-16 ) ) ;
#127 = DIRECTION ( 'NONE',  ( 0.000000000000000000, 0.000000000000000000, -1.000000000000000000 ) ) ;
#128 = ORIENTED_EDGE ( 'NONE', *, *, #171, .F. ) ;
#129 = AXIS2_PLACEMENT_3D ( 'NONE', #262, #30, #18 ) ;
#130 = CARTESIAN_POINT ( 'NONE',  ( -6.000000000000002665, 75.00000000000000000, 0.000000000000000000 ) ) ;
#131 = UNCERTAINTY_MEASURE_WITH_UNIT (LENGTH_MEASURE( 1.000000000000000082E-05 ), #157, 'distance_accuracy_value', 'NONE');
#132 = PRESENTATION_LAYER_ASSIGNMENT (  '', '', ( #209 ) ) ;
#133 = EDGE_CURVE ( 'NONE', #270, #14, #146, .T. ) ;
#134 = CLOSED_SHELL ( 'NONE', ( #96, #188, #60, #231 ) ) ;
#135 = DIRECTION ( 'NONE',  ( -2.578203787678638266E-17, 1.000000000000000000, -0.000000000000000000 ) ) ;
#136 = APPLICATION_CONTEXT ( 'automotive_design' ) ;
#137 = MECHANICAL_DESIGN_GEOMETRIC_PRESENTATION_REPRESENTATION (  '', ( #162 ), #222 ) ;
#138 = CARTESIAN_POINT ( 'NONE',  ( -1.469576158976823750E-15, 75.00000000000000000, 0.000000000000000000 ) ) ;
#139 = EDGE_CURVE ( 'NONE', #92, #34, #202, .T. ) ;
#140 = CYLINDRICAL_SURFACE ( 'NONE', #103, 6.000000000000000000 ) ;
#141 = ORIENTED_EDGE ( 'NONE', *, *, #4, .F. ) ;
#142 = DIRECTION ( 'NONE',  ( -2.578203787678638266E-17, 1.000000000000000000, 0.000000000000000000 ) ) ;
#143 = STYLED_ITEM ( 'NONE', ( #277 ), #190 ) ;
#144 = ORIENTED_EDGE ( 'NONE', *, *, #26, .F. ) ;
#145 = CLOSED_SHELL ( 'NONE', ( #250, #158, #52, #232 ) ) ;
#146 = LINE ( 'NONE', #126, #276 ) ;
#147 = EDGE_LOOP ( 'NONE', ( #199, #220 ) ) ;
#148 = PRODUCT_DEFINITION_SHAPE ( 'NONE', 'NONE',  #75 ) ;
#149 = DIRECTION ( 'NONE',  ( -0.000000000000000000, -1.000000000000000000, -0.000000000000000000 ) ) ;
#150 = ORIENTED_EDGE ( 'NONE', *, *, #171, .T. ) ;
#151 = FILL_AREA_STYLE ('',( #117 ) ) ;
#152 = PRODUCT ( '59641', '59641', '', ( #185 ) ) ;
#153 = FILL_AREA_STYLE ('',( #50 ) ) ;
#154 = MECHANICAL_DESIGN_GEOMETRIC_PRESENTATION_REPRESENTATION (  '', ( #25 ), #44 ) ;
#155 = EDGE_CURVE ( 'NONE', #8, #88, #246, .T. ) ;
#156 = ORIENTED_EDGE ( 'NONE', *, *, #252, .F. ) ;
#157 =( LENGTH_UNIT ( ) NAMED_UNIT ( * ) SI_UNIT ( .MILLI., .METRE. ) );
#158 = ADVANCED_FACE ( 'NONE', ( #219 ), #122, .F. ) ;
#159 =( NAMED_UNIT ( * ) SI_UNIT ( $, .STERADIAN. ) SOLID_ANGLE_UNIT ( ) );
#160 = AXIS2_PLACEMENT_3D ( 'NONE', #64, #142, #259 ) ;
#161 = UNCERTAINTY_MEASURE_WITH_UNIT (LENGTH_MEASURE( 1.000000000000000082E-05 ), #169, 'distance_accuracy_value', 'NONE');
#162 = STYLED_ITEM ( 'NONE', ( #266 ), #275 ) ;
#163 = PRESENTATION_STYLE_ASSIGNMENT (( #102 ) ) ;
#164 = PRESENTATION_STYLE_ASSIGNMENT (( #234 ) ) ;
#165 = CARTESIAN_POINT ( 'NONE',  ( 0.000000000000000000, 18.00000000000000000, 0.000000000000000000 ) ) ;
#166 = UNCERTAINTY_MEASURE_WITH_UNIT (LENGTH_MEASURE( 1.000000000000000082E-05 ), #215, 'distance_accuracy_value', 'NONE');
#167 = CIRCLE ( 'NONE', #104, 6.000000000000000000 ) ;
#168 = AXIS2_PLACEMENT_3D ( 'NONE', #203, #69, #127 ) ;
#169 =( LENGTH_UNIT ( ) NAMED_UNIT ( * ) SI_UNIT ( .MILLI., .METRE. ) );
#170 = FILL_AREA_STYLE ('',( #61 ) ) ;
#171 = EDGE_CURVE ( 'NONE', #14, #223, #265, .T. ) ;
#172 = CARTESIAN_POINT ( 'NONE',  ( 6.000000000000000000, 75.00000000000000000, 0.000000000000000000 ) ) ;
#173 = CARTESIAN_POINT ( 'NONE',  ( 0.000000000000000000, 0.000000000000000000, 0.000000000000000000 ) ) ;
#174 = DIRECTION ( 'NONE',  ( -2.578203787678638266E-17, 1.000000000000000000, -0.000000000000000000 ) ) ;
#175 = AXIS2_PLACEMENT_3D ( 'NONE', #12, #113, #79 ) ;
#176 = DIRECTION ( 'NONE',  ( -2.578203787678638266E-17, 1.000000000000000000, -0.000000000000000000 ) ) ;
#177 = FILL_AREA_STYLE_COLOUR ( '', #208 ) ;
#178 = SURFACE_STYLE_FILL_AREA ( #151 ) ;
#179 = ORIENTED_EDGE ( 'NONE', *, *, #48, .T. ) ;
#180 = ORIENTED_EDGE ( 'NONE', *, *, #133, .T. ) ;
#181 = ORIENTED_EDGE ( 'NONE', *, *, #26, .T. ) ;
#182 =( LENGTH_UNIT ( ) NAMED_UNIT ( * ) SI_UNIT ( .MILLI., .METRE. ) );
#183 = PRESENTATION_STYLE_ASSIGNMENT (( #286 ) ) ;
#184 = ORIENTED_EDGE ( 'NONE', *, *, #108, .T. ) ;
#185 = PRODUCT_CONTEXT ( 'NONE', #47, 'mechanical' ) ;
#186 = VECTOR ( 'NONE', #56, 1000.000000000000000 ) ;
#187 = SURFACE_SIDE_STYLE ('',( #24 ) ) ;
#188 = ADVANCED_FACE ( 'NONE', ( #217 ), #193, .T. ) ;
#189 = CARTESIAN_POINT ( 'NONE',  ( -6.000000000000003553, 75.00000000000000000, 0.000000000000000000 ) ) ;
#190 = MANIFOLD_SOLID_BREP ( 'Revolve - Tool Body (Straight Shanked)', #145 ) ;
#191 = AXIS2_PLACEMENT_3D ( 'NONE', #165, #149, #7 ) ;
#192 = SURFACE_STYLE_FILL_AREA ( #106 ) ;
#193 = PLANE ( 'NONE',  #230 ) ;
#194 =( LENGTH_UNIT ( ) NAMED_UNIT ( * ) SI_UNIT ( .MILLI., .METRE. ) );
#195 = CYLINDRICAL_SURFACE ( 'NONE', #168, 6.000000000000000000 ) ;
#196 = SURFACE_STYLE_USAGE ( .BOTH. , #111 ) ;
#197 = DIRECTION ( 'NONE',  ( 0.000000000000000000, 0.000000000000000000, -1.000000000000000000 ) ) ;
#198 = CARTESIAN_POINT ( 'NONE',  ( -6.000000000000000000, 18.00000000000000355, 0.000000000000000000 ) ) ;
#199 = ORIENTED_EDGE ( 'NONE', *, *, #139, .F. ) ;
#200 = CARTESIAN_POINT ( 'NONE',  ( -1.469576158976823750E-15, 75.00000000000000000, 0.000000000000000000 ) ) ;
#201 = CARTESIAN_POINT ( 'NONE',  ( 0.000000000000000000, 18.00000000000000000, -6.000000000000000000 ) ) ;
#202 = CIRCLE ( 'NONE', #191, 6.000000000000000000 ) ;
#203 = CARTESIAN_POINT ( 'NONE',  ( 0.000000000000000000, 0.000000000000000000, 0.000000000000000000 ) ) ;
#204 = ORIENTED_EDGE ( 'NONE', *, *, #155, .T. ) ;
#205 =( NAMED_UNIT ( * ) PLANE_ANGLE_UNIT ( ) SI_UNIT ( $, .RADIAN. ) );
#206 = MECHANICAL_DESIGN_GEOMETRIC_PRESENTATION_REPRESENTATION (  '', ( #209 ), #282 ) ;
#207 = UNCERTAINTY_MEASURE_WITH_UNIT (LENGTH_MEASURE( 1.000000000000000082E-05 ), #1, 'distance_accuracy_value', 'NONE');
#208 = COLOUR_RGB ( '',0.7921568627450980005, 0.8196078431372548767, 0.9333333333333333481 ) ;
#209 = STYLED_ITEM ( 'NONE', ( #164 ), #231 ) ;
#210 = STYLED_ITEM ( 'NONE', ( #183 ), #96 ) ;
#211 = EDGE_CURVE ( 'NONE', #270, #71, #107, .T. ) ;
#212 = SURFACE_SIDE_STYLE ('',( #257 ) ) ;
#213 = PRESENTATION_LAYER_ASSIGNMENT (  '', '', ( #143 ) ) ;
#214 = CARTESIAN_POINT ( 'NONE',  ( 0.000000000000000000, 0.000000000000000000, 0.000000000000000000 ) ) ;
#215 =( LENGTH_UNIT ( ) NAMED_UNIT ( * ) SI_UNIT ( .MILLI., .METRE. ) );
#216 =( LENGTH_UNIT ( ) NAMED_UNIT ( * ) SI_UNIT ( .MILLI., .METRE. ) );
#217 = FACE_OUTER_BOUND ( 'NONE', #147, .T. ) ;
#218 =( NAMED_UNIT ( * ) PLANE_ANGLE_UNIT ( ) SI_UNIT ( $, .RADIAN. ) );
#219 = FACE_OUTER_BOUND ( 'NONE', #243, .T. ) ;
#220 = ORIENTED_EDGE ( 'NONE', *, *, #108, .F. ) ;
#221 = SURFACE_STYLE_FILL_AREA ( #68 ) ;
#222 =( GEOMETRIC_REPRESENTATION_CONTEXT ( 3 ) GLOBAL_UNCERTAINTY_ASSIGNED_CONTEXT ( ( #55 ) ) GLOBAL_UNIT_ASSIGNED_CONTEXT ( ( #182, #95, #98 ) ) REPRESENTATION_CONTEXT ( 'NONE', 'WORKASPACE' ) );
#223 = VERTEX_POINT ( 'NONE', #189 ) ;
#224 =( GEOMETRIC_REPRESENTATION_CONTEXT ( 3 ) GLOBAL_UNCERTAINTY_ASSIGNED_CONTEXT ( ( #207 ) ) GLOBAL_UNIT_ASSIGNED_CONTEXT ( ( #1, #218, #65 ) ) REPRESENTATION_CONTEXT ( 'NONE', 'WORKASPACE' ) );
#225 = ORIENTED_EDGE ( 'NONE', *, *, #268, .F. ) ;
#226 = CARTESIAN_POINT ( 'NONE',  ( 7.347880794884119736E-16, 0.000000000000000000, 6.000000000000000000 ) ) ;
#227 = EDGE_CURVE ( 'NONE', #71, #223, #78, .T. ) ;
#228 =( NAMED_UNIT ( * ) PLANE_ANGLE_UNIT ( ) SI_UNIT ( $, .RADIAN. ) );
#229 = APPLICATION_PROTOCOL_DEFINITION ( 'draft international standard', 'automotive_design', 1998, #136 ) ;
#230 = AXIS2_PLACEMENT_3D ( 'NONE', #37, #91, #9 ) ;
#231 = ADVANCED_FACE ( 'NONE', ( #121 ), #125, .T. ) ;
#232 = ADVANCED_FACE ( 'NONE', ( #238 ), #274, .F. ) ;
#233 = CARTESIAN_POINT ( 'NONE',  ( 0.000000000000000000, 0.000000000000000000, -6.000000000000000000 ) ) ;
#234 = SURFACE_STYLE_USAGE ( .BOTH. , #258 ) ;
#235 = CIRCLE ( 'NONE', #129, 6.000000000000000000 ) ;
#236 = CYLINDRICAL_SURFACE ( 'NONE', #283, 6.000000000000000888 ) ;
#237 = SURFACE_STYLE_USAGE ( .BOTH. , #16 ) ;
#238 = FACE_OUTER_BOUND ( 'NONE', #42, .T. ) ;
#239 = DIRECTION ( 'NONE',  ( -0.000000000000000000, -1.000000000000000000, -0.000000000000000000 ) ) ;
#240 =( NAMED_UNIT ( * ) PLANE_ANGLE_UNIT ( ) SI_UNIT ( $, .RADIAN. ) );
#241 = ORIENTED_EDGE ( 'NONE', *, *, #252, .T. ) ;
#242 = DIRECTION ( 'NONE',  ( -2.578203787678638266E-17, 1.000000000000000000, -0.000000000000000000 ) ) ;
#243 = EDGE_LOOP ( 'NONE', ( #225, #39 ) ) ;
#244 = SURFACE_STYLE_FILL_AREA ( #170 ) ;
#245 = ORIENTED_EDGE ( 'NONE', *, *, #268, .T. ) ;
#246 = CIRCLE ( 'NONE', #254, 6.000000000000000000 ) ;
#247 = FACE_OUTER_BOUND ( 'NONE', #260, .T. ) ;
#248 =( NAMED_UNIT ( * ) SI_UNIT ( $, .STERADIAN. ) SOLID_ANGLE_UNIT ( ) );
#249 = SHAPE_DEFINITION_REPRESENTATION ( #148, #10 ) ;
#250 = ADVANCED_FACE ( 'NONE', ( #35 ), #87, .T. ) ;
#251 = AXIS2_PLACEMENT_3D ( 'NONE', #5, #99, #54 ) ;
#252 = EDGE_CURVE ( 'NONE', #223, #14, #97, .T. ) ;
#253 = DIRECTION ( 'NONE',  ( -0.000000000000000000, -1.000000000000000000, -0.000000000000000000 ) ) ;
#254 = AXIS2_PLACEMENT_3D ( 'NONE', #173, #253, #197 ) ;
#255 = DIRECTION ( 'NONE',  ( 0.000000000000000000, 0.000000000000000000, -1.000000000000000000 ) ) ;
#256 = CARTESIAN_POINT ( 'NONE',  ( 0.000000000000000000, 0.000000000000000000, 0.000000000000000000 ) ) ;
#257 = SURFACE_STYLE_FILL_AREA ( #84 ) ;
#258 = SURFACE_SIDE_STYLE ('',( #192 ) ) ;
#259 = DIRECTION ( 'NONE',  ( -1.000000000000000000, -2.578203787678638266E-17, 0.000000000000000000 ) ) ;
#260 = EDGE_LOOP ( 'NONE', ( #21, #76, #144, #86 ) ) ;
#261 = AXIS2_PLACEMENT_3D ( 'NONE', #172, #279, #67 ) ;
#262 = CARTESIAN_POINT ( 'NONE',  ( 0.000000000000000000, 18.00000000000000355, 0.000000000000000000 ) ) ;
#263 = EDGE_LOOP ( 'NONE', ( #181, #204 ) ) ;
#264 = EDGE_LOOP ( 'NONE', ( #112, #118, #11, #128 ) ) ;
#265 = CIRCLE ( 'NONE', #287, 6.000000000000001776 ) ;
#266 = PRESENTATION_STYLE_ASSIGNMENT (( #94 ) ) ;
#267 =( NAMED_UNIT ( * ) PLANE_ANGLE_UNIT ( ) SI_UNIT ( $, .RADIAN. ) );
#268 = EDGE_CURVE ( 'NONE', #71, #270, #235, .T. ) ;
#269 = PRESENTATION_LAYER_ASSIGNMENT (  '', '', ( #162 ) ) ;
#270 = VERTEX_POINT ( 'NONE', #285 ) ;
#271 = LINE ( 'NONE', #233, #23 ) ;
#272 =( GEOMETRIC_REPRESENTATION_CONTEXT ( 3 ) GLOBAL_UNCERTAINTY_ASSIGNED_CONTEXT ( ( #57 ) ) GLOBAL_UNIT_ASSIGNED_CONTEXT ( ( #194, #228, #159 ) ) REPRESENTATION_CONTEXT ( 'NONE', 'WORKASPACE' ) );
#273 = CARTESIAN_POINT ( 'NONE',  ( -1.469576158976823750E-15, 75.00000000000000000, 0.000000000000000000 ) ) ;
#274 = PLANE ( 'NONE',  #261 ) ;
#275 = MANIFOLD_SOLID_BREP ( 'Revolve - Cutting Edge', #134 ) ;
#276 = VECTOR ( 'NONE', #242, 1000.000000000000000 ) ;
#277 = PRESENTATION_STYLE_ASSIGNMENT (( #237 ) ) ;
#278 = FILL_AREA_STYLE_COLOUR ( '', #38 ) ;
#279 = DIRECTION ( 'NONE',  ( 2.578203787678638266E-17, -1.000000000000000000, 0.000000000000000000 ) ) ;
#280 = DIRECTION ( 'NONE',  ( -2.578203787678638266E-17, 1.000000000000000000, -0.000000000000000000 ) ) ;
#281 =( NAMED_UNIT ( * ) SI_UNIT ( $, .STERADIAN. ) SOLID_ANGLE_UNIT ( ) );
#282 =( GEOMETRIC_REPRESENTATION_CONTEXT ( 3 ) GLOBAL_UNCERTAINTY_ASSIGNED_CONTEXT ( ( #161 ) ) GLOBAL_UNIT_ASSIGNED_CONTEXT ( ( #169, #240, #31 ) ) REPRESENTATION_CONTEXT ( 'NONE', 'WORKASPACE' ) );
#283 = AXIS2_PLACEMENT_3D ( 'NONE', #273, #135, #77 ) ;
#284 = CARTESIAN_POINT ( 'NONE',  ( 0.000000000000000000, 0.000000000000000000, 0.000000000000000000 ) ) ;
#285 = CARTESIAN_POINT ( 'NONE',  ( 6.000000000000000000, 18.00000000000000355, 7.347880794884120722E-16 ) ) ;
#286 = SURFACE_STYLE_USAGE ( .BOTH. , #45 ) ;
#287 = AXIS2_PLACEMENT_3D ( 'NONE', #138, #174, #109 ) ;
#288 =( GEOMETRIC_REPRESENTATION_CONTEXT ( 3 ) GLOBAL_UNCERTAINTY_ASSIGNED_CONTEXT ( ( #131 ) ) GLOBAL_UNIT_ASSIGNED_CONTEXT ( ( #157, #205, #248 ) ) REPRESENTATION_CONTEXT ( 'NONE', 'WORKASPACE' ) );
ENDSEC;
END-ISO-10303-21;
