ISO-10303-21;
HEADER;
FILE_DESCRIPTION (( 'STEP AP214' ),
    '1' );
FILE_NAME ('Micro_GEMM-180-2.STEP',
    '2021-09-01T22:12:14',
    ( '' ),
    ( '' ),
    'SwSTEP 2.0',
    'SolidWorks 2020',
    '' );
FILE_SCHEMA (( 'AUTOMOTIVE_DESIGN' ));
ENDSEC;

DATA;
#1 = SURFACE_STYLE_USAGE ( .BOTH. , #251 ) ;
#2 = ORIENTED_EDGE ( 'NONE', *, *, #44, .F. ) ;
#3 = VECTOR ( 'NONE', #296, 39.37007874015748143 ) ;
#4 = ORIENTED_EDGE ( 'NONE', *, *, #209, .F. ) ;
#5 = EDGE_LOOP ( 'NONE', ( #211, #184 ) ) ;
#6 = EDGE_CURVE ( 'NONE', #229, #52, #224, .T. ) ;
#7 = VERTEX_POINT ( 'NONE', #265 ) ;
#8 = DIRECTION ( 'NONE',  ( -1.224646799147353207E-16, -0.0000000000000000000, -1.000000000000000000 ) ) ;
#9 = DIRECTION ( 'NONE',  ( -1.224646799147353207E-16, -0.0000000000000000000, -1.000000000000000000 ) ) ;
#10 = PRESENTATION_STYLE_ASSIGNMENT (( #149 ) ) ;
#11 = PRESENTATION_LAYER_ASSIGNMENT (  '', '', ( #227 ) ) ;
#12 = CARTESIAN_POINT ( 'NONE',  ( 5.308792230367967873E-33, 0.0000000000000000000, 4.334957829526159343E-17 ) ) ;
#13 = CARTESIAN_POINT ( 'NONE',  ( 1.256036343527242652E-16, 0.0000000000000000000, 1.025631508122786029 ) ) ;
#14 = DIRECTION ( 'NONE',  ( 1.000000000000000000, 0.0000000000000000000, 0.0000000000000000000 ) ) ;
#15 = AXIS2_PLACEMENT_3D ( 'NONE', #142, #169, #96 ) ;
#16 = LINE ( 'NONE', #38, #232 ) ;
#17 = CARTESIAN_POINT ( 'NONE',  ( -0.3393305000000003124, 0.0000000000000000000, 3.622047000000000239 ) ) ;
#18 = EDGE_CURVE ( 'NONE', #144, #7, #264, .T. ) ;
#19 = FACE_OUTER_BOUND ( 'NONE', #192, .T. ) ;
#20 = AXIS2_PLACEMENT_3D ( 'NONE', #107, #198, #268 ) ;
#21 = ORIENTED_EDGE ( 'NONE', *, *, #94, .T. ) ;
#22 = ADVANCED_FACE ( 'NONE', ( #220 ), #123, .T. ) ;
#23 = ORIENTED_EDGE ( 'NONE', *, *, #84, .F. ) ;
#24 = FACE_OUTER_BOUND ( 'NONE', #29, .T. ) ;
#25 = AXIS2_PLACEMENT_3D ( 'NONE', #13, #293, #14 ) ;
#26 =( NAMED_UNIT ( * ) SI_UNIT ( $, .STERADIAN. ) SOLID_ANGLE_UNIT ( ) );
#27 = SURFACE_SIDE_STYLE ('',( #221 ) ) ;
#28 = PRODUCT_DEFINITION_FORMATION_WITH_SPECIFIED_SOURCE ( 'ANY', '', #241, .NOT_KNOWN. ) ;
#29 = EDGE_LOOP ( 'NONE', ( #30, #234, #283, #23 ) ) ;
#30 = ORIENTED_EDGE ( 'NONE', *, *, #90, .T. ) ;
#31 = DIRECTION ( 'NONE',  ( -0.1736481776669312194, 2.126576849575783625E-17, 0.9848077530122080203 ) ) ;
#32 = AXIS2_PLACEMENT_3D ( 'NONE', #245, #200, #61 ) ;
#33 = DIRECTION ( 'NONE',  ( 1.000000000000000000, 0.0000000000000000000, 0.0000000000000000000 ) ) ;
#34 = MANIFOLD_SOLID_BREP ( 'Cut-Revolve1', #100 ) ;
#35 = DIRECTION ( 'NONE',  ( -1.000000000000000000, 0.0000000000000000000, 0.0000000000000000000 ) ) ;
#36 = PLANE ( 'NONE',  #43 ) ;
#37 = CIRCLE ( 'NONE', #276, 0.3539761694999999930 ) ;
#38 = CARTESIAN_POINT ( 'NONE',  ( -0.3543304999999999927, 0.0000000000000000000, 3.622047000000000239 ) ) ;
#39 = CYLINDRICAL_SURFACE ( 'NONE', #60, 0.3539761694999999930 ) ;
#40 = CARTESIAN_POINT ( 'NONE',  ( 0.3393305000000003124, 4.155600106780712238E-17, 3.622047000000000239 ) ) ;
#41 = LENGTH_MEASURE_WITH_UNIT ( LENGTH_MEASURE( 0.02539999999999999897 ), #204 );
#42 = VECTOR ( 'NONE', #98, 39.37007874015748143 ) ;
#43 = AXIS2_PLACEMENT_3D ( 'NONE', #59, #271, #76 ) ;
#44 = EDGE_CURVE ( 'NONE', #166, #235, #260, .T. ) ;
#45 = ADVANCED_BREP_SHAPE_REPRESENTATION ( 'Micro_GEMM-180-2', ( #34, #15 ), #137 ) ;
#46 = CARTESIAN_POINT ( 'NONE',  ( 0.3543305000000001592, 4.339297126652814813E-17, 1.025631508122786029 ) ) ;
#47 = CARTESIAN_POINT ( 'NONE',  ( -0.3393305000000003124, 0.0000000000000000000, 3.622047000000000239 ) ) ;
#48 = ORIENTED_EDGE ( 'NONE', *, *, #44, .T. ) ;
#49 = PRODUCT_RELATED_PRODUCT_CATEGORY ( 'part', '', ( #241 ) ) ;
#50 = DIRECTION ( 'NONE',  ( 0.0000000000000000000, 0.0000000000000000000, 1.000000000000000000 ) ) ;
#51 = DIMENSIONAL_EXPONENTS ( 1.000000000000000000, 0.0000000000000000000, 0.0000000000000000000, 0.0000000000000000000, 0.0000000000000000000, 0.0000000000000000000, 0.0000000000000000000 ) ;
#52 = VERTEX_POINT ( 'NONE', #72 ) ;
#53 = DIRECTION ( 'NONE',  ( 1.000000000000000000, 0.0000000000000000000, 0.0000000000000000000 ) ) ;
#54 = CARTESIAN_POINT ( 'NONE',  ( 0.0000000000000000000, 0.0000000000000000000, 3.622047000000000239 ) ) ;
#55 = COLOUR_RGB ( '',0.7921568627450980005, 0.8196078431372548767, 0.9333333333333333481 ) ;
#56 = CIRCLE ( 'NONE', #32, 0.3393305000000003124 ) ;
#57 = ORIENTED_EDGE ( 'NONE', *, *, #90, .F. ) ;
#58 = CARTESIAN_POINT ( 'NONE',  ( 0.0000000000000000000, 0.0000000000000000000, 3.622047000000000239 ) ) ;
#59 = CARTESIAN_POINT ( 'NONE',  ( 0.0000000000000000000, 0.0000000000000000000, 0.0000000000000000000 ) ) ;
#60 = AXIS2_PLACEMENT_3D ( 'NONE', #183, #138, #236 ) ;
#61 = DIRECTION ( 'NONE',  ( 1.000000000000000000, 0.0000000000000000000, 0.0000000000000000000 ) ) ;
#62 = DIRECTION ( 'NONE',  ( -1.224646799147353207E-16, -0.0000000000000000000, -1.000000000000000000 ) ) ;
#63 = FACE_OUTER_BOUND ( 'NONE', #150, .T. ) ;
#64 = DIRECTION ( 'NONE',  ( -0.0000000000000000000, -0.0000000000000000000, -1.000000000000000000 ) ) ;
#65 = ORIENTED_EDGE ( 'NONE', *, *, #272, .F. ) ;
#66 = ORIENTED_EDGE ( 'NONE', *, *, #69, .T. ) ;
#67 = CONICAL_SURFACE ( 'NONE', #20, 0.3393305000000003124, 0.7853981633974300713 ) ;
#68 = ORIENTED_EDGE ( 'NONE', *, *, #163, .T. ) ;
#69 = EDGE_CURVE ( 'NONE', #144, #235, #171, .T. ) ;
#70 = PRODUCT_CONTEXT ( 'NONE', #74, 'mechanical' ) ;
#71 = CARTESIAN_POINT ( 'NONE',  ( -0.3539761694999999930, 0.0000000000000000000, 4.334957829526159343E-17 ) ) ;
#72 = CARTESIAN_POINT ( 'NONE',  ( 0.3393305000000003124, 4.247448616716761677E-17, 3.622047000000000239 ) ) ;
#73 = CIRCLE ( 'NONE', #266, 0.3539761694999999930 ) ;
#74 = APPLICATION_CONTEXT ( 'automotive_design' ) ;
#75 = CARTESIAN_POINT ( 'NONE',  ( 0.0000000000000000000, 0.0000000000000000000, 3.607046999999999670 ) ) ;
#76 = DIRECTION ( 'NONE',  ( 1.000000000000000000, 0.0000000000000000000, -0.0000000000000000000 ) ) ;
#77 = DIRECTION ( 'NONE',  ( 1.000000000000000000, 0.0000000000000000000, 0.0000000000000000000 ) ) ;
#78 = COLOUR_RGB ( '',0.7921568627450980005, 0.8196078431372548767, 0.9333333333333333481 ) ;
#79 = CARTESIAN_POINT ( 'NONE',  ( 1.253575405836812198E-16, 0.0000000000000000000, 1.023622000000000032 ) ) ;
#80 = DIRECTION ( 'NONE',  ( 0.0000000000000000000, 0.0000000000000000000, -1.000000000000000000 ) ) ;
#81 =( NAMED_UNIT ( * ) PLANE_ANGLE_UNIT ( ) SI_UNIT ( $, .RADIAN. ) );
#82 = EDGE_CURVE ( 'NONE', #85, #7, #168, .T. ) ;
#83 = EDGE_LOOP ( 'NONE', ( #65, #68, #87, #186 ) ) ;
#84 = EDGE_CURVE ( 'NONE', #231, #85, #286, .T. ) ;
#85 = VERTEX_POINT ( 'NONE', #194 ) ;
#86 = DIRECTION ( 'NONE',  ( 1.000000000000000000, 0.0000000000000000000, 0.0000000000000000000 ) ) ;
#87 = ORIENTED_EDGE ( 'NONE', *, *, #209, .T. ) ;
#88 = ADVANCED_FACE ( 'NONE', ( #287 ), #89, .T. ) ;
#89 = CONICAL_SURFACE ( 'NONE', #250, 0.3393305000000003124, 0.7853981633974300713 ) ;
#90 = EDGE_CURVE ( 'NONE', #231, #144, #161, .T. ) ;
#91 = PRODUCT_DEFINITION_SHAPE ( 'NONE', 'NONE',  #124 ) ;
#92 = APPLICATION_CONTEXT ( 'automotive_design' ) ;
#93 = ORIENTED_EDGE ( 'NONE', *, *, #158, .F. ) ;
#94 = EDGE_CURVE ( 'NONE', #215, #189, #261, .T. ) ;
#95 = VECTOR ( 'NONE', #64, 39.37007874015748143 ) ;
#96 = DIRECTION ( 'NONE',  ( 1.000000000000000000, 0.0000000000000000000, 0.0000000000000000000 ) ) ;
#97 = DIRECTION ( 'NONE',  ( -1.000000000000000000, 0.0000000000000000000, 1.224646799147353207E-16 ) ) ;
#98 = DIRECTION ( 'NONE',  ( 0.1736481776669314137, 0.0000000000000000000, 0.9848077530122077983 ) ) ;
#99 = DIRECTION ( 'NONE',  ( -0.0000000000000000000, -0.0000000000000000000, -1.000000000000000000 ) ) ;
#100 = CLOSED_SHELL ( 'NONE', ( #243, #120, #88, #118, #218, #22, #106, #294, #197, #114 ) ) ;
#101 = CARTESIAN_POINT ( 'NONE',  ( 0.0000000000000000000, 0.0000000000000000000, 0.0000000000000000000 ) ) ;
#102 = EDGE_CURVE ( 'NONE', #231, #166, #181, .T. ) ;
#103 = DIRECTION ( 'NONE',  ( -1.224646799147353207E-16, -0.0000000000000000000, -1.000000000000000000 ) ) ;
#104 =( GEOMETRIC_REPRESENTATION_CONTEXT ( 3 ) GLOBAL_UNCERTAINTY_ASSIGNED_CONTEXT ( ( #164 ) ) GLOBAL_UNIT_ASSIGNED_CONTEXT ( ( #253, #233, #165 ) ) REPRESENTATION_CONTEXT ( 'NONE', 'WORKASPACE' ) );
#105 = CARTESIAN_POINT ( 'NONE',  ( -0.3543304999999999927, 0.0000000000000000000, 3.607046999999999670 ) ) ;
#106 = ADVANCED_FACE ( 'NONE', ( #129 ), #67, .T. ) ;
#107 = CARTESIAN_POINT ( 'NONE',  ( 0.0000000000000000000, 0.0000000000000000000, 3.622047000000000239 ) ) ;
#108 = ORIENTED_EDGE ( 'NONE', *, *, #18, .F. ) ;
#109 =( LENGTH_UNIT ( ) NAMED_UNIT ( * ) SI_UNIT ( $, .METRE. ) );
#110 = DIRECTION ( 'NONE',  ( 1.224646799147353207E-16, 0.0000000000000000000, 1.000000000000000000 ) ) ;
#111 = ORIENTED_EDGE ( 'NONE', *, *, #94, .F. ) ;
#112 = DIMENSIONAL_EXPONENTS ( 1.000000000000000000, 0.0000000000000000000, 0.0000000000000000000, 0.0000000000000000000, 0.0000000000000000000, 0.0000000000000000000, 0.0000000000000000000 ) ;
#113 =( CONVERSION_BASED_UNIT ( 'INCH', #208 ) LENGTH_UNIT ( ) NAMED_UNIT ( #112 ) );
#114 = ADVANCED_FACE ( 'NONE', ( #248 ), #36, .F. ) ;
#115 = ORIENTED_EDGE ( 'NONE', *, *, #102, .T. ) ;
#116 = PRODUCT_DEFINITION_CONTEXT ( 'detailed design', #92, 'design' ) ;
#117 = CARTESIAN_POINT ( 'NONE',  ( 0.3543304999999999927, 4.339297126652812347E-17, 3.622047000000000239 ) ) ;
#118 = ADVANCED_FACE ( 'NONE', ( #63 ), #246, .T. ) ;
#119 =( CONVERSION_BASED_UNIT ( 'INCH', #289 ) LENGTH_UNIT ( ) NAMED_UNIT ( #139 ) );
#120 = ADVANCED_FACE ( 'NONE', ( #290 ), #298, .T. ) ;
#121 = FILL_AREA_STYLE_COLOUR ( '', #55 ) ;
#122 = CIRCLE ( 'NONE', #25, 0.3543304999999999927 ) ;
#123 = PLANE ( 'NONE',  #275 ) ;
#124 = PRODUCT_DEFINITION ( 'UNKNOWN', '', #28, #116 ) ;
#125 = CARTESIAN_POINT ( 'NONE',  ( -0.3539761694999998265, 4.334957829526159343E-17, 1.023622000000000032 ) ) ;
#126 = AXIS2_PLACEMENT_3D ( 'NONE', #127, #201, #180 ) ;
#127 = CARTESIAN_POINT ( 'NONE',  ( 1.253575405836812198E-16, 0.0000000000000000000, 1.023622000000000032 ) ) ;
#128 = DIRECTION ( 'NONE',  ( -1.000000000000000000, 0.0000000000000000000, 1.224646799147353207E-16 ) ) ;
#129 = FACE_OUTER_BOUND ( 'NONE', #210, .T. ) ;
#130 = VECTOR ( 'NONE', #267, 39.37007874015748143 ) ;
#131 = AXIS2_PLACEMENT_3D ( 'NONE', #202, #269, #135 ) ;
#132 = FACE_OUTER_BOUND ( 'NONE', #83, .T. ) ;
#133 =( NAMED_UNIT ( * ) SI_UNIT ( $, .STERADIAN. ) SOLID_ANGLE_UNIT ( ) );
#134 = ORIENTED_EDGE ( 'NONE', *, *, #199, .F. ) ;
#135 = DIRECTION ( 'NONE',  ( -1.000000000000000000, 0.0000000000000000000, 0.0000000000000000000 ) ) ;
#136 = ORIENTED_EDGE ( 'NONE', *, *, #263, .F. ) ;
#137 =( GEOMETRIC_REPRESENTATION_CONTEXT ( 3 ) GLOBAL_UNCERTAINTY_ASSIGNED_CONTEXT ( ( #141 ) ) GLOBAL_UNIT_ASSIGNED_CONTEXT ( ( #113, #81, #133 ) ) REPRESENTATION_CONTEXT ( 'NONE', 'WORKASPACE' ) );
#138 = DIRECTION ( 'NONE',  ( -1.224646799147353207E-16, -0.0000000000000000000, -1.000000000000000000 ) ) ;
#139 = DIMENSIONAL_EXPONENTS ( 1.000000000000000000, 0.0000000000000000000, 0.0000000000000000000, 0.0000000000000000000, 0.0000000000000000000, 0.0000000000000000000, 0.0000000000000000000 ) ;
#140 = CARTESIAN_POINT ( 'NONE',  ( -0.3539761694999998265, 4.337127478089486461E-17, 1.023622000000000032 ) ) ;
#141 = UNCERTAINTY_MEASURE_WITH_UNIT (LENGTH_MEASURE( 1.000000000000000082E-05 ), #113, 'distance_accuracy_value', 'NONE');
#142 = CARTESIAN_POINT ( 'NONE',  ( 0.0000000000000000000, 0.0000000000000000000, 0.0000000000000000000 ) ) ;
#143 = EDGE_LOOP ( 'NONE', ( #108, #237, #172, #93 ) ) ;
#144 = VERTEX_POINT ( 'NONE', #155 ) ;
#145 = EDGE_CURVE ( 'NONE', #229, #215, #223, .T. ) ;
#146 = CARTESIAN_POINT ( 'NONE',  ( 1.256036343527242652E-16, 0.0000000000000000000, 1.025631508122786029 ) ) ;
#147 = AXIS2_PLACEMENT_3D ( 'NONE', #244, #50, #53 ) ;
#148 = AXIS2_PLACEMENT_3D ( 'NONE', #101, #62, #128 ) ;
#149 = SURFACE_STYLE_USAGE ( .BOTH. , #27 ) ;
#150 = EDGE_LOOP ( 'NONE', ( #21, #188, #2, #4 ) ) ;
#151 = FACE_OUTER_BOUND ( 'NONE', #143, .T. ) ;
#152 = CARTESIAN_POINT ( 'NONE',  ( 0.0000000000000000000, 0.0000000000000000000, 3.622047000000000239 ) ) ;
#153 = MECHANICAL_DESIGN_GEOMETRIC_PRESENTATION_REPRESENTATION (  '', ( #227 ), #179 ) ;
#154 = DIRECTION ( 'NONE',  ( -1.224646799147353207E-16, -0.0000000000000000000, -1.000000000000000000 ) ) ;
#155 = CARTESIAN_POINT ( 'NONE',  ( 0.3539761695000001041, 0.0000000000000000000, 1.023622000000000032 ) ) ;
#156 = CARTESIAN_POINT ( 'NONE',  ( 1.253575405836812198E-16, 0.0000000000000000000, 1.023622000000000032 ) ) ;
#157 = CONICAL_SURFACE ( 'NONE', #206, 0.3539761694999999930, 0.1745329251994339192 ) ;
#158 = EDGE_CURVE ( 'NONE', #7, #85, #37, .T. ) ;
#159 = EDGE_LOOP ( 'NONE', ( #57, #115, #48, #262 ) ) ;
#160 = SURFACE_STYLE_FILL_AREA ( #182 ) ;
#161 = CIRCLE ( 'NONE', #126, 0.3539761694999999930 ) ;
#162 = ORIENTED_EDGE ( 'NONE', *, *, #178, .T. ) ;
#163 = EDGE_CURVE ( 'NONE', #189, #215, #195, .T. ) ;
#164 = UNCERTAINTY_MEASURE_WITH_UNIT (LENGTH_MEASURE( 1.000000000000000082E-05 ), #253, 'distance_accuracy_value', 'NONE');
#165 =( NAMED_UNIT ( * ) SI_UNIT ( $, .STERADIAN. ) SOLID_ANGLE_UNIT ( ) );
#166 = VERTEX_POINT ( 'NONE', #273 ) ;
#167 =( NAMED_UNIT ( * ) PLANE_ANGLE_UNIT ( ) SI_UNIT ( $, .RADIAN. ) );
#168 = CIRCLE ( 'NONE', #217, 0.3539761694999999930 ) ;
#169 = DIRECTION ( 'NONE',  ( 0.0000000000000000000, 0.0000000000000000000, 1.000000000000000000 ) ) ;
#170 = AXIS2_PLACEMENT_3D ( 'NONE', #75, #249, #77 ) ;
#171 = LINE ( 'NONE', #216, #42 ) ;
#172 = ORIENTED_EDGE ( 'NONE', *, *, #84, .T. ) ;
#173 = DIRECTION ( 'NONE',  ( -1.224646799147353207E-16, -0.0000000000000000000, -1.000000000000000000 ) ) ;
#174 = EDGE_LOOP ( 'NONE', ( #134, #213, #111, #299 ) ) ;
#175 = DIRECTION ( 'NONE',  ( 0.0000000000000000000, 0.0000000000000000000, -1.000000000000000000 ) ) ;
#176 = DIRECTION ( 'NONE',  ( -0.0000000000000000000, -0.0000000000000000000, -1.000000000000000000 ) ) ;
#177 = CARTESIAN_POINT ( 'NONE',  ( 0.3543304999999999927, 4.339297126652812347E-17, 3.607046999999999670 ) ) ;
#178 = EDGE_CURVE ( 'NONE', #235, #166, #122, .T. ) ;
#179 =( GEOMETRIC_REPRESENTATION_CONTEXT ( 3 ) GLOBAL_UNCERTAINTY_ASSIGNED_CONTEXT ( ( #207 ) ) GLOBAL_UNIT_ASSIGNED_CONTEXT ( ( #119, #167, #26 ) ) REPRESENTATION_CONTEXT ( 'NONE', 'WORKASPACE' ) );
#180 = DIRECTION ( 'NONE',  ( -1.000000000000000000, 0.0000000000000000000, 0.0000000000000000000 ) ) ;
#181 = LINE ( 'NONE', #125, #282 ) ;
#182 = FILL_AREA_STYLE ('',( #254 ) ) ;
#183 = CARTESIAN_POINT ( 'NONE',  ( 0.0000000000000000000, 0.0000000000000000000, 0.0000000000000000000 ) ) ;
#184 = ORIENTED_EDGE ( 'NONE', *, *, #158, .T. ) ;
#185 = LINE ( 'NONE', #117, #95 ) ;
#186 = ORIENTED_EDGE ( 'NONE', *, *, #178, .F. ) ;
#187 = PRESENTATION_STYLE_ASSIGNMENT (( #1 ) ) ;
#188 = ORIENTED_EDGE ( 'NONE', *, *, #272, .T. ) ;
#189 = VERTEX_POINT ( 'NONE', #177 ) ;
#190 = FILL_AREA_STYLE ('',( #121 ) ) ;
#191 = APPLICATION_PROTOCOL_DEFINITION ( 'draft international standard', 'automotive_design', 1998, #92 ) ;
#192 = EDGE_LOOP ( 'NONE', ( #252, #284, #66, #162 ) ) ;
#193 = CARTESIAN_POINT ( 'NONE',  ( 0.3539761694999999930, 4.334957829526159343E-17, -4.334957829526159343E-17 ) ) ;
#194 = CARTESIAN_POINT ( 'NONE',  ( -0.3539761694999999930, 0.0000000000000000000, 8.669915659052318686E-17 ) ) ;
#195 = CIRCLE ( 'NONE', #170, 0.3543304999999999927 ) ;
#196 =( LENGTH_UNIT ( ) NAMED_UNIT ( * ) SI_UNIT ( $, .METRE. ) );
#197 = ADVANCED_FACE ( 'NONE', ( #151 ), #222, .T. ) ;
#198 = DIRECTION ( 'NONE',  ( 0.0000000000000000000, 0.0000000000000000000, -1.000000000000000000 ) ) ;
#199 = EDGE_CURVE ( 'NONE', #52, #229, #56, .T. ) ;
#200 = DIRECTION ( 'NONE',  ( 0.0000000000000000000, 0.0000000000000000000, 1.000000000000000000 ) ) ;
#201 = DIRECTION ( 'NONE',  ( -1.224646799147353207E-16, -0.0000000000000000000, -1.000000000000000000 ) ) ;
#202 = CARTESIAN_POINT ( 'NONE',  ( 0.0000000000000000000, 0.0000000000000000000, 3.622047000000000239 ) ) ;
#203 = DIRECTION ( 'NONE',  ( -0.7071067811865346942, 0.0000000000000000000, -0.7071067811865603403 ) ) ;
#204 =( LENGTH_UNIT ( ) NAMED_UNIT ( * ) SI_UNIT ( $, .METRE. ) );
#205 = ORIENTED_EDGE ( 'NONE', *, *, #199, .T. ) ;
#206 = AXIS2_PLACEMENT_3D ( 'NONE', #230, #110, #86 ) ;
#207 = UNCERTAINTY_MEASURE_WITH_UNIT (LENGTH_MEASURE( 1.000000000000000082E-05 ), #119, 'distance_accuracy_value', 'NONE');
#208 = LENGTH_MEASURE_WITH_UNIT ( LENGTH_MEASURE( 0.02539999999999999897 ), #109 );
#209 = EDGE_CURVE ( 'NONE', #215, #166, #16, .T. ) ;
#210 = EDGE_LOOP ( 'NONE', ( #136, #258, #259, #281 ) ) ;
#211 = ORIENTED_EDGE ( 'NONE', *, *, #82, .T. ) ;
#212 = AXIS2_PLACEMENT_3D ( 'NONE', #156, #291, #33 ) ;
#213 = ORIENTED_EDGE ( 'NONE', *, *, #263, .T. ) ;
#214 = EDGE_CURVE ( 'NONE', #144, #231, #73, .T. ) ;
#215 = VERTEX_POINT ( 'NONE', #105 ) ;
#216 = CARTESIAN_POINT ( 'NONE',  ( 0.3539761695000001041, 0.0000000000000000000, 1.023622000000000032 ) ) ;
#217 = AXIS2_PLACEMENT_3D ( 'NONE', #219, #8, #97 ) ;
#218 = ADVANCED_FACE ( 'NONE', ( #132 ), #228, .T. ) ;
#219 = CARTESIAN_POINT ( 'NONE',  ( 5.308792230367967873E-33, 0.0000000000000000000, 4.334957829526159343E-17 ) ) ;
#220 = FACE_OUTER_BOUND ( 'NONE', #278, .T. ) ;
#221 = SURFACE_STYLE_FILL_AREA ( #190 ) ;
#222 = CYLINDRICAL_SURFACE ( 'NONE', #148, 0.3539761694999999930 ) ;
#223 = LINE ( 'NONE', #17, #238 ) ;
#224 = CIRCLE ( 'NONE', #147, 0.3393305000000003124 ) ;
#225 = DIRECTION ( 'NONE',  ( -1.000000000000000000, 0.0000000000000000000, 0.0000000000000000000 ) ) ;
#226 = DIRECTION ( 'NONE',  ( -1.000000000000000000, 0.0000000000000000000, 1.224646799147353207E-16 ) ) ;
#227 = STYLED_ITEM ( 'NONE', ( #10 ), #34 ) ;
#228 = CYLINDRICAL_SURFACE ( 'NONE', #131, 0.3543304999999999927 ) ;
#229 = VERTEX_POINT ( 'NONE', #47 ) ;
#230 = CARTESIAN_POINT ( 'NONE',  ( 1.253575405836812198E-16, 0.0000000000000000000, 1.023622000000000032 ) ) ;
#231 = VERTEX_POINT ( 'NONE', #140 ) ;
#232 = VECTOR ( 'NONE', #99, 39.37007874015748143 ) ;
#233 =( NAMED_UNIT ( * ) PLANE_ANGLE_UNIT ( ) SI_UNIT ( $, .RADIAN. ) );
#234 = ORIENTED_EDGE ( 'NONE', *, *, #18, .T. ) ;
#235 = VERTEX_POINT ( 'NONE', #46 ) ;
#236 = DIRECTION ( 'NONE',  ( -1.000000000000000000, 0.0000000000000000000, 1.224646799147353207E-16 ) ) ;
#237 = ORIENTED_EDGE ( 'NONE', *, *, #214, .T. ) ;
#238 = VECTOR ( 'NONE', #203, 39.37007874015748143 ) ;
#239 = DIRECTION ( 'NONE',  ( 1.000000000000000000, 0.0000000000000000000, -0.0000000000000000000 ) ) ;
#240 = SHAPE_DEFINITION_REPRESENTATION ( #91, #45 ) ;
#241 = PRODUCT ( 'Micro_GEMM-180-2', 'Micro_GEMM-180-2', '', ( #70 ) ) ;
#242 = DIRECTION ( 'NONE',  ( 1.000000000000000000, 0.0000000000000000000, 0.0000000000000000000 ) ) ;
#243 = ADVANCED_FACE ( 'NONE', ( #24 ), #39, .T. ) ;
#244 = CARTESIAN_POINT ( 'NONE',  ( 0.0000000000000000000, 0.0000000000000000000, 3.622047000000000239 ) ) ;
#245 = CARTESIAN_POINT ( 'NONE',  ( 0.0000000000000000000, 0.0000000000000000000, 3.622047000000000239 ) ) ;
#246 = CYLINDRICAL_SURFACE ( 'NONE', #270, 0.3543304999999999927 ) ;
#247 = DIRECTION ( 'NONE',  ( -1.000000000000000000, 0.0000000000000000000, 0.0000000000000000000 ) ) ;
#248 = FACE_OUTER_BOUND ( 'NONE', #5, .T. ) ;
#249 = DIRECTION ( 'NONE',  ( 0.0000000000000000000, 0.0000000000000000000, -1.000000000000000000 ) ) ;
#250 = AXIS2_PLACEMENT_3D ( 'NONE', #152, #175, #247 ) ;
#251 = SURFACE_SIDE_STYLE ('',( #160 ) ) ;
#252 = ORIENTED_EDGE ( 'NONE', *, *, #102, .F. ) ;
#253 =( CONVERSION_BASED_UNIT ( 'INCH', #41 ) LENGTH_UNIT ( ) NAMED_UNIT ( #51 ) );
#254 = FILL_AREA_STYLE_COLOUR ( '', #78 ) ;
#255 = VECTOR ( 'NONE', #173, 39.37007874015748143 ) ;
#256 = STYLED_ITEM ( 'NONE', ( #187 ), #45 ) ;
#257 = AXIS2_PLACEMENT_3D ( 'NONE', #295, #80, #274 ) ;
#258 = ORIENTED_EDGE ( 'NONE', *, *, #6, .F. ) ;
#259 = ORIENTED_EDGE ( 'NONE', *, *, #145, .T. ) ;
#260 = CIRCLE ( 'NONE', #297, 0.3543304999999999927 ) ;
#261 = CIRCLE ( 'NONE', #257, 0.3543304999999999927 ) ;
#262 = ORIENTED_EDGE ( 'NONE', *, *, #69, .F. ) ;
#263 = EDGE_CURVE ( 'NONE', #52, #189, #277, .T. ) ;
#264 = LINE ( 'NONE', #193, #130 ) ;
#265 = CARTESIAN_POINT ( 'NONE',  ( 0.3539761694999999930, 4.334957829526159343E-17, 0.0000000000000000000 ) ) ;
#266 = AXIS2_PLACEMENT_3D ( 'NONE', #79, #103, #225 ) ;
#267 = DIRECTION ( 'NONE',  ( -1.224646799147353207E-16, -0.0000000000000000000, -1.000000000000000000 ) ) ;
#268 = DIRECTION ( 'NONE',  ( -1.000000000000000000, 0.0000000000000000000, 0.0000000000000000000 ) ) ;
#269 = DIRECTION ( 'NONE',  ( -0.0000000000000000000, -0.0000000000000000000, -1.000000000000000000 ) ) ;
#270 = AXIS2_PLACEMENT_3D ( 'NONE', #58, #176, #35 ) ;
#271 = DIRECTION ( 'NONE',  ( 0.0000000000000000000, 0.0000000000000000000, 1.000000000000000000 ) ) ;
#272 = EDGE_CURVE ( 'NONE', #189, #235, #185, .T. ) ;
#273 = CARTESIAN_POINT ( 'NONE',  ( -0.3543304999999998817, 0.0000000000000000000, 1.025631508122786029 ) ) ;
#274 = DIRECTION ( 'NONE',  ( 1.000000000000000000, 0.0000000000000000000, 0.0000000000000000000 ) ) ;
#275 = AXIS2_PLACEMENT_3D ( 'NONE', #54, #285, #239 ) ;
#276 = AXIS2_PLACEMENT_3D ( 'NONE', #12, #154, #226 ) ;
#277 = LINE ( 'NONE', #40, #3 ) ;
#278 = EDGE_LOOP ( 'NONE', ( #280, #205 ) ) ;
#279 = APPLICATION_PROTOCOL_DEFINITION ( 'draft international standard', 'automotive_design', 1998, #74 ) ;
#280 = ORIENTED_EDGE ( 'NONE', *, *, #6, .T. ) ;
#281 = ORIENTED_EDGE ( 'NONE', *, *, #163, .F. ) ;
#282 = VECTOR ( 'NONE', #31, 39.37007874015747433 ) ;
#283 = ORIENTED_EDGE ( 'NONE', *, *, #82, .F. ) ;
#284 = ORIENTED_EDGE ( 'NONE', *, *, #214, .F. ) ;
#285 = DIRECTION ( 'NONE',  ( 0.0000000000000000000, 0.0000000000000000000, 1.000000000000000000 ) ) ;
#286 = LINE ( 'NONE', #71, #255 ) ;
#287 = FACE_OUTER_BOUND ( 'NONE', #174, .T. ) ;
#288 = MECHANICAL_DESIGN_GEOMETRIC_PRESENTATION_REPRESENTATION (  '', ( #256 ), #104 ) ;
#289 = LENGTH_MEASURE_WITH_UNIT ( LENGTH_MEASURE( 0.02539999999999999897 ), #196 );
#290 = FACE_OUTER_BOUND ( 'NONE', #159, .T. ) ;
#291 = DIRECTION ( 'NONE',  ( 1.224646799147353207E-16, 0.0000000000000000000, 1.000000000000000000 ) ) ;
#292 = PRESENTATION_LAYER_ASSIGNMENT (  '', '', ( #256 ) ) ;
#293 = DIRECTION ( 'NONE',  ( -1.224646799147353207E-16, -0.0000000000000000000, -1.000000000000000000 ) ) ;
#294 = ADVANCED_FACE ( 'NONE', ( #19 ), #157, .T. ) ;
#295 = CARTESIAN_POINT ( 'NONE',  ( 0.0000000000000000000, 0.0000000000000000000, 3.607046999999999670 ) ) ;
#296 = DIRECTION ( 'NONE',  ( 0.7071067811865346942, 8.659560562354773853E-17, -0.7071067811865603403 ) ) ;
#297 = AXIS2_PLACEMENT_3D ( 'NONE', #146, #9, #242 ) ;
#298 = CONICAL_SURFACE ( 'NONE', #212, 0.3539761694999999930, 0.1745329251994339192 ) ;
#299 = ORIENTED_EDGE ( 'NONE', *, *, #145, .F. ) ;
ENDSEC;
END-ISO-10303-21;
